  0
SECTION
  2
HEADER
  9
$ACADVER
  1
AC1009
  9
$INSBASE
 10
0.0
 20
0.0
 30
0.0
  9
$EXTMIN
 10
-16.1875
 20
-1.1875
 30
0.0
  9
$EXTMAX
 10
16.1875
 20
1.1875
 30
0.0
  9
$LIMMIN
 10
0.0
 20
0.0
  9
$LIMMAX
 10
12.0
 20
9.0
  9
$ORTHOMODE
 70
     0
  9
$REGENMODE
 70
     1
  9
$FILLMODE
 70
     1
  9
$QTEXTMODE
 70
     0
  9
$MIRRTEXT
 70
     1
  9
$DRAGMODE
 70
     2
  9
$LTSCALE
 40
1.0
  9
$OSMODE
 70
    37
  9
$ATTMODE
 70
     1
  9
$TEXTSIZE
 40
0.001
  9
$TRACEWID
 40
0.05
  9
$TEXTSTYLE
  7
STANDARD
  9
$CLAYER
  8
0
  9
$CELTYPE
  6
BYLAYER
  9
$CECOLOR
 62
   256
  9
$DIMSCALE
 40
1.0
  9
$DIMASZ
 40
0.18
  9
$DIMEXO
 40
0.0625
  9
$DIMDLI
 40
0.38
  9
$DIMRND
 40
0.0
  9
$DIMDLE
 40
0.0
  9
$DIMEXE
 40
0.18
  9
$DIMTP
 40
0.0
  9
$DIMTM
 40
0.0
  9
$DIMTXT
 40
0.18
  9
$DIMCEN
 40
0.09
  9
$DIMTSZ
 40
0.0
  9
$DIMTOL
 70
     0
  9
$DIMLIM
 70
     0
  9
$DIMTIH
 70
     1
  9
$DIMTOH
 70
     1
  9
$DIMSE1
 70
     0
  9
$DIMSE2
 70
     0
  9
$DIMTAD
 70
     0
  9
$DIMZIN
 70
     0
  9
$DIMBLK
  1

  9
$DIMASO
 70
     1
  9
$DIMSHO
 70
     1
  9
$DIMPOST
  1

  9
$DIMAPOST
  1

  9
$DIMALT
 70
     0
  9
$DIMALTD
 70
     2
  9
$DIMALTF
 40
25.399999999999999
  9
$DIMLFAC
 40
1.0
  9
$DIMTOFL
 70
     0
  9
$DIMTVP
 40
0.0
  9
$DIMTIX
 70
     0
  9
$DIMSOXD
 70
     0
  9
$DIMSAH
 70
     0
  9
$DIMBLK1
  1

  9
$DIMBLK2
  1

  9
$DIMSTYLE
  2
STANDARD
  9
$DIMCLRD
 70
     0
  9
$DIMCLRE
 70
     0
  9
$DIMCLRT
 70
     0
  9
$DIMTFAC
 40
1.0
  9
$DIMGAP
 40
0.09
  9
$LUNITS
 70
     2
  9
$LUPREC
 70
     4
  9
$SKETCHINC
 40
0.1
  9
$FILLETRAD
 40
0.5
  9
$AUNITS
 70
     0
  9
$AUPREC
 70
     0
  9
$MENU
  1
.
  9
$ELEVATION
 40
0.0
  9
$PELEVATION
 40
0.0
  9
$THICKNESS
 40
0.0
  9
$LIMCHECK
 70
     0
  9
$BLIPMODE
 70
     0
  9
$CHAMFERA
 40
0.5
  9
$CHAMFERB
 40
0.5
  9
$SKPOLY
 70
     0
  9
$TDCREATE
 40
2451380.555432396
  9
$TDUPDATE
 40
2456700.4986297679
  9
$TDINDWG
 40
0.101554537
  9
$TDUSRTIMER
 40
0.1015454977
  9
$USRTIMER
 70
     1
  9
$ANGBASE
 50
0.0
  9
$ANGDIR
 70
     0
  9
$PDMODE
 70
     0
  9
$PDSIZE
 40
0.0
  9
$PLINEWID
 40
0.0
  9
$COORDS
 70
     1
  9
$SPLFRAME
 70
     0
  9
$SPLINETYPE
 70
     6
  9
$SPLINESEGS
 70
     8
  9
$ATTDIA
 70
     0
  9
$ATTREQ
 70
     1
  9
$HANDLING
 70
     1
  9
$HANDSEED
  5
1D9
  9
$SURFTAB1
 70
     6
  9
$SURFTAB2
 70
     6
  9
$SURFTYPE
 70
     6
  9
$SURFU
 70
     6
  9
$SURFV
 70
     6
  9
$UCSNAME
  2

  9
$UCSORG
 10
0.0
 20
0.0
 30
0.0
  9
$UCSXDIR
 10
1.0
 20
0.0
 30
0.0
  9
$UCSYDIR
 10
0.0
 20
1.0
 30
0.0
  9
$PUCSNAME
  2

  9
$PUCSORG
 10
0.0
 20
0.0
 30
0.0
  9
$PUCSXDIR
 10
1.0
 20
0.0
 30
0.0
  9
$PUCSYDIR
 10
0.0
 20
1.0
 30
0.0
  9
$USERI1
 70
     0
  9
$USERI2
 70
     0
  9
$USERI3
 70
     0
  9
$USERI4
 70
     0
  9
$USERI5
 70
     0
  9
$USERR1
 40
0.0
  9
$USERR2
 40
0.0
  9
$USERR3
 40
0.0
  9
$USERR4
 40
0.0
  9
$USERR5
 40
0.0
  9
$WORLDVIEW
 70
     1
  9
$SHADEDGE
 70
     3
  9
$SHADEDIF
 70
    70
  9
$TILEMODE
 70
     1
  9
$MAXACTVP
 70
    64
  9
$PLIMCHECK
 70
     0
  9
$PEXTMIN
 10
1.0000000000000000E+020
 20
1.0000000000000000E+020
 30
1.0000000000000000E+020
  9
$PEXTMAX
 10
-1.0000000000000000E+020
 20
-1.0000000000000000E+020
 30
-1.0000000000000000E+020
  9
$PLIMMIN
 10
0.0
 20
0.0
  9
$PLIMMAX
 10
12.0
 20
9.0
  9
$UNITMODE
 70
     0
  9
$VISRETAIN
 70
     1
  9
$PLINEGEN
 70
     0
  9
$PSLTSCALE
 70
     1
  0
ENDSEC
  0
SECTION
  2
TABLES
  0
TABLE
  2
VPORT
 70
     1
  0
VPORT
  2
*ACTIVE
 70
     0
 10
0.0
 20
0.0
 11
1.0
 21
1.0
 12
-0.00049205898598
 22
3.7920049519781118
 13
0.0
 23
0.0
 14
0.5
 24
0.5
 15
0.5
 25
0.5
 16
0.0
 26
0.0
 36
1.0
 17
0.0
 27
0.0
 37
0.0
 40
27.506605119402479
 41
1.1829652996845419
 42
50.0
 43
0.0
 44
0.0
 50
0.0
 51
0.0
 71
     0
 72
  5000
 73
     1
 74
     1
 75
     0
 76
     0
 77
     0
 78
     0
  0
ENDTAB
  0
TABLE
  2
LTYPE
 70
     2
  0
LTYPE
  2
CONTINUOUS
 70
     0
  3
Solid line
 72
    65
 73
     0
 40
0.0
  0
LTYPE
  2
PHANTOM2
 70
     0
  3
Phantom (.5x) ___ _ _ ___ _ _ ___ _ _ ___ _ _
 72
    65
 73
     6
 40
1.25
 49
0.625
 49
-0.125
 49
0.125
 49
-0.125
 49
0.125
 49
-0.125
  0
ENDTAB
  0
TABLE
  2
LAYER
 70
     2
  0
LAYER
  2
0
 70
     0
 62
     7
  6
CONTINUOUS
  0
LAYER
  2
DEFPOINTS
 70
     0
 62
     7
  6
CONTINUOUS
  0
ENDTAB
  0
TABLE
  2
STYLE
 70
     1
  0
STYLE
  2
STANDARD
 70
     0
 40
0.0
 41
1.0
 50
0.0
 71
     0
 42
0.001
  3
txt
  4

  0
ENDTAB
  0
TABLE
  2
VIEW
 70
     0
  0
ENDTAB
  0
TABLE
  2
UCS
 70
     0
  0
ENDTAB
  0
TABLE
  2
APPID
 70
     5
  0
APPID
  2
ACAD
 70
     0
  0
APPID
  2
ACAD_MLEADERVER
 70
     0
  0
APPID
  2
ACAD_EXEMPT_FROM_CAD_STANDARDS
 70
     0
  0
APPID
  2
ACAD_NAV_VCDISPLAY
 70
     0
  0
APPID
  2
AcDbAttr
 70
     0
  0
ENDTAB
  0
TABLE
  2
DIMSTYLE
 70
     1
  0
DIMSTYLE
  2
STANDARD
 70
     0
  3

  4

  5

  6

  7

 40
1.0
 41
0.18
 42
0.0625
 43
0.38
 44
0.18
 45
0.0
 46
0.0
 47
0.0
 48
0.0
140
0.18
141
0.09
142
0.0
143
25.399999999999999
144
1.0
145
0.0
146
1.0
147
0.09
 71
     0
 72
     0
 73
     1
 74
     1
 75
     0
 76
     0
 77
     0
 78
     0
170
     0
171
     2
172
     0
173
     0
174
     0
175
     0
176
     0
177
     0
178
     0
  0
ENDTAB
  0
ENDSEC
  0
SECTION
  2
BLOCKS
  0
BLOCK
  8
0
  2
$MODEL_SPACE
 70
     2
 10
0.0
 20
0.0
 30
0.0
  3
$MODEL_SPACE
  1

  0
ENDBLK
  5
16
  8
0
  0
BLOCK
 67
     1
  8
0
  2
$PAPER_SPACE
 70
     0
 10
0.0
 20
0.0
 30
0.0
  3
$PAPER_SPACE
  1

  0
ENDBLK
  5
1D
 67
     1
  8
0
  0
ENDSEC
  0
SECTION
  2
ENTITIES
  0
ARC
  5
82
  8
0
 10
-15.0
 20
0.0
 30
0.0
 40
1.1875
 50
15.645330330668999
 51
344.33068670341868
  0
ARC
  5
83
  8
0
 10
-15.0
 20
0.0
 30
0.0
 40
1.095630678959975
 50
16.99533430664162
 51
342.97843695999961
  0
ARC
  5
84
  8
0
 10
-15.0
 20
0.0
 30
0.0
 40
0.9818635915008446
 50
19.035881190987119
 51
340.93443249982829
  0
ARC
  5
86
  8
0
 10
-15.0
 20
0.0
 30
0.0
 40
1.054309282132424
 50
17.682930647884412
 51
342.28968443148563
  0
ARC
  5
87
  8
0
 10
-15.0
 20
0.0
 30
0.0
 40
0.9405224059312645
 50
19.907113309484561
 51
340.06169855893762
  0
ARC
  5
88
  8
0
 10
-15.0
 20
0.0
 30
0.0
 40
0.8487574790213347
 50
22.167060643269551
 51
337.7977753363254
  0
ARC
  5
89
  8
0
 10
-15.0
 20
0.0
 30
0.0
 40
0.6154137585804165
 50
31.312992205664141
 51
328.68701917258898
  0
ARC
  5
8A
  8
0
 10
-15.0
 20
0.0
 30
0.0
 40
0.479333761756152
 50
35.803558341431703
 51
324.19646137631798
  0
ARC
  5
8B
  8
0
 10
-15.0
 20
0.0
 30
0.0
 40
0.2968876506420024
 50
64.414516221532921
 51
295.58555250135799
  0
POLYLINE
  5
8D
  8
0
 66
     1
 10
0.0
 20
0.0
 30
0.0
  0
VERTEX
  5
154
  8
0
 10
-14.38845920562744
 20
0.3202415440723598
 30
0.0
  0
VERTEX
  5
155
  8
0
 10
-14.414650917053221
 20
0.3347533677265346
 30
0.0
  0
VERTEX
  5
156
  8
0
 10
-14.440933227539061
 20
0.3370318148777187
 30
0.0
  0
VERTEX
  5
157
  8
0
 10
-14.46748161315918
 20
0.3247749541446865
 30
0.0
  0
VERTEX
  5
158
  8
0
 10
-14.49415969848633
 20
0.3052503798649013
 30
0.0
  0
VERTEX
  5
159
  8
0
 10
-14.5544900894165
 20
0.2904782925293148
 30
0.0
  0
VERTEX
  5
15A
  8
0
 10
-14.62433242797851
 20
0.2780938182518184
 30
0.0
  0
VERTEX
  5
15B
  8
0
 10
-14.713192939758301
 20
0.2704848085090816
 30
0.0
  0
VERTEX
  5
15C
  8
0
 10
-14.80510807037353
 20
0.2671760354683101
 30
0.0
  0
VERTEX
  5
15D
  8
0
 10
-14.943900108337401
 20
0.2684236798927486
 30
0.0
  0
VERTEX
  5
15E
  8
0
 10
-14.978134155273439
 20
0.2657473717376888
 30
0.0
  0
VERTEX
  5
15F
  8
0
 10
-15.0755615234375
 20
0.2447153512880504
 30
0.0
  0
VERTEX
  5
160
  8
0
 10
-15.15872764587402
 20
0.1878512833759487
 30
0.0
  0
VERTEX
  5
161
  8
0
 10
-15.213376998901371
 20
0.1013368923709095
 30
0.0
  0
VERTEX
  5
162
  8
0
 10
-15.233572959899901
 20
0.0000000754484972
 30
0.0
  0
SEQEND
  5
163
  8
0
  0
POLYLINE
  5
8E
  8
0
 66
     1
 10
0.0
 20
0.0
 30
0.0
  0
VERTEX
  5
164
  8
0
 10
-14.38845920562744
 20
-0.3202413931753654
 30
0.0
  0
VERTEX
  5
165
  8
0
 10
-14.414650917053221
 20
-0.3347532168295402
 30
0.0
  0
VERTEX
  5
166
  8
0
 10
-14.440933227539061
 20
-0.3370316639807243
 30
0.0
  0
VERTEX
  5
167
  8
0
 10
-14.46748161315918
 20
-0.324774803247692
 30
0.0
  0
VERTEX
  5
168
  8
0
 10
-14.49415969848633
 20
-0.3052502289679069
 30
0.0
  0
VERTEX
  5
169
  8
0
 10
-14.5544900894165
 20
-0.2904781416323203
 30
0.0
  0
VERTEX
  5
16A
  8
0
 10
-14.62433242797851
 20
-0.278093667354824
 30
0.0
  0
VERTEX
  5
16B
  8
0
 10
-14.713192939758301
 20
-0.2704846576120872
 30
0.0
  0
VERTEX
  5
16C
  8
0
 10
-14.80510807037353
 20
-0.2671758845713157
 30
0.0
  0
VERTEX
  5
16D
  8
0
 10
-14.943900108337401
 20
-0.2684235289957542
 30
0.0
  0
VERTEX
  5
16E
  8
0
 10
-14.978134155273439
 20
-0.2657472208406943
 30
0.0
  0
VERTEX
  5
16F
  8
0
 10
-15.0755615234375
 20
-0.244715200391056
 30
0.0
  0
VERTEX
  5
170
  8
0
 10
-15.15872764587402
 20
-0.1878511324789542
 30
0.0
  0
VERTEX
  5
171
  8
0
 10
-15.213376998901371
 20
-0.101336741473915
 30
0.0
  0
VERTEX
  5
172
  8
0
 10
-15.233572959899901
 20
0.0000000754484972
 30
0.0
  0
SEQEND
  5
173
  8
0
  0
POLYLINE
  5
8F
  8
0
 66
     1
 10
0.0
 20
0.0
 30
0.0
  0
VERTEX
  5
174
  8
0
 10
-14.99422931671142
 20
-0.2672702636077702
 30
0.0
  0
VERTEX
  5
175
  8
0
 10
-15.09635543823242
 20
-0.2461329813554585
 30
0.0
  0
VERTEX
  5
176
  8
0
 10
-15.18353652954101
 20
-0.1889490600183308
 30
0.0
  0
VERTEX
  5
177
  8
0
 10
-15.240823745727541
 20
-0.1019323285177052
 30
0.0
  0
VERTEX
  5
178
  8
0
 10
-15.26199340820312
 20
0.0000000919881131
 30
0.0
  0
VERTEX
  5
179
  8
0
 10
-15.240823745727541
 20
0.1019325141355694
 30
0.0
  0
VERTEX
  5
17A
  8
0
 10
-15.18353652954101
 20
0.1889493052408397
 30
0.0
  0
VERTEX
  5
17B
  8
0
 10
-15.096357345581049
 20
0.2461331520721615
 30
0.0
  0
VERTEX
  5
17C
  8
0
 10
-14.99422931671142
 20
0.2672705088302791
 30
0.0
  0
VERTEX
  5
17D
  8
0
 10
-14.943900108337401
 20
0.2684236798927486
 30
0.0
  0
SEQEND
  5
17E
  8
0
  0
LINE
  5
90
  8
0
 10
-14.99422931671142
 20
-0.2672702636077702
 30
0.0
 11
-14.978134155273439
 21
-0.2657472208406943
 31
0.0
  0
LINE
  5
91
  8
0
 10
-14.38845920562744
 20
0.3202415440723598
 30
0.0
 11
-14.38845920562744
 21
-0.3202413931753654
 31
0.0
  0
LINE
  5
92
  8
0
 10
-14.49415969848633
 20
0.3052503798649013
 30
0.0
 11
-14.49415969848633
 21
-0.3052507306888401
 31
0.0
  0
LINE
  5
93
  8
0
 10
-14.440933227539061
 20
-0.3370323147132694
 30
0.0
 11
-14.440933227539061
 21
0.3370318148777187
 31
0.0
  0
LINE
  5
94
  8
0
 10
14.38845920562744
 20
0.3202415440723599
 30
0.0
 11
-14.38845920562744
 21
0.3202415440723598
 31
0.0
  0
LINE
  5
95
  8
0
 10
14.38845920562744
 20
-0.3202413931753654
 30
0.0
 11
-14.38845920562744
 21
-0.3202413931753654
 31
0.0
  0
ATTDEF
  5
96
  8
DEFPOINTS
 10
0.0
 20
0.0
 30
0.0
 40
0.001
  1
K-10552
  3

  2
MODELNUMBER
 70
     8
1001
AcDbAttr
1070
     0
1070
     1
  0
ATTDEF
  5
98
  8
DEFPOINTS
 10
0.0
 20
-0.005
 30
0.0
 40
0.001
  1
METAL
  3

  2
MATERIAL
 70
     8
1001
AcDbAttr
1070
     0
1070
     1
  0
ATTDEF
  5
99
  8
DEFPOINTS
 10
0.0
 20
-0.0033333333333333
 30
0.0
 40
0.001
  1
30" TOWEL BAR
  3

  2
PRODUCT
 70
     8
1001
AcDbAttr
1070
     0
1070
     1
  0
ATTDEF
  5
9A
  8
DEFPOINTS
 10
0.0
 20
-0.0016666666666667
 30
0.0
 40
0.001
  1
DEVONSHIRE
  3

  2
TRADENAME
 70
     8
1001
AcDbAttr
1070
     0
1070
     1
  0
ARC
  5
10A
  8
0
 10
15.0
 20
0.0
 30
0.0
 40
1.1875
 50
195.66931329658121
 51
164.354669669331
  0
ARC
  5
10B
  8
0
 10
15.0
 20
0.0
 30
0.0
 40
1.095630678959975
 50
197.02156304000039
 51
163.00466569335831
  0
ARC
  5
10C
  8
0
 10
15.0
 20
0.0
 30
0.0
 40
0.9818635915008446
 50
199.06556750017171
 51
160.9641188090128
  0
ARC
  5
10D
  8
0
 10
15.0
 20
0.0
 30
0.0
 40
1.054309282132424
 50
197.7103155685144
 51
162.3170693521156
  0
ARC
  5
10E
  8
0
 10
15.0
 20
0.0
 30
0.0
 40
0.9405224059312645
 50
199.93830144106241
 51
160.0928866905154
  0
ARC
  5
10F
  8
0
 10
15.0
 20
0.0
 30
0.0
 40
0.8487574790213347
 50
202.20222466367451
 51
157.83293935673041
  0
ARC
  5
110
  8
0
 10
15.0
 20
0.0
 30
0.0
 40
0.6154137585804165
 50
211.312980827411
 51
148.6870077943359
  0
ARC
  5
111
  8
0
 10
15.0
 20
0.0
 30
0.0
 40
0.479333761756152
 50
215.80353862368199
 51
144.19644165856829
  0
ARC
  5
112
  8
0
 10
15.0
 20
0.0
 30
0.0
 40
0.2968876506420024
 50
244.41444749864201
 51
115.58548377846709
  0
POLYLINE
  5
113
  8
0
 66
     1
 10
0.0
 20
0.0
 30
0.0
  0
VERTEX
  5
1AE
  8
0
 10
14.38845920562744
 20
0.3202415440723598
 30
0.0
  0
VERTEX
  5
1AF
  8
0
 10
14.414650917053221
 20
0.3347533677265346
 30
0.0
  0
VERTEX
  5
1B0
  8
0
 10
14.440933227539061
 20
0.3370318148777187
 30
0.0
  0
VERTEX
  5
1B1
  8
0
 10
14.46748161315918
 20
0.3247749541446865
 30
0.0
  0
VERTEX
  5
1B2
  8
0
 10
14.49415969848633
 20
0.3052503798649013
 30
0.0
  0
VERTEX
  5
1B3
  8
0
 10
14.5544900894165
 20
0.2904782925293148
 30
0.0
  0
VERTEX
  5
1B4
  8
0
 10
14.62433242797851
 20
0.2780938182518184
 30
0.0
  0
VERTEX
  5
1B5
  8
0
 10
14.713192939758301
 20
0.2704848085090816
 30
0.0
  0
VERTEX
  5
1B6
  8
0
 10
14.80510807037353
 20
0.2671760354683101
 30
0.0
  0
VERTEX
  5
1B7
  8
0
 10
14.943900108337401
 20
0.2684236798927486
 30
0.0
  0
VERTEX
  5
1B8
  8
0
 10
14.978134155273439
 20
0.2657473717376888
 30
0.0
  0
VERTEX
  5
1B9
  8
0
 10
15.0755615234375
 20
0.2447153512880504
 30
0.0
  0
VERTEX
  5
1BA
  8
0
 10
15.15872764587402
 20
0.1878512833759487
 30
0.0
  0
VERTEX
  5
1BB
  8
0
 10
15.213376998901371
 20
0.1013368923709095
 30
0.0
  0
VERTEX
  5
1BC
  8
0
 10
15.233572959899901
 20
0.0000000754484972
 30
0.0
  0
SEQEND
  5
1BD
  8
0
  0
POLYLINE
  5
114
  8
0
 66
     1
 10
0.0
 20
0.0
 30
0.0
  0
VERTEX
  5
1BE
  8
0
 10
14.38845920562744
 20
-0.3202413931753654
 30
0.0
  0
VERTEX
  5
1BF
  8
0
 10
14.414650917053221
 20
-0.3347532168295402
 30
0.0
  0
VERTEX
  5
1C0
  8
0
 10
14.440933227539061
 20
-0.3370316639807243
 30
0.0
  0
VERTEX
  5
1C1
  8
0
 10
14.46748161315918
 20
-0.324774803247692
 30
0.0
  0
VERTEX
  5
1C2
  8
0
 10
14.49415969848633
 20
-0.3052502289679069
 30
0.0
  0
VERTEX
  5
1C3
  8
0
 10
14.5544900894165
 20
-0.2904781416323203
 30
0.0
  0
VERTEX
  5
1C4
  8
0
 10
14.62433242797851
 20
-0.278093667354824
 30
0.0
  0
VERTEX
  5
1C5
  8
0
 10
14.713192939758301
 20
-0.2704846576120872
 30
0.0
  0
VERTEX
  5
1C6
  8
0
 10
14.80510807037353
 20
-0.2671758845713157
 30
0.0
  0
VERTEX
  5
1C7
  8
0
 10
14.943900108337401
 20
-0.2684235289957542
 30
0.0
  0
VERTEX
  5
1C8
  8
0
 10
14.978134155273439
 20
-0.2657472208406943
 30
0.0
  0
VERTEX
  5
1C9
  8
0
 10
15.0755615234375
 20
-0.244715200391056
 30
0.0
  0
VERTEX
  5
1CA
  8
0
 10
15.15872764587402
 20
-0.1878511324789542
 30
0.0
  0
VERTEX
  5
1CB
  8
0
 10
15.213376998901371
 20
-0.101336741473915
 30
0.0
  0
VERTEX
  5
1CC
  8
0
 10
15.233572959899901
 20
0.0000000754484972
 30
0.0
  0
SEQEND
  5
1CD
  8
0
  0
POLYLINE
  5
115
  8
0
 66
     1
 10
0.0
 20
0.0
 30
0.0
  0
VERTEX
  5
1CE
  8
0
 10
14.99422931671142
 20
-0.2672702636077702
 30
0.0
  0
VERTEX
  5
1CF
  8
0
 10
15.09635543823242
 20
-0.2461329813554585
 30
0.0
  0
VERTEX
  5
1D0
  8
0
 10
15.18353652954101
 20
-0.1889490600183308
 30
0.0
  0
VERTEX
  5
1D1
  8
0
 10
15.240823745727541
 20
-0.1019323285177052
 30
0.0
  0
VERTEX
  5
1D2
  8
0
 10
15.26199340820312
 20
0.0000000919881131
 30
0.0
  0
VERTEX
  5
1D3
  8
0
 10
15.240823745727541
 20
0.1019325141355694
 30
0.0
  0
VERTEX
  5
1D4
  8
0
 10
15.18353652954101
 20
0.1889493052408397
 30
0.0
  0
VERTEX
  5
1D5
  8
0
 10
15.096357345581049
 20
0.2461331520721615
 30
0.0
  0
VERTEX
  5
1D6
  8
0
 10
14.99422931671142
 20
0.2672705088302791
 30
0.0
  0
VERTEX
  5
1D7
  8
0
 10
14.943900108337401
 20
0.2684236798927486
 30
0.0
  0
SEQEND
  5
1D8
  8
0
  0
LINE
  5
116
  8
0
 10
14.99422931671142
 20
-0.2672702636077702
 30
0.0
 11
14.978134155273439
 21
-0.2657472208406943
 31
0.0
  0
LINE
  5
117
  8
0
 10
14.38845920562744
 20
0.3202415440723598
 30
0.0
 11
14.38845920562744
 21
-0.3202413931753654
 31
0.0
  0
LINE
  5
118
  8
0
 10
14.49415969848633
 20
0.3052503798649013
 30
0.0
 11
14.49415969848633
 21
-0.3052507306888401
 31
0.0
  0
LINE
  5
119
  8
0
 10
14.440933227539061
 20
-0.3370323147132694
 30
0.0
 11
14.440933227539061
 21
0.3370318148777187
 31
0.0
  0
ENDSEC
  0
EOF
