  0
SECTION
  2
HEADER
  9
$ACADVER
  1
AC1009
  9
$INSBASE
 10
0.0
 20
0.0
 30
0.0
  9
$EXTMIN
 10
-3.3738059997640448
 20
-1.1875000982730901
 30
0.0
  9
$EXTMAX
 10
0.0106666666666667
 20
1.1874999017269121
 30
0.0
  9
$LIMMIN
 10
0.0
 20
0.0
  9
$LIMMAX
 10
12.0
 20
9.0
  9
$ORTHOMODE
 70
     0
  9
$REGENMODE
 70
     1
  9
$FILLMODE
 70
     1
  9
$QTEXTMODE
 70
     0
  9
$MIRRTEXT
 70
     1
  9
$DRAGMODE
 70
     2
  9
$LTSCALE
 40
1.0
  9
$OSMODE
 70
    37
  9
$ATTMODE
 70
     1
  9
$TEXTSIZE
 40
0.001
  9
$TRACEWID
 40
0.05
  9
$TEXTSTYLE
  7
STANDARD
  9
$CLAYER
  8
0
  9
$CELTYPE
  6
BYLAYER
  9
$CECOLOR
 62
   256
  9
$DIMSCALE
 40
1.0
  9
$DIMASZ
 40
0.18
  9
$DIMEXO
 40
0.0625
  9
$DIMDLI
 40
0.38
  9
$DIMRND
 40
0.0
  9
$DIMDLE
 40
0.0
  9
$DIMEXE
 40
0.18
  9
$DIMTP
 40
0.0
  9
$DIMTM
 40
0.0
  9
$DIMTXT
 40
0.18
  9
$DIMCEN
 40
0.09
  9
$DIMTSZ
 40
0.0
  9
$DIMTOL
 70
     0
  9
$DIMLIM
 70
     0
  9
$DIMTIH
 70
     1
  9
$DIMTOH
 70
     1
  9
$DIMSE1
 70
     0
  9
$DIMSE2
 70
     0
  9
$DIMTAD
 70
     0
  9
$DIMZIN
 70
     0
  9
$DIMBLK
  1

  9
$DIMASO
 70
     1
  9
$DIMSHO
 70
     1
  9
$DIMPOST
  1

  9
$DIMAPOST
  1

  9
$DIMALT
 70
     0
  9
$DIMALTD
 70
     2
  9
$DIMALTF
 40
25.399999999999999
  9
$DIMLFAC
 40
1.0
  9
$DIMTOFL
 70
     0
  9
$DIMTVP
 40
0.0
  9
$DIMTIX
 70
     0
  9
$DIMSOXD
 70
     0
  9
$DIMSAH
 70
     0
  9
$DIMBLK1
  1

  9
$DIMBLK2
  1

  9
$DIMSTYLE
  2
STANDARD
  9
$DIMCLRD
 70
     0
  9
$DIMCLRE
 70
     0
  9
$DIMCLRT
 70
     0
  9
$DIMTFAC
 40
1.0
  9
$DIMGAP
 40
0.09
  9
$LUNITS
 70
     2
  9
$LUPREC
 70
     4
  9
$SKETCHINC
 40
0.1
  9
$FILLETRAD
 40
0.5
  9
$AUNITS
 70
     0
  9
$AUPREC
 70
     0
  9
$MENU
  1
.
  9
$ELEVATION
 40
0.0
  9
$PELEVATION
 40
0.0
  9
$THICKNESS
 40
0.0
  9
$LIMCHECK
 70
     0
  9
$BLIPMODE
 70
     0
  9
$CHAMFERA
 40
0.5
  9
$CHAMFERB
 40
0.5
  9
$SKPOLY
 70
     0
  9
$TDCREATE
 40
2451380.555432396
  9
$TDUPDATE
 40
2456700.4986624769
  9
$TDINDWG
 40
0.0911621412
  9
$TDUSRTIMER
 40
0.0911531019
  9
$USRTIMER
 70
     1
  9
$ANGBASE
 50
0.0
  9
$ANGDIR
 70
     0
  9
$PDMODE
 70
     0
  9
$PDSIZE
 40
0.0
  9
$PLINEWID
 40
0.0
  9
$COORDS
 70
     1
  9
$SPLFRAME
 70
     0
  9
$SPLINETYPE
 70
     6
  9
$SPLINESEGS
 70
     8
  9
$ATTDIA
 70
     0
  9
$ATTREQ
 70
     1
  9
$HANDLING
 70
     1
  9
$HANDSEED
  5
1ED
  9
$SURFTAB1
 70
     6
  9
$SURFTAB2
 70
     6
  9
$SURFTYPE
 70
     6
  9
$SURFU
 70
     6
  9
$SURFV
 70
     6
  9
$UCSNAME
  2

  9
$UCSORG
 10
0.0
 20
0.0
 30
0.0
  9
$UCSXDIR
 10
1.0
 20
0.0
 30
0.0
  9
$UCSYDIR
 10
0.0
 20
1.0
 30
0.0
  9
$PUCSNAME
  2

  9
$PUCSORG
 10
0.0
 20
0.0
 30
0.0
  9
$PUCSXDIR
 10
1.0
 20
0.0
 30
0.0
  9
$PUCSYDIR
 10
0.0
 20
1.0
 30
0.0
  9
$USERI1
 70
     0
  9
$USERI2
 70
     0
  9
$USERI3
 70
     0
  9
$USERI4
 70
     0
  9
$USERI5
 70
     0
  9
$USERR1
 40
0.0
  9
$USERR2
 40
0.0
  9
$USERR3
 40
0.0
  9
$USERR4
 40
0.0
  9
$USERR5
 40
0.0
  9
$WORLDVIEW
 70
     1
  9
$SHADEDGE
 70
     3
  9
$SHADEDIF
 70
    70
  9
$TILEMODE
 70
     1
  9
$MAXACTVP
 70
    64
  9
$PLIMCHECK
 70
     0
  9
$PEXTMIN
 10
1.0000000000000000E+020
 20
1.0000000000000000E+020
 30
1.0000000000000000E+020
  9
$PEXTMAX
 10
-1.0000000000000000E+020
 20
-1.0000000000000000E+020
 30
-1.0000000000000000E+020
  9
$PLIMMIN
 10
0.0
 20
0.0
  9
$PLIMMAX
 10
12.0
 20
9.0
  9
$UNITMODE
 70
     0
  9
$VISRETAIN
 70
     1
  9
$PLINEGEN
 70
     0
  9
$PSLTSCALE
 70
     1
  0
ENDSEC
  0
SECTION
  2
TABLES
  0
TABLE
  2
VPORT
 70
     1
  0
VPORT
  2
*ACTIVE
 70
     0
 10
0.0
 20
0.0
 11
1.0
 21
1.0
 12
-1.6815152197240411
 22
0.4558517469492372
 13
0.0
 23
0.0
 14
0.5
 24
0.5
 15
0.5
 25
0.5
 16
0.0
 26
0.0
 36
1.0
 17
0.0
 27
0.0
 37
0.0
 40
3.3072913080585771
 41
1.1829652996845419
 42
50.0
 43
0.0
 44
0.0
 50
0.0
 51
0.0
 71
     0
 72
  5500
 73
     1
 74
     1
 75
     0
 76
     0
 77
     0
 78
     0
  0
ENDTAB
  0
TABLE
  2
LTYPE
 70
     2
  0
LTYPE
  2
CONTINUOUS
 70
     0
  3
Solid line
 72
    65
 73
     0
 40
0.0
  0
LTYPE
  2
PHANTOM2
 70
     0
  3
Phantom (.5x) ___ _ _ ___ _ _ ___ _ _ ___ _ _
 72
    65
 73
     6
 40
1.25
 49
0.625
 49
-0.125
 49
0.125
 49
-0.125
 49
0.125
 49
-0.125
  0
ENDTAB
  0
TABLE
  2
LAYER
 70
     2
  0
LAYER
  2
0
 70
     0
 62
     7
  6
CONTINUOUS
  0
LAYER
  2
DEFPOINTS
 70
     0
 62
     7
  6
CONTINUOUS
  0
ENDTAB
  0
TABLE
  2
STYLE
 70
     1
  0
STYLE
  2
STANDARD
 70
     0
 40
0.0
 41
1.0
 50
0.0
 71
     0
 42
0.001
  3
txt
  4

  0
ENDTAB
  0
TABLE
  2
VIEW
 70
     0
  0
ENDTAB
  0
TABLE
  2
UCS
 70
     0
  0
ENDTAB
  0
TABLE
  2
APPID
 70
     5
  0
APPID
  2
ACAD
 70
     0
  0
APPID
  2
ACAD_MLEADERVER
 70
     0
  0
APPID
  2
ACAD_EXEMPT_FROM_CAD_STANDARDS
 70
     0
  0
APPID
  2
ACAD_NAV_VCDISPLAY
 70
     0
  0
APPID
  2
AcDbAttr
 70
     0
  0
ENDTAB
  0
TABLE
  2
DIMSTYLE
 70
     1
  0
DIMSTYLE
  2
STANDARD
 70
     0
  3

  4

  5

  6

  7

 40
1.0
 41
0.18
 42
0.0625
 43
0.38
 44
0.18
 45
0.0
 46
0.0
 47
0.0
 48
0.0
140
0.18
141
0.09
142
0.0
143
25.399999999999999
144
1.0
145
0.0
146
1.0
147
0.09
 71
     0
 72
     0
 73
     1
 74
     1
 75
     0
 76
     0
 77
     0
 78
     0
170
     0
171
     2
172
     0
173
     0
174
     0
175
     0
176
     0
177
     0
178
     0
  0
ENDTAB
  0
ENDSEC
  0
SECTION
  2
BLOCKS
  0
BLOCK
  8
0
  2
$MODEL_SPACE
 70
     2
 10
0.0
 20
0.0
 30
0.0
  3
$MODEL_SPACE
  1

  0
ENDBLK
  5
16
  8
0
  0
BLOCK
 67
     1
  8
0
  2
$PAPER_SPACE
 70
     0
 10
0.0
 20
0.0
 30
0.0
  3
$PAPER_SPACE
  1

  0
ENDBLK
  5
1D
 67
     1
  8
0
  0
ENDSEC
  0
SECTION
  2
ENTITIES
  0
POLYLINE
  5
70
  8
0
 66
     1
 10
0.0
 20
0.0
 30
0.0
  0
VERTEX
  5
154
  8
0
 10
0.0
 20
0.0
 30
0.0
  0
VERTEX
  5
155
  8
0
 10
0.0000000000085288
 20
-1.1875000982730901
 30
0.0
  0
VERTEX
  5
156
  8
0
 10
-0.0673408508215493
 20
-1.1875000982730901
 30
0.0
  0
VERTEX
  5
157
  8
0
 10
-0.0909843442161934
 20
-1.1599576554752391
 30
0.0
  0
VERTEX
  5
158
  8
0
 10
-0.0915603637695313
 20
-1.0956258773803711
 30
0.0
  0
VERTEX
  5
159
  8
0
 10
-0.1700096130371094
 20
-1.0543066089653861
 30
0.0
  0
VERTEX
  5
15A
  8
0
 10
-0.1701202392578125
 20
-0.9818588495254516
 30
0.0
  0
VERTEX
  5
15B
  8
0
 10
-0.2471733093261719
 20
-0.940522015094757
 30
0.0
  0
VERTEX
  5
15C
  8
0
 10
-0.2471771240234375
 20
-0.8857207775857677
 30
0.0
  0
VERTEX
  5
15D
  8
0
 10
-0.2692489624023437
 20
-0.848752737045288
 30
0.0
  0
VERTEX
  5
15E
  8
0
 10
-0.9781036376953125
 20
-0.4401328265666962
 30
0.0
  0
VERTEX
  5
15F
  8
0
 10
-1.3921737670898431
 20
-0.4009615778923035
 30
0.0
  0
VERTEX
  5
160
  8
0
 10
-1.4186286926269529
 20
-0.4533247351646424
 30
0.0
  0
VERTEX
  5
161
  8
0
 10
-1.573554992675781
 20
-0.4533247351646424
 30
0.0
  0
VERTEX
  5
162
  8
0
 10
-1.6005516052246089
 20
-0.4220134615898133
 30
0.0
  0
VERTEX
  5
163
  8
0
 10
-1.60055923461914
 20
-0.3989953100681305
 30
0.0
  0
VERTEX
  5
164
  8
0
 10
-1.9252281188964839
 20
-0.4289077520370484
 30
0.0
  0
VERTEX
  5
165
  8
0
 10
-1.955169677734375
 20
-0.5130482981282141
 30
0.0
  0
VERTEX
  5
166
  8
0
 10
-1.9943161010742181
 20
-0.5129325513113919
 30
0.0
  0
VERTEX
  5
167
  8
0
 10
-2.0239715576171871
 20
-0.5455743399888837
 30
0.0
  0
VERTEX
  5
168
  8
0
 10
-2.0239753723144531
 20
-0.5827799439430237
 30
0.0
  0
VERTEX
  5
169
  8
0
 10
-2.0536994934082031
 20
-0.6154082417488099
 30
0.0
  0
VERTEX
  5
16A
  8
0
 10
-2.1744384765625
 20
-0.6154082417488099
 30
0.0
  0
VERTEX
  5
16B
  8
0
 10
-2.2045364379882808
 20
-0.5821599227016266
 30
0.0
  0
VERTEX
  5
16C
  8
0
 10
-2.2045364379882808
 20
-0.5449995398521425
 30
0.0
  0
VERTEX
  5
16D
  8
0
 10
-2.234710693359375
 20
-0.5122059317138494
 30
0.0
  0
VERTEX
  5
16E
  8
0
 10
-2.2705917358398429
 20
-0.5120975852641865
 30
0.0
  0
VERTEX
  5
16F
  8
0
 10
-2.3009376525878902
 20
-0.4793337285518647
 30
0.0
  0
VERTEX
  5
170
  8
0
 10
-2.302656331981332
 20
-0.4298397910410614
 30
0.0
  0
VERTEX
  5
171
  8
0
 10
-2.330230712890625
 20
-0.40989488363266
 30
0.0
  0
VERTEX
  5
172
  8
0
 10
-2.3744049072265621
 20
-0.4098012745380402
 30
0.0
  0
SEQEND
  5
173
  8
0
  0
POLYLINE
  5
71
  8
0
 66
     1
 10
0.0
 20
0.0
 30
0.0
  0
VERTEX
  5
174
  8
0
 10
0.0
 20
0.0
 30
0.0
  0
VERTEX
  5
175
  8
0
 10
-0.000000000008519
 20
1.1874999017269121
 30
0.0
  0
VERTEX
  5
176
  8
0
 10
-0.0673408508385972
 20
1.1874999017269121
 30
0.0
  0
VERTEX
  5
177
  8
0
 10
-0.0909843442247223
 20
1.159786968708802
 30
0.0
  0
VERTEX
  5
178
  8
0
 10
-0.0915603637695313
 20
1.0956258773803711
 30
0.0
  0
VERTEX
  5
179
  8
0
 10
-0.1700096130371094
 20
1.0543066089653861
 30
0.0
  0
VERTEX
  5
17A
  8
0
 10
-0.1701202392578125
 20
0.9818588495254516
 30
0.0
  0
VERTEX
  5
17B
  8
0
 10
-0.2471733093261719
 20
0.940522015094757
 30
0.0
  0
VERTEX
  5
17C
  8
0
 10
-0.2471771240234375
 20
0.8857207775857677
 30
0.0
  0
VERTEX
  5
17D
  8
0
 10
-0.2692489624023437
 20
0.848752737045288
 30
0.0
  0
VERTEX
  5
17E
  8
0
 10
-0.9781036376953125
 20
0.4401328265666962
 30
0.0
  0
VERTEX
  5
17F
  8
0
 10
-1.3921737670898431
 20
0.4009615778923035
 30
0.0
  0
VERTEX
  5
180
  8
0
 10
-1.4186286926269529
 20
0.4533247351646424
 30
0.0
  0
VERTEX
  5
181
  8
0
 10
-1.573554992675781
 20
0.4533247351646424
 30
0.0
  0
VERTEX
  5
182
  8
0
 10
-1.6005516052246089
 20
0.4220134615898133
 30
0.0
  0
VERTEX
  5
183
  8
0
 10
-1.60055923461914
 20
0.3989953100681305
 30
0.0
  0
VERTEX
  5
184
  8
0
 10
-1.9252281188964839
 20
0.4289077520370484
 30
0.0
  0
VERTEX
  5
185
  8
0
 10
-1.955169677734375
 20
0.5130482981282141
 30
0.0
  0
VERTEX
  5
186
  8
0
 10
-1.9943161010742181
 20
0.5129325513113919
 30
0.0
  0
VERTEX
  5
187
  8
0
 10
-2.0239715576171871
 20
0.5455743399888837
 30
0.0
  0
VERTEX
  5
188
  8
0
 10
-2.0239753723144531
 20
0.5827799439430237
 30
0.0
  0
VERTEX
  5
189
  8
0
 10
-2.0536994934082031
 20
0.6154082417488099
 30
0.0
  0
VERTEX
  5
18A
  8
0
 10
-2.1744384765625
 20
0.6154082417488099
 30
0.0
  0
VERTEX
  5
18B
  8
0
 10
-2.2045364379882808
 20
0.5821599227016266
 30
0.0
  0
VERTEX
  5
18C
  8
0
 10
-2.2045364379882808
 20
0.5449995398521425
 30
0.0
  0
VERTEX
  5
18D
  8
0
 10
-2.234710693359375
 20
0.5122059317138495
 30
0.0
  0
VERTEX
  5
18E
  8
0
 10
-2.2705917358398429
 20
0.5120975852641865
 30
0.0
  0
VERTEX
  5
18F
  8
0
 10
-2.3009376525878902
 20
0.4793337285518647
 30
0.0
  0
VERTEX
  5
190
  8
0
 10
-2.302656331981332
 20
0.4298397910410614
 30
0.0
  0
VERTEX
  5
191
  8
0
 10
-2.330230712890625
 20
0.40989488363266
 30
0.0
  0
VERTEX
  5
192
  8
0
 10
-2.3744049072265621
 20
0.4098012745380402
 30
0.0
  0
SEQEND
  5
193
  8
0
  0
LINE
  5
72
  8
0
 10
-0.0915603637695313
 20
1.0956258773803711
 30
0.0
 11
-0.091552734375
 21
-1.095630407333374
 31
0.0
  0
LINE
  5
73
  8
0
 10
-0.1701126098632812
 20
-0.981863260269165
 30
0.0
 11
-0.1701202392578125
 21
0.9818588495254516
 31
0.0
  0
LINE
  5
74
  8
0
 10
-0.2471733093261719
 20
0.8857278823852539
 30
0.0
 11
-0.2471733093261719
 21
-0.8857271671295166
 31
0.0
  0
LINE
  5
76
  8
0
 10
-1.3921737670898431
 20
0.4009714126586914
 30
0.0
 11
-1.3921834284002299
 21
-0.4009807008610933
 31
0.0
  0
LINE
  5
77
  8
0
 10
-1.4176129502745309
 20
0.4513142408817057
 30
0.0
 11
-1.4186286926269529
 21
-0.4533247351646424
 31
0.0
  0
LINE
  5
78
  8
0
 10
-1.573554992675781
 20
0.4528551697731018
 30
0.0
 11
-1.573554992675781
 21
-0.4533247351646424
 31
0.0
  0
LINE
  5
79
  8
0
 10
-1.6005516052246089
 20
-0.399000346660614
 30
0.0
 11
-1.6005516052246089
 21
0.3990002274513244
 31
0.0
  0
LINE
  5
7A
  8
0
 10
-1.9252281188964839
 20
0.4289075732231141
 30
0.0
 11
-1.9252281188964839
 21
-0.4289077520370484
 31
0.0
  0
LINE
  5
7D
  8
0
 10
-2.0239715576171871
 20
-0.5455839633941652
 30
0.0
 11
-2.0239715576171871
 21
0.5455743399888837
 31
0.0
  0
LINE
  5
7E
  8
0
 10
-2.0536994934082031
 20
0.6154082417488099
 30
0.0
 11
-2.0536994934082031
 21
-0.6154082417488099
 31
0.0
  0
LINE
  5
7F
  8
0
 10
-2.1744384765625
 20
-0.6149725914001465
 30
0.0
 11
-2.1744384765625
 21
0.6149720549583435
 31
0.0
  0
LINE
  5
80
  8
0
 10
-2.2045364379882808
 20
0.5449995398521425
 30
0.0
 11
-2.204540252685546
 21
-0.544994056224823
 31
0.0
  0
POLYLINE
  5
81
  8
0
 66
     1
 10
0.0
 20
0.0
 30
0.0
  0
VERTEX
  5
194
  8
0
 10
-2.3744125366210929
 20
-0.4098062317705314
 30
0.0
  0
VERTEX
  5
195
  8
0
 10
-2.4060554504394531
 20
-0.3760902386045615
 30
0.0
  0
VERTEX
  5
196
  8
0
 10
-2.4930801391601558
 20
-0.3510600130891959
 30
0.0
  0
VERTEX
  5
197
  8
0
 10
-2.594097137451171
 20
-0.296892325196282
 30
0.0
  0
VERTEX
  5
198
  8
0
 10
-2.6705169677734371
 20
-0.2672704260683218
 30
0.0
  0
VERTEX
  5
199
  8
0
 10
-2.7519111633300781
 20
-0.2657473485803763
 30
0.0
  0
VERTEX
  5
19A
  8
0
 10
-2.839031219482421
 20
-0.2684238951540152
 30
0.0
  0
VERTEX
  5
19B
  8
0
 10
-2.9112396240234371
 20
-0.2676989834642569
 30
0.0
  0
VERTEX
  5
19C
  8
0
 10
-2.9666671752929679
 20
-0.26717604211332
 30
0.0
  0
VERTEX
  5
19D
  8
0
 10
-3.003520965576171
 20
-0.2704849939680258
 30
0.0
  0
VERTEX
  5
19E
  8
0
 10
-3.1009140014648429
 20
-0.2490547250843207
 30
0.0
  0
VERTEX
  5
19F
  8
0
 10
-3.1848983764648429
 20
-0.191174278769509
 30
0.0
  0
VERTEX
  5
1A0
  8
0
 10
-3.2405242919921871
 20
-0.103128569934384
 30
0.0
  0
VERTEX
  5
1A1
  8
0
 10
-3.26116943359375
 20
-0.0000001093316158
 30
0.0
  0
VERTEX
  5
1A2
  8
0
 10
-3.2405242919921871
 20
0.1031283512711525
 30
0.0
  0
VERTEX
  5
1A3
  8
0
 10
-3.1848983764648429
 20
0.1911740601062775
 30
0.0
  0
VERTEX
  5
1A4
  8
0
 10
-3.1009140014648429
 20
0.2490545064210892
 30
0.0
  0
VERTEX
  5
1A5
  8
0
 10
-3.003520965576171
 20
0.2704847753047943
 30
0.0
  0
VERTEX
  5
1A6
  8
0
 10
-2.9666671752929679
 20
0.2671758234500885
 30
0.0
  0
VERTEX
  5
1A7
  8
0
 10
-2.9112396240234371
 20
0.2676987648010254
 30
0.0
  0
VERTEX
  5
1A8
  8
0
 10
-2.839031219482421
 20
0.2684236764907837
 30
0.0
  0
VERTEX
  5
1A9
  8
0
 10
-2.7519111633300781
 20
0.2657471299171448
 30
0.0
  0
VERTEX
  5
1AA
  8
0
 10
-2.6705169677734371
 20
0.2672702074050903
 30
0.0
  0
VERTEX
  5
1AB
  8
0
 10
-2.594097137451171
 20
0.2968921065330505
 30
0.0
  0
VERTEX
  5
1AC
  8
0
 10
-2.4930801391601558
 20
0.3510597944259643
 30
0.0
  0
VERTEX
  5
1AD
  8
0
 10
-2.4060554504394531
 20
0.37609001994133
 30
0.0
  0
VERTEX
  5
1AE
  8
0
 10
-2.3744125366210929
 20
0.4098060131072998
 30
0.0
  0
SEQEND
  5
1AF
  8
0
  0
ARC
  5
82
  8
0
 10
-3.0310821533203121
 20
0.0000022798776627
 30
0.0
 40
0.342723846443733
 50
51.374073653178733
 51
308.62459543162458
  0
ARC
  5
83
  8
0
 10
-3.0310821533203121
 20
0.0000022798776627
 30
0.0
 40
0.3379897295248635
 50
52.457985596728371
 51
307.54062966594933
  0
POLYLINE
  5
84
  8
0
 66
     1
 10
0.0
 20
0.0
 30
0.0
  0
VERTEX
  5
1B0
  8
0
 10
-3.3259353637695308
 20
-0.0000000948147942
 30
0.0
  0
VERTEX
  5
1B1
  8
0
 10
-3.3022613525390621
 20
0.1107538715004921
 30
0.0
  0
VERTEX
  5
1B2
  8
0
 10
-3.2385101318359371
 20
0.205306351184845
 30
0.0
  0
VERTEX
  5
1B3
  8
0
 10
-3.142375946044921
 20
0.2674626111984253
 30
0.0
  0
VERTEX
  5
1B4
  8
0
 10
-3.0310592651367179
 20
0.2904782891273498
 30
0.0
  0
VERTEX
  5
1B5
  8
0
 10
-2.921092987060546
 20
0.2675791084766388
 30
0.0
  0
SEQEND
  5
1B6
  8
0
  0
POLYLINE
  5
85
  8
0
 66
     1
 10
0.0
 20
0.0
 30
0.0
  0
VERTEX
  5
1B7
  8
0
 10
-3.3259353637695308
 20
0.0000093906801055
 30
0.0
  0
VERTEX
  5
1B8
  8
0
 10
-3.3022613525390621
 20
-0.1107445756351808
 30
0.0
  0
VERTEX
  5
1B9
  8
0
 10
-3.2385101318359371
 20
-0.2052970553195337
 30
0.0
  0
VERTEX
  5
1BA
  8
0
 10
-3.142375946044921
 20
-0.267453315333114
 30
0.0
  0
VERTEX
  5
1BB
  8
0
 10
-3.0310592651367179
 20
-0.2904689932620386
 30
0.0
  0
VERTEX
  5
1BC
  8
0
 10
-2.921092987060546
 20
-0.2675698126113275
 30
0.0
  0
SEQEND
  5
1BD
  8
0
  0
LINE
  5
88
  8
0
 10
-2.302656331981332
 20
-0.4298397910410614
 30
0.0
 11
-2.302656331981332
 21
0.4298397910410614
 31
0.0
  0
ATTDEF
  5
8B
  8
DEFPOINTS
 10
0.0
 20
-0.005
 30
0.0
 40
0.001
  1
METAL
  3

  2
MATERIAL
 70
     8
1001
AcDbAttr
1070
     0
1070
     1
  0
ATTDEF
  5
8D
  8
DEFPOINTS
 10
0.0
 20
-0.0033333333333333
 30
0.0
 40
0.001
  1
24" TOWEL BAR
  3

  2
PRODUCT
 70
     8
1001
AcDbAttr
1070
     0
1070
     1
  0
ATTDEF
  5
8E
  8
DEFPOINTS
 10
0.0
 20
-0.0016666666666667
 30
0.0
 40
0.001
  1
DEVONSHIRE
  3

  2
TRADENAME
 70
     8
1001
AcDbAttr
1070
     0
1070
     1
  0
ATTDEF
  5
8F
  8
DEFPOINTS
 10
0.0
 20
0.0
 30
0.0
 40
0.001
  1
K-10551
  3

  2
MODELNUMBER
 70
     8
1001
AcDbAttr
1070
     0
1070
     1
  0
ENDSEC
  0
EOF
