  0
SECTION
  2
HEADER
  9
$ACADVER
  1
AC1009
  9
$INSBASE
 10
1613.397085871077
 20
137.2077532831801
 30
0.0
  9
$EXTMIN
 10
1607.3318679652621
 20
137.2077532831801
 30
0.0
  9
$EXTMAX
 10
1614.360367965327
 20
142.64082414928021
 30
0.0
  9
$LIMMIN
 10
0.0
 20
0.0
  9
$LIMMAX
 10
11.692913385800001
 20
8.2677165353999982
  9
$ORTHOMODE
 70
     1
  9
$REGENMODE
 70
     1
  9
$FILLMODE
 70
     1
  9
$QTEXTMODE
 70
     0
  9
$MIRRTEXT
 70
     0
  9
$DRAGMODE
 70
     2
  9
$LTSCALE
 40
0.6431102362
  9
$OSMODE
 70
  3071
  9
$ATTMODE
 70
     1
  9
$TEXTSIZE
 40
0.2
  9
$TRACEWID
 40
0.05
  9
$TEXTSTYLE
  7
STANDARD
  9
$CLAYER
  8
0
  9
$CELTYPE
  6
BYLAYER
  9
$CECOLOR
 62
   256
  9
$DIMSCALE
 40
1.0
  9
$DIMASZ
 40
0.1875
  9
$DIMEXO
 40
0.0625
  9
$DIMDLI
 40
0.4443307087
  9
$DIMRND
 40
0.0
  9
$DIMDLE
 40
0.0
  9
$DIMEXE
 40
0.125
  9
$DIMTP
 40
0.01
  9
$DIMTM
 40
0.01
  9
$DIMTXT
 40
2.0
  9
$DIMCEN
 40
0.1052362205
  9
$DIMTSZ
 40
0.0
  9
$DIMTOL
 70
     1
  9
$DIMLIM
 70
     0
  9
$DIMTIH
 70
     1
  9
$DIMTOH
 70
     1
  9
$DIMSE1
 70
     0
  9
$DIMSE2
 70
     0
  9
$DIMTAD
 70
     0
  9
$DIMZIN
 70
     0
  9
$DIMBLK
  1

  9
$DIMASO
 70
     1
  9
$DIMSHO
 70
     1
  9
$DIMPOST
  1
\X
  9
$DIMAPOST
  1

  9
$DIMALT
 70
     1
  9
$DIMALTD
 70
     2
  9
$DIMALTF
 40
25.399999999999999
  9
$DIMLFAC
 40
1.0
  9
$DIMTOFL
 70
     0
  9
$DIMTVP
 40
0.0
  9
$DIMTIX
 70
     0
  9
$DIMSOXD
 70
     0
  9
$DIMSAH
 70
     0
  9
$DIMBLK1
  1

  9
$DIMBLK2
  1

  9
$DIMSTYLE
  2
STANDARD
  9
$DIMCLRD
 70
     0
  9
$DIMCLRE
 70
     0
  9
$DIMCLRT
 70
     0
  9
$DIMTFAC
 40
1.0
  9
$DIMGAP
 40
0.09
  9
$LUNITS
 70
     2
  9
$LUPREC
 70
     4
  9
$SKETCHINC
 40
0.1
  9
$FILLETRAD
 40
0.0
  9
$AUNITS
 70
     0
  9
$AUPREC
 70
     0
  9
$MENU
  1
.
  9
$ELEVATION
 40
0.0
  9
$PELEVATION
 40
0.0
  9
$THICKNESS
 40
0.0
  9
$LIMCHECK
 70
     0
  9
$BLIPMODE
 70
     0
  9
$CHAMFERA
 40
0.0
  9
$CHAMFERB
 40
0.0
  9
$SKPOLY
 70
     0
  9
$TDCREATE
 40
2458060.4683680669
  9
$TDUPDATE
 40
2458604.7345823031
  9
$TDINDWG
 40
0.2878855671
  9
$TDUSRTIMER
 40
0.2878855671
  9
$USRTIMER
 70
     1
  9
$ANGBASE
 50
0.0
  9
$ANGDIR
 70
     0
  9
$PDMODE
 70
     0
  9
$PDSIZE
 40
0.3125
  9
$PLINEWID
 40
0.0
  9
$COORDS
 70
     1
  9
$SPLFRAME
 70
     0
  9
$SPLINETYPE
 70
     6
  9
$SPLINESEGS
 70
     8
  9
$ATTDIA
 70
     1
  9
$ATTREQ
 70
     1
  9
$HANDLING
 70
     1
  9
$HANDSEED
  5
62D3
  9
$SURFTAB1
 70
     6
  9
$SURFTAB2
 70
     6
  9
$SURFTYPE
 70
     6
  9
$SURFU
 70
     6
  9
$SURFV
 70
     6
  9
$UCSNAME
  2

  9
$UCSORG
 10
0.0
 20
0.0
 30
0.0
  9
$UCSXDIR
 10
1.0
 20
0.0
 30
0.0
  9
$UCSYDIR
 10
0.0
 20
1.0
 30
0.0
  9
$PUCSNAME
  2

  9
$PUCSORG
 10
0.0
 20
0.0
 30
0.0
  9
$PUCSXDIR
 10
1.0
 20
0.0
 30
0.0
  9
$PUCSYDIR
 10
0.0
 20
1.0
 30
0.0
  9
$USERI1
 70
     0
  9
$USERI2
 70
     0
  9
$USERI3
 70
     0
  9
$USERI4
 70
     0
  9
$USERI5
 70
     0
  9
$USERR1
 40
0.0
  9
$USERR2
 40
0.0
  9
$USERR3
 40
0.0
  9
$USERR4
 40
0.0
  9
$USERR5
 40
0.0
  9
$WORLDVIEW
 70
     1
  9
$SHADEDGE
 70
     3
  9
$SHADEDIF
 70
    70
  9
$TILEMODE
 70
     1
  9
$MAXACTVP
 70
    64
  9
$PLIMCHECK
 70
     0
  9
$PEXTMIN
 10
1.0000000000000000E+020
 20
1.0000000000000000E+020
 30
1.0000000000000000E+020
  9
$PEXTMAX
 10
-1.0000000000000000E+020
 20
-1.0000000000000000E+020
 30
-1.0000000000000000E+020
  9
$PLIMMIN
 10
0.0
 20
0.0
  9
$PLIMMAX
 10
12.0
 20
9.0
  9
$UNITMODE
 70
     0
  9
$VISRETAIN
 70
     1
  9
$PLINEGEN
 70
     0
  9
$PSLTSCALE
 70
     1
  0
ENDSEC
  0
SECTION
  2
TABLES
  0
TABLE
  2
VPORT
 70
     1
  0
VPORT
  2
*ACTIVE
 70
     0
 10
0.0
 20
0.0
 11
1.0
 21
1.0
 12
0.0
 22
0.0
 13
0.0
 23
0.0
 14
1.0
 24
1.0
 15
0.0
 25
0.0
 16
0.0
 26
0.0
 36
24.981542180401011
 17
1610.846117965295
 27
139.92428871623011
 37
0.0
 40
8.8858573815324586
 41
2.0984340044742731
 42
50.0
 43
0.0
 44
0.0
 50
0.0
 51
0.0
 71
     0
 72
   100
 73
     1
 74
     1
 75
     0
 76
     0
 77
     0
 78
     0
  0
ENDTAB
  0
TABLE
  2
LTYPE
 70
     2
  0
LTYPE
  2
CONTINUOUS
 70
     0
  3
Solid line
 72
    65
 73
     0
 40
0.0
  0
LTYPE
  2
PHANTOM2
 70
     0
  3
___ _ _ ___ _ _ ___ _ _ ___ _ _
 72
    65
 73
     6
 40
1.25
 49
0.625
 49
-0.125
 49
0.125
 49
-0.125
 49
0.125
 49
-0.125
  0
ENDTAB
  0
TABLE
  2
LAYER
 70
     2
  0
LAYER
  2
0
 70
     0
 62
   255
  6
CONTINUOUS
  0
LAYER
  2
DEFPOINTS
 70
     0
 62
     7
  6
CONTINUOUS
  0
ENDTAB
  0
TABLE
  2
STYLE
 70
     1
  0
STYLE
  2
STANDARD
 70
     0
 40
0.0
 41
0.8
 50
0.0
 71
     0
 42
0.2
  3
txt
  4

  0
ENDTAB
  0
TABLE
  2
VIEW
 70
     0
  0
ENDTAB
  0
TABLE
  2
UCS
 70
     0
  0
ENDTAB
  0
TABLE
  2
APPID
 70
     9
  0
APPID
  2
ACAD
 70
     0
  0
APPID
  2
ACAD_MLEADERVER
 70
     0
  0
APPID
  2
ACAD_EXEMPT_FROM_CAD_STANDARDS
 70
     0
  0
APPID
  2
ACAD_NAV_VCDISPLAY
 70
     0
  0
APPID
  2
ACAECLAYERSTANDARD
 70
     0
  0
APPID
  2
ACCMTRANSPARENCY
 70
     0
  0
APPID
  2
ACAD_DSTYLE_DIMJAG
 70
     0
  0
APPID
  2
ACAD_DSTYLE_DIMTALN
 70
     0
  0
APPID
  2
ACDBATTR
 70
     0
  0
ENDTAB
  0
TABLE
  2
DIMSTYLE
 70
     1
  0
DIMSTYLE
  2
STANDARD
 70
     0
  3

  4

  5

  6

  7

 40
1.0
 41
0.1875
 42
0.0625
 43
0.38
 44
0.125
 45
0.0
 46
0.0
 47
0.01
 48
0.01
140
0.15625
141
0.09
142
0.0
143
25.399999999999999
144
1.0
145
0.0
146
1.0
147
0.09
 71
     1
 72
     0
 73
     1
 74
     1
 75
     0
 76
     0
 77
     0
 78
     4
170
     0
171
     2
172
     0
173
     0
174
     0
175
     0
176
     0
177
     0
178
     0
  0
ENDTAB
  0
ENDSEC
  0
SECTION
  2
BLOCKS
  0
BLOCK
  8
0
  2
$MODEL_SPACE
 70
     0
 10
0.0
 20
0.0
 30
0.0
  3
$MODEL_SPACE
  1

  0
ENDBLK
  5
21
  8
0
  0
BLOCK
 67
     1
  8
0
  2
$PAPER_SPACE
 70
     0
 10
0.0
 20
0.0
 30
0.0
  3
$PAPER_SPACE
  1

  0
ENDBLK
  5
1D
 67
     1
  8
0
  0
ENDSEC
  0
SECTION
  2
ENTITIES
  0
ATTDEF
  5
3930
  8
DEFPOINTS
 10
1613.3931093191179
 20
137.22088769458821
 30
0.0
 40
0.001
  1
K-104S37-SANA
  3

  2
MODELNUMBER
 70
     0
1001
ACDBATTR
1070
     0
1070
     1
  0
ATTDEF
  5
3931
  8
DEFPOINTS
 10
1613.3931093191179
 20
137.21922102792149
 30
0.0
 40
0.001
  1
STRAYT
  3

  2
TRADENAME
 70
     0
1001
ACDBATTR
1070
     0
1070
     1
  0
ATTDEF
  5
3932
  8
DEFPOINTS
 10
1613.3931093191179
 20
137.21755436125491
 30
0.0
 40
0.001
  1
BATHROOM SINK FAUCET
  3

  2
PRODUCT
 70
     0
1001
ACDBATTR
1070
     0
1070
     1
  0
ATTDEF
  5
3933
  8
DEFPOINTS
 10
1613.3931093191179
 20
137.21588769458819
 30
0.0
 40
0.001
  1
METAL
  3

  2
MATERIAL
 70
     0
1001
ACDBATTR
1070
     0
1070
     1
  0
LINE
  5
6116
  8
0
 10
1607.339265317627
 20
142.61350558928009
 30
0.0
 11
1607.3318679652621
 21
141.74342684908009
 31
0.0
  0
LINE
  5
6117
  8
0
 10
1608.5862871469269
 20
141.71562729888009
 30
0.0
 11
1608.5816739723271
 21
141.6984106968801
 31
0.0
  0
LINE
  5
6118
  8
0
 10
1608.5174207385271
 20
141.71562729888009
 30
0.0
 11
1608.5816739723271
 21
141.6984106968801
 31
0.0
  0
LINE
  5
6119
  8
0
 10
1612.593699653527
 20
141.1078855599801
 30
0.0
 11
1612.6330207574269
 21
137.3531339820801
 31
0.0
  0
LINE
  5
611A
  8
0
 10
1611.979872922127
 20
141.7156266622801
 30
0.0
 11
1611.828526797927
 21
141.71562729888009
 31
0.0
  0
LINE
  5
611B
  8
0
 10
1607.4017749198269
 20
141.71562729888009
 30
0.0
 11
1607.3592302612269
 21
141.71562729888009
 31
0.0
  0
LINE
  5
611C
  8
0
 10
1607.4305564028271
 20
141.71562729888009
 30
0.0
 11
1611.803169043827
 21
141.71562729888009
 31
0.0
  0
LINE
  5
611D
  8
0
 10
1611.741384567327
 20
141.7225319542801
 30
0.0
 11
1607.4892404359271
 21
141.72271621548009
 31
0.0
  0
LINE
  5
611E
  8
0
 10
1614.1345792587269
 20
142.64082414928009
 30
0.0
 11
1607.366823323327
 21
142.64082414928009
 31
0.0
  0
LINE
  5
611F
  8
0
 10
1614.162138313927
 20
137.3455486336801
 30
0.0
 11
1614.162138313927
 21
142.61326509418009
 31
0.0
  0
ARC
  5
6120
  8
0
 10
1607.3596898601841
 20
141.74344540363381
 30
0.0
 40
0.0278219010443416
 50
180.03821067182901
 51
269.05346948480923
  0
ARC
  5
6121
  8
0
 10
1607.3689150716809
 20
142.61115501176459
 30
0.0
 40
0.0297427828572478
 50
94.032822649980133
 51
175.46717735061691
  0
ARC
  5
6122
  8
0
 10
1614.1345792587269
 20
142.61326509418009
 30
0.0
 40
0.0275590551
 50
0.0
 51
90.0
  0
ARC
  5
6123
  8
0
 10
1612.660578301527
 20
137.35342257448011
 30
0.0
 40
0.0275590551
 50
180.60000000000019
 51
270.0
  0
ARC
  5
6124
  8
0
 10
1614.1421132011251
 20
137.34567655212831
 30
0.0
 40
0.0200255213623045
 50
278.35407397498369
 51
359.63400532932752
  0
ARC
  5
6125
  8
0
 10
1607.431320234522
 20
141.72989003400909
 30
0.0
 40
0.0142831737445729
 50
238.49562317902971
 51
266.93448948537559
  0
ARC
  5
6126
  8
0
 10
1611.8021803252859
 20
141.73098553294309
 30
0.0
 40
0.0153900265719195
 50
273.68345304756531
 51
297.41692618388652
  0
LINE
  5
6127
  8
0
 10
1612.4338037768271
 20
137.2077532831801
 30
0.0
 11
1614.360367965327
 21
137.2077532831801
 31
0.0
  0
LINE
  5
6128
  8
0
 10
1612.4629476067271
 20
137.32586351938011
 30
0.0
 11
1614.331224135427
 21
137.32586351938011
 31
0.0
  0
LINE
  5
6129
  8
0
 10
1612.435392749027
 20
137.2987854360801
 30
0.0
 11
1612.4338037768271
 21
137.2077532831801
 31
0.0
  0
ARC
  5
612A
  8
0
 10
1612.4629476067271
 20
137.29830446428011
 30
0.0
 40
0.0275590551
 50
90.0
 51
178.9999999999998
  0
LINE
  5
612B
  8
0
 10
1614.3587789931271
 20
137.2987854360801
 30
0.0
 11
1614.360367965327
 21
137.2077532831801
 31
0.0
  0
ARC
  5
612C
  8
0
 10
1614.331224135427
 20
137.29830446428011
 30
0.0
 40
0.0275590551
 50
1.000000000000133
 51
90.0
  0
ARC
  5
612D
  8
0
 10
1611.7396179094151
 20
141.29284225004449
 30
0.0
 40
0.4296933360040453
 50
83.901793031986983
 51
89.764431237566484
  0
ARC
  5
612E
  8
0
 10
1611.655249431313
 20
140.49257661841989
 30
0.0
 40
1.23439370374855
 50
82.832427304985046
 51
83.953942609820075
  0
ARC
  5
612F
  8
0
 10
1611.837805154835
 20
141.9310963144444
 30
0.0
 40
0.21566869168966
 50
262.39604833375569
 51
267.53429757659472
  0
ARC
  5
6130
  8
0
 10
1607.4905632762111
 20
141.3076148382614
 30
0.0
 40
0.4151034850194547
 50
90.182588911668574
 51
96.263300353385148
  0
ARC
  5
6131
  8
0
 10
1607.5553795012841
 20
140.69546801558931
 30
0.0
 40
1.0306704131098769
 50
96.132415832624503
 51
97.331464929807538
  0
ARC
  5
6132
  8
0
 10
1607.389413044446
 20
141.96452998886039
 30
0.0
 40
0.249209480241661
 50
272.84328699536479
 51
277.94429838862499
  0
ARC
  5
6133
  8
0
 10
1612.103342249271
 20
141.22097002702569
 30
0.0
 40
0.4821092477952044
 50
1.7701608835806291
 51
81.279855668199644
  0
ARC
  5
6134
  8
0
 10
1611.9876827177541
 20
140.7251769577795
 30
0.0
 40
0.990480494534378
 50
79.014217420990761
 51
90.451773626533068
  0
ARC
  5
6135
  8
0
 10
1611.5286745381541
 20
141.1015989775378
 30
0.0
 40
1.0650436692899079
 50
0.3381990274506614
 51
7.2421962056447917
  0
ENDSEC
  0
EOF
