  0
SECTION
  2
HEADER
  9
$ACADVER
  1
AC1009
  9
$INSBASE
 10
347.6970570635182867
 20
5.06934457628219
 30
0.0
  9
$EXTMIN
 10
341.6827130388069236
 20
5.0691342174721816
 30
-0.0000000000112498
  9
$EXTMAX
 10
348.679392170983192
 20
10.1115749404147195
 30
0.0000000000002956
  9
$LIMMIN
 10
0.0
 20
0.0
  9
$LIMMAX
 10
11.6929133858000007
 20
8.2677165353999982
  9
$ORTHOMODE
 70
     1
  9
$REGENMODE
 70
     1
  9
$FILLMODE
 70
     1
  9
$QTEXTMODE
 70
     0
  9
$MIRRTEXT
 70
     0
  9
$DRAGMODE
 70
     2
  9
$LTSCALE
 40
0.6431102362
  9
$OSMODE
 70
    19
  9
$ATTMODE
 70
     1
  9
$TEXTSIZE
 40
0.2
  9
$TRACEWID
 40
0.05
  9
$TEXTSTYLE
  7
STANDARD
  9
$CLAYER
  8
0
  9
$CELTYPE
  6
BYLAYER
  9
$CECOLOR
 62
   256
  9
$DIMSCALE
 40
1.0
  9
$DIMASZ
 40
0.1875
  9
$DIMEXO
 40
0.0625
  9
$DIMDLI
 40
0.4443307087
  9
$DIMRND
 40
0.0
  9
$DIMDLE
 40
0.0
  9
$DIMEXE
 40
0.125
  9
$DIMTP
 40
0.01
  9
$DIMTM
 40
0.01
  9
$DIMTXT
 40
2.0
  9
$DIMCEN
 40
0.1052362205
  9
$DIMTSZ
 40
0.0
  9
$DIMTOL
 70
     1
  9
$DIMLIM
 70
     0
  9
$DIMTIH
 70
     1
  9
$DIMTOH
 70
     1
  9
$DIMSE1
 70
     0
  9
$DIMSE2
 70
     0
  9
$DIMTAD
 70
     0
  9
$DIMZIN
 70
     0
  9
$DIMBLK
  1

  9
$DIMASO
 70
     1
  9
$DIMSHO
 70
     1
  9
$DIMPOST
  1
\X
  9
$DIMAPOST
  1

  9
$DIMALT
 70
     1
  9
$DIMALTD
 70
     2
  9
$DIMALTF
 40
25.3999999999999986
  9
$DIMLFAC
 40
1.0
  9
$DIMTOFL
 70
     0
  9
$DIMTVP
 40
0.0
  9
$DIMTIX
 70
     0
  9
$DIMSOXD
 70
     0
  9
$DIMSAH
 70
     0
  9
$DIMBLK1
  1

  9
$DIMBLK2
  1

  9
$DIMSTYLE
  2
STANDARD
  9
$DIMCLRD
 70
     0
  9
$DIMCLRE
 70
     0
  9
$DIMCLRT
 70
     0
  9
$DIMTFAC
 40
1.0
  9
$DIMGAP
 40
0.09
  9
$LUNITS
 70
     2
  9
$LUPREC
 70
     4
  9
$SKETCHINC
 40
0.1
  9
$FILLETRAD
 40
0.0
  9
$AUNITS
 70
     0
  9
$AUPREC
 70
     0
  9
$MENU
  1
.
  9
$ELEVATION
 40
0.0
  9
$PELEVATION
 40
0.0
  9
$THICKNESS
 40
0.0
  9
$LIMCHECK
 70
     0
  9
$BLIPMODE
 70
     0
  9
$CHAMFERA
 40
0.0
  9
$CHAMFERB
 40
0.0
  9
$SKPOLY
 70
     0
  9
$TDCREATE
 40
2458106.4931018520146608
  9
$TDUPDATE
 40
2459695.524560185149312
  9
$TDINDWG
 40
0.2158781944
  9
$TDUSRTIMER
 40
0.2158781944
  9
$USRTIMER
 70
     1
  9
$ANGBASE
 50
0.0
  9
$ANGDIR
 70
     0
  9
$PDMODE
 70
     0
  9
$PDSIZE
 40
0.3125
  9
$PLINEWID
 40
0.0
  9
$COORDS
 70
     1
  9
$SPLFRAME
 70
     0
  9
$SPLINETYPE
 70
     6
  9
$SPLINESEGS
 70
     8
  9
$ATTDIA
 70
     1
  9
$ATTREQ
 70
     1
  9
$HANDLING
 70
     1
  9
$HANDSEED
  5
25E2
  9
$SURFTAB1
 70
     6
  9
$SURFTAB2
 70
     6
  9
$SURFTYPE
 70
     6
  9
$SURFU
 70
     6
  9
$SURFV
 70
     6
  9
$UCSNAME
  2

  9
$UCSORG
 10
0.0
 20
0.0
 30
0.0
  9
$UCSXDIR
 10
1.0
 20
0.0
 30
0.0
  9
$UCSYDIR
 10
0.0
 20
1.0
 30
0.0
  9
$PUCSNAME
  2

  9
$PUCSORG
 10
0.0
 20
0.0
 30
0.0
  9
$PUCSXDIR
 10
1.0
 20
0.0
 30
0.0
  9
$PUCSYDIR
 10
0.0
 20
1.0
 30
0.0
  9
$USERI1
 70
     0
  9
$USERI2
 70
     0
  9
$USERI3
 70
     0
  9
$USERI4
 70
     0
  9
$USERI5
 70
     0
  9
$USERR1
 40
0.0
  9
$USERR2
 40
0.0
  9
$USERR3
 40
0.0
  9
$USERR4
 40
0.0
  9
$USERR5
 40
0.0
  9
$WORLDVIEW
 70
     1
  9
$SHADEDGE
 70
     3
  9
$SHADEDIF
 70
    70
  9
$TILEMODE
 70
     1
  9
$MAXACTVP
 70
    64
  9
$PLIMCHECK
 70
     0
  9
$PEXTMIN
 10
1.0000000000000000E+20
 20
1.0000000000000000E+20
 30
1.0000000000000000E+20
  9
$PEXTMAX
 10
-1.0000000000000000E+20
 20
-1.0000000000000000E+20
 30
-1.0000000000000000E+20
  9
$PLIMMIN
 10
0.0
 20
0.0
  9
$PLIMMAX
 10
12.0
 20
9.0
  9
$UNITMODE
 70
     0
  9
$VISRETAIN
 70
     1
  9
$PLINEGEN
 70
     0
  9
$PSLTSCALE
 70
     1
  0
ENDSEC
  0
SECTION
  2
TABLES
  0
TABLE
  2
VPORT
 70
     1
  0
VPORT
  2
*ACTIVE
 70
     0
 10
0.0
 20
0.0
 11
1.0
 21
1.0
 12
71.6068510483819409
 22
25.1963153129649307
 13
0.0
 23
0.0
 14
1.0
 24
1.0
 15
0.0
 25
0.0
 16
-0.0000000000000568
 26
0.0
 36
193.9250709296327955
 17
273.5742015565131169
 27
-17.6059607340214797
 37
0.0
 40
5.0740217713117062
 41
1.6896551724137929
 42
50.0
 43
0.0
 44
0.0
 50
0.0
 51
0.0
 71
     0
 72
   100
 73
     1
 74
     1
 75
     0
 76
     0
 77
     0
 78
     0
  0
ENDTAB
  0
TABLE
  2
LTYPE
 70
     2
  0
LTYPE
  2
CONTINUOUS
 70
     0
  3
Solid line
 72
    65
 73
     0
 40
0.0
  0
LTYPE
  2
PHANTOM2
 70
     0
  3
___ _ _ ___ _ _ ___ _ _ ___ _ _
 72
    65
 73
     6
 40
1.25
 49
0.625
 49
-0.125
 49
0.125
 49
-0.125
 49
0.125
 49
-0.125
  0
ENDTAB
  0
TABLE
  2
LAYER
 70
     2
  0
LAYER
  2
0
 70
     0
 62
   255
  6
CONTINUOUS
  0
LAYER
  2
DEFPOINTS
 70
     0
 62
     7
  6
CONTINUOUS
  0
ENDTAB
  0
TABLE
  2
STYLE
 70
     1
  0
STYLE
  2
STANDARD
 70
     0
 40
0.0
 41
0.8
 50
0.0
 71
     0
 42
0.2
  3
txt
  4

  0
ENDTAB
  0
TABLE
  2
VIEW
 70
     0
  0
ENDTAB
  0
TABLE
  2
UCS
 70
     0
  0
ENDTAB
  0
TABLE
  2
APPID
 70
     9
  0
APPID
  2
ACAD
 70
     0
  0
APPID
  2
ACAD_MLEADERVER
 70
     0
  0
APPID
  2
ACAD_EXEMPT_FROM_CAD_STANDARDS
 70
     0
  0
APPID
  2
ACAD_NAV_VCDISPLAY
 70
     0
  0
APPID
  2
ACAD_DSTYLE_DIMJAG
 70
     0
  0
APPID
  2
ACAD_DSTYLE_DIMTALN
 70
     0
  0
APPID
  2
ACAECLAYERSTANDARD
 70
     0
  0
APPID
  2
ACCMTRANSPARENCY
 70
     0
  0
APPID
  2
ACDBATTR
 70
     0
  0
ENDTAB
  0
TABLE
  2
DIMSTYLE
 70
     1
  0
DIMSTYLE
  2
STANDARD
 70
     0
  3

  4

  5

  6

  7

 40
1.0
 41
0.1875
 42
0.0625
 43
0.38
 44
0.125
 45
0.0
 46
0.0
 47
0.01
 48
0.01
140
0.15625
141
0.09
142
0.0
143
25.3999999999999986
144
1.0
145
0.0
146
1.0
147
0.09
 71
     1
 72
     0
 73
     1
 74
     1
 75
     0
 76
     0
 77
     0
 78
     4
170
     0
171
     2
172
     0
173
     0
174
     0
175
     0
176
     0
177
     0
178
     0
  0
ENDTAB
  0
ENDSEC
  0
SECTION
  2
BLOCKS
  0
BLOCK
  8
0
  2
$MODEL_SPACE
 70
     0
 10
0.0
 20
0.0
 30
0.0
  3
$MODEL_SPACE
  1

  0
ENDBLK
  5
21
  8
0
  0
BLOCK
 67
     1
  8
0
  2
$PAPER_SPACE
 70
     0
 10
0.0
 20
0.0
 30
0.0
  3
$PAPER_SPACE
  1

  0
ENDBLK
  5
1D
 67
     1
  8
0
  0
ENDSEC
  0
SECTION
  2
ENTITIES
  0
ATTDEF
  5
FAA
  8
DEFPOINTS
 10
347.6972745547835757
 20
5.072956919870232
 30
0.0
 40
0.001
  1
K-104K36-SANA
  3

  2
MODELNUMBER
 70
     0
1001
ACDBATTR
1070
     0
1070
     1
  0
ATTDEF
  5
FAB
  8
DEFPOINTS
 10
347.6972745547835757
 20
5.0712902532035669
 30
0.0
 40
0.001
  1
KUMIN
  3

  2
TRADENAME
 70
     0
1001
ACDBATTR
1070
     0
1070
     1
  0
ATTDEF
  5
FAC
  8
DEFPOINTS
 10
347.6972745547835757
 20
5.0696235865369017
 30
0.0
 40
0.001
  1
BATHROOM SINK FAUCET
  3

  2
PRODUCT
 70
     0
1001
ACDBATTR
1070
     0
1070
     1
  0
LINE
  5
22FF
  8
0
 10
345.9636269399180719
 20
8.9170229869821185
 30
0.0
 11
344.2173077787181796
 21
8.9566525125822523
 31
0.0
  0
LINE
  5
2300
  8
0
 10
342.8535850085950756
 20
10.1113153299191101
 30
0.0
 11
347.4702868084332863
 21
10.1113153299191101
 31
0.0
  0
LINE
  5
2301
  8
0
 10
343.8826624614180787
 20
9.006829132282121
 30
0.0
 11
343.6070731926184862
 21
9.0124252839821963
 31
0.0
  0
LINE
  5
2302
  8
0
 10
346.7228620962184209
 20
5.06934457628219
 30
0.0
 11
346.7663553638182066
 21
8.0445604463821212
 31
0.0
  0
LINE
  5
2303
  8
0
 10
348.6145492887025057
 20
9.5793477471821973
 30
0.0
 11
341.7047313284953134
 21
9.5793477471821973
 31
0.0
  0
LINE
  5
2304
  8
0
 10
348.6712520308182093
 20
5.06934457628219
 30
0.0
 11
348.6268727331180912
 21
9.5439194065822051
 31
0.0
  0
ARC
  5
2305
  8
0
 10
348.546742225749199
 20
9.525244863504696
 30
0.0
 40
0.0867462956480402
 50
22.5217711786904111
 51
38.5861745297607612
  0
LINE
  5
2306
  8
0
 10
348.6268727331180912
 20
9.5439194065822051
 30
0.0
 11
348.6268727331180912
 21
9.5584716839561832
 31
0.0
  0
ARC
  5
2307
  8
0
 10
347.6088838998837787
 20
8.8543390498618901
 30
0.0
 40
1.23975823669659
 50
35.7887528260551235
 51
74.8314943726971933
  0
ARC
  5
2308
  8
0
 10
347.4221750809562081
 20
7.9381856763026226
 30
0.0
 40
2.1736621701056502
 50
76.4004659909270742
 51
88.7317145696522971
  0
ARC
  5
2309
  8
0
 10
342.8979851627432822
 20
7.9708969857465197
 30
0.0
 40
2.1408788059483679
 50
91.188354910737587
 51
103.6956165692653968
  0
ARC
  5
230A
  8
0
 10
342.7309680600482125
 20
8.820916230283899
 30
0.0
 40
1.2760800112108499
 50
105.4463294362919044
 51
143.5340616602204875
  0
ARC
  5
230B
  8
0
 10
341.7238882525351755
 20
9.5629197482817005
 30
0.0
 40
0.0252362217165444
 50
139.3852971296147985
 51
228.8343666176841964
  0
ARC
  5
230C
  8
0
 10
342.8504652874452177
 20
10.5082081942112193
 30
0.0
 40
1.495569586806774
 50
220.1478376328823003
 51
229.3365294001027905
  0
LINE
  5
230D
  8
0
 10
342.9395176028183982
 20
8.9938977659822115
 30
0.0
 11
343.2724262071182011
 21
8.978094874982105
 31
0.0
  0
ARC
  5
230E
  8
0
 10
343.5901715349980918
 20
7.5289736254124193
 30
0.0
 40
1.4835479396849891
 50
89.3472306674999288
 51
102.3673858179788994
  0
ARC
  5
230F
  8
0
 10
343.8448774099841785
 20
7.6138062120059251
 30
0.0
 40
1.393535276384064
 50
74.4989647005839828
 51
88.4462615515717516
  0
ARC
  5
2310
  8
0
 10
346.0075449138637964
 20
8.1241265993589025
 30
0.0
 40
0.7941117490262278
 50
41.6147821177455199
 51
93.1703334612433451
  0
ARC
  5
2311
  8
0
 10
345.7105416919757204
 20
8.0832767211587111
 30
0.0
 40
1.0565232887082221
 50
357.8999271117139074
 51
32.5363451589672366
  0
LINE
  5
2312
  8
0
 10
346.7228620962184209
 20
5.06934457628219
 30
0.0
 11
348.6712520308182093
 21
5.06934457628219
 31
0.0
  0
LINE
  5
2313
  8
0
 10
341.9662209682959997
 20
9.345656136921999
 30
0.0
 11
341.957832491218312
 21
9.319848028982193
 31
0.0
  0
LINE
  5
2314
  8
0
 10
341.957832491218312
 20
9.319848028982193
 30
0.0
 11
341.970468530818323
 21
9.2950421415821936
 31
0.0
  0
LINE
  5
2315
  8
0
 10
341.970468530818323
 20
9.2950421415821936
 30
0.0
 11
342.8316328539182791
 21
9.0151356418821891
 31
0.0
  0
LINE
  5
2316
  8
0
 10
342.0453523850376882
 20
9.2707024459441527
 30
0.0
 11
342.0579884247183031
 21
9.2458965584821922
 31
0.0
  0
LINE
  5
2317
  8
0
 10
342.0579884247183031
 20
9.2458965584821922
 30
0.0
 11
342.0399066298182902
 21
9.1902658509821933
 31
0.0
  0
ARC
  5
2318
  8
0
 10
342.077348556536208
 20
9.1780960032488466
 30
0.0
 40
0.0393700783616027
 50
161.9941477052306027
 51
206.9941481005078003
  0
LINE
  5
2319
  8
0
 10
342.0422677345183047
 20
9.1602259445821907
 30
0.0
 11
342.0475017535183042
 21
9.1499510095821925
 31
0.0
  0
LINE
  5
231A
  8
0
 10
342.0475017535183042
 20
9.1499510095821925
 30
0.0
 11
342.6840145140183154
 21
8.9430635967821921
 31
0.0
  0
LINE
  5
231B
  8
0
 10
342.3170836285378869
 20
9.0623281053425782
 30
0.0
 11
342.29951807001828
 21
9.0082856579821922
 31
0.0
  0
ARC
  5
231C
  8
0
 10
342.5375985101778156
 20
9.5632612870819607
 30
0.0
 40
0.6038876094781236
 50
226.3850874220941023
 51
246.7810255866826878
  0
ARC
  5
231D
  8
0
 10
342.6068536159552878
 20
11.5642011727952205
 30
0.0
 40
2.3091886595608848
 50
251.5468937202957136
 51
253.9709095502286971
  0
ARC
  5
231E
  8
0
 10
333.4396398652060043
 20
-22.0511065945295712
 30
0.0
 40
32.5339238075640012
 50
74.2249957821385209
 51
74.8008296165507147
  0
ARC
  5
231F
  8
0
 10
341.5145009751914245
 20
6.4158411153031158
 30
0.0
 40
2.9440709820234319
 50
63.7663822509846412
 51
74.8418957083304832
  0
ARC
  5
2320
  8
0
 10
349.2302311915794917
 20
21.4747220571247084
 30
0.0
 40
13.9768369393582699
 50
242.6820722244036972
 51
243.2447290738030858
  0
ARC
  5
2321
  8
0
 10
342.9397273191069075
 20
8.9973686524134493
 30
0.0
 40
0.0034772163493514
 50
242.6631685700828029
 51
266.5423046644853002
  0
LINE
  5
2322
  8
0
 10
341.957832491218312
 20
9.319848028982193
 30
0.0
 11
342.8564387414182875
 21
9.0277716814821911
 31
0.0
  0
LINE
  5
2323
  8
0
 10
342.0579884247183031
 20
9.2458965584821922
 30
0.0
 11
342.7319431123182767
 21
9.0268392978821907
 31
0.0
  0
LINE
  5
2324
  8
0
 10
342.2871300868259254
 20
9.0720639836054673
 30
0.0
 11
342.2854219154182829
 21
9.0668085989821918
 31
0.0
  0
LINE
  5
2325
  8
0
 10
342.2854219154182829
 20
9.0668085989821918
 30
0.0
 11
342.2845993238183269
 21
9.0669932509821933
 31
0.0
  0
LINE
  5
2326
  8
0
 10
342.2845993238183269
 20
9.0669932509821933
 30
0.0
 11
342.2733677957565988
 21
9.076537177184953
 31
0.0
  0
LINE
  5
2327
  8
0
 10
342.2845993238183269
 20
9.0669932509821933
 30
0.0
 11
342.2863318121318912
 21
9.0723234489239815
 31
0.0
  0
LINE
  5
2328
  8
0
 10
342.282522084318316
 20
9.0606023861821896
 30
0.0
 11
342.283221705518315
 21
9.0600394017821912
 31
0.0
  0
LINE
  5
2329
  8
0
 10
342.283221705518315
 20
9.0600394017821912
 30
0.0
 11
342.2790230381182823
 21
9.0471217219821938
 31
0.0
  0
LINE
  5
232A
  8
0
 10
342.2790230381182823
 20
9.0471217219821938
 30
0.0
 11
342.2782163024812121
 21
9.0473551563647483
 31
0.0
  0
LINE
  5
232B
  8
0
 10
342.2782163024812121
 20
9.0473551563647483
 30
0.0
 11
342.2638656079428756
 21
9.0583539278054026
 31
0.0
  0
LINE
  5
232C
  8
0
 10
342.2638656079428756
 20
9.0583539278054026
 30
0.0
 11
342.2660285442182726
 21
9.0650084480821924
 31
0.0
  0
LINE
  5
232D
  8
0
 10
342.2660285442182726
 20
9.0650084480821924
 30
0.0
 11
342.282522084318316
 21
9.0606023861821896
 31
0.0
  0
LINE
  5
232E
  8
0
 10
342.282522084318316
 20
9.0606023861821896
 30
0.0
 11
342.2782163024812121
 21
9.0473551563647483
 31
0.0
  0
LINE
  5
232F
  8
0
 10
342.2767132183183207
 20
9.0427307462821922
 30
0.0
 11
342.2774309502182746
 21
9.0422234815821891
 31
0.0
  0
LINE
  5
2330
  8
0
 10
342.2774309502182746
 20
9.0422234815821891
 30
0.0
 11
342.2745198825182911
 21
9.0332672494821935
 31
0.0
  0
LINE
  5
2331
  8
0
 10
342.2745198825182911
 20
9.0332672494821935
 30
0.0
 11
342.2737279363183234
 21
9.0335461851821925
 31
0.0
  0
LINE
  5
2332
  8
0
 10
342.2737279363183234
 20
9.0335461851821925
 30
0.0
 11
342.2590306763182753
 21
9.0434787082821941
 31
0.0
  0
LINE
  5
2333
  8
0
 10
342.2590306763182753
 20
9.0434787082821941
 30
0.0
 11
342.2605299206182963
 21
9.0480913045821936
 31
0.0
  0
LINE
  5
2334
  8
0
 10
342.2605299206182963
 20
9.0480913045821936
 30
0.0
 11
342.2767132183183207
 21
9.0427307462821922
 31
0.0
  0
LINE
  5
2335
  8
0
 10
342.2767132183183207
 20
9.0427307462821922
 30
0.0
 11
342.2737279363183234
 21
9.0335461851821925
 31
0.0
  0
LINE
  5
2336
  8
0
 10
342.2727497525077069
 20
9.0305366908694218
 30
0.0
 11
342.2734837669182753
 21
9.0300795213821914
 31
0.0
  0
LINE
  5
2337
  8
0
 10
342.2734837669182753
 20
9.0300795213821914
 30
0.0
 11
342.2717698386182974
 21
9.0248064250821898
 31
0.0
  0
LINE
  5
2338
  8
0
 10
342.2717698386182974
 20
9.0248064250821898
 30
0.0
 11
342.2709921476183013
 21
9.0251292187821903
 31
0.0
  0
LINE
  5
2339
  8
0
 10
342.2709921476183013
 20
9.0251292187821903
 30
0.0
 11
342.2559779099352113
 21
9.0340865235247314
 31
0.0
  0
LINE
  5
233A
  8
0
 10
342.2559779099352113
 20
9.0340865235247314
 30
0.0
 11
342.2568604700281867
 21
9.0368018204802372
 31
0.0
  0
LINE
  5
233B
  8
0
 10
342.2568604700281867
 20
9.0368018204802372
 30
0.0
 11
342.2727497525077069
 21
9.0305366908694218
 31
0.0
  0
LINE
  5
233C
  8
0
 10
342.2727497525077069
 20
9.0305366908694218
 30
0.0
 11
342.2709921476183013
 21
9.0251292187821903
 31
0.0
  0
LINE
  5
233D
  8
0
 10
342.2707112923757222
 20
9.021549686823036
 30
0.0
 11
342.271258943518319
 21
9.0232345979821922
 31
0.0
  0
LINE
  5
233E
  8
0
 10
342.271258943518319
 20
9.0232345979821922
 30
0.0
 11
342.270509820388213
 21
9.0236452840024981
 31
0.0
  0
LINE
  5
233F
  8
0
 10
342.270509820388213
 20
9.0236452840024981
 30
0.0
 11
342.2549079803183076
 21
9.0307947630821914
 31
0.0
  0
LINE
  5
2340
  8
0
 10
342.2549079803183076
 20
9.0307947630821914
 30
0.0
 11
342.2546165070182838
 21
9.0298980119821906
 31
0.0
  0
LINE
  5
2341
  8
0
 10
342.2546165070182838
 20
9.0298980119821906
 30
0.0
 11
342.2609387901446212
 21
9.0264748824549912
 31
0.0
  0
LINE
  5
2342
  8
0
 10
342.270509820388213
 20
9.0236452840024981
 30
0.0
 11
342.2699506968597802
 21
9.0219250764814625
 31
0.0
  0
LINE
  5
2343
  8
0
 10
342.2692894614286274
 20
9.0778627688934286
 30
0.0
 11
342.2751159297183108
 21
9.0727262824821935
 31
0.0
  0
LINE
  5
2344
  8
0
 10
342.2751159297183108
 20
9.0727262824821935
 30
0.0
 11
342.2726000481183064
 21
9.0649858852821907
 31
0.0
  0
LINE
  5
2345
  8
0
 10
342.2726000481183064
 20
9.0649858852821907
 30
0.0
 11
342.2562200329969073
 21
9.0697412199260192
 31
0.0
  0
LINE
  5
2346
  8
0
 10
342.2562200329969073
 20
9.0697412199260192
 30
0.0
 11
342.2423509879183143
 21
9.0822218405821928
 31
0.0
  0
LINE
  5
2347
  8
0
 10
342.2423509879183143
 20
9.0822218405821928
 30
0.0
 11
342.2436435415348797
 21
9.0861985295331849
 31
0.0
  0
LINE
  5
2348
  8
0
 10
342.2562200329969073
 20
9.0697412199260192
 30
0.0
 11
342.2598563715733917
 21
9.0809288308421259
 31
0.0
  0
LINE
  5
2349
  8
0
 10
342.2383518564183191
 20
9.0699180556821943
 30
0.0
 11
342.2544214450182949
 21
9.0642076584821911
 31
0.0
  0
LINE
  5
234A
  8
0
 10
342.2544214450182949
 20
9.0642076584821911
 30
0.0
 11
342.2686516020182808
 21
9.052838039882193
 31
0.0
  0
LINE
  5
234B
  8
0
 10
342.2686516020182808
 20
9.052838039882193
 30
0.0
 11
342.2668315492182955
 21
9.0472384392821894
 31
0.0
  0
LINE
  5
234C
  8
0
 10
342.2668315492182955
 20
9.0472384392821894
 30
0.0
 11
342.2507588190183014
 21
9.0529391711821923
 31
0.0
  0
LINE
  5
234D
  8
0
 10
342.2507588190183014
 20
9.0529391711821923
 30
0.0
 11
342.2365092311183048
 21
9.0642490083821912
 31
0.0
  0
LINE
  5
234E
  8
0
 10
342.2365092311183048
 20
9.0642490083821912
 30
0.0
 11
342.2383518564183191
 21
9.0699180556821943
 31
0.0
  0
LINE
  5
234F
  8
0
 10
342.2331330998183034
 20
9.0887717316821934
 30
0.0
 11
342.2468726755121793
 21
9.0758927836656191
 31
0.0
  0
LINE
  5
2350
  8
0
 10
342.2468726755121793
 20
9.0758927836656191
 30
0.0
 11
342.244692233018327
 21
9.0691844030821898
 31
0.0
  0
LINE
  5
2351
  8
0
 10
342.244692233018327
 20
9.0691844030821898
 30
0.0
 11
342.2287365098554233
 21
9.0752451206586482
 31
0.0
  0
LINE
  5
2352
  8
0
 10
342.2287365098554233
 20
9.0752451206586482
 30
0.0
 11
342.2149683605182986
 21
9.0880361585821916
 31
0.0
  0
LINE
  5
2353
  8
0
 10
342.2149683605182986
 20
9.0880361585821916
 30
0.0
 11
342.217115768330018
 21
9.0946429039359558
 31
0.0
  0
LINE
  5
2354
  8
0
 10
342.2331330998570138
 20
9.0887717317156778
 30
0.0
 11
342.217115768330018
 21
9.0946429039359558
 31
0.0
  0
LINE
  5
2355
  8
0
 10
342.2272028176370782
 20
9.070526541041918
 30
0.0
 11
342.2413304111058778
 21
9.0588413739820588
 31
0.0
  0
LINE
  5
2356
  8
0
 10
342.2413304111058778
 20
9.0588413739820588
 30
0.0
 11
342.2398197480183057
 21
9.0541936464821902
 31
0.0
  0
LINE
  5
2357
  8
0
 10
342.2398197480183057
 20
9.0541936464821902
 30
0.0
 11
342.2241583331301058
 21
9.0611598366360742
 31
0.0
  0
LINE
  5
2358
  8
0
 10
342.2241583331301058
 20
9.0611598366360742
 30
0.0
 11
342.2100190718780937
 21
9.0728091068129437
 31
0.0
  0
LINE
  5
2359
  8
0
 10
342.2100190718780937
 20
9.0728091068129437
 30
0.0
 11
342.2115530722560948
 21
9.0775286341407622
 31
0.0
  0
LINE
  5
235A
  8
0
 10
342.2115530722560948
 20
9.0775286341407622
 30
0.0
 11
342.2272028176370782
 21
9.070526541041918
 31
0.0
  0
LINE
  5
235B
  8
0
 10
342.2231611954002801
 20
9.0580920286047082
 30
0.0
 11
342.2376333580680239
 21
9.0474669678959003
 31
0.0
  0
LINE
  5
235C
  8
0
 10
342.2376333580680239
 20
9.0474669678959003
 30
0.0
 11
342.2367443304182757
 21
9.0447317728821908
 31
0.0
  0
LINE
  5
235D
  8
0
 10
342.2367443304182757
 20
9.0447317728821908
 30
0.0
 11
342.2213700676800272
 21
9.052581419620477
 31
0.0
  0
LINE
  5
235E
  8
0
 10
342.2213700676800272
 20
9.052581419620477
 30
0.0
 11
342.2068974018418999
 21
9.0632049321992874
 31
0.0
  0
LINE
  5
235F
  8
0
 10
342.2068974018418999
 20
9.0632049321992874
 30
0.0
 11
342.2077996303182772
 21
9.0659807412821927
 31
0.0
  0
LINE
  5
2360
  8
0
 10
342.2077996303182772
 20
9.0659807412821927
 30
0.0
 11
342.2231611954002801
 21
9.0580920286047082
 31
0.0
  0
LINE
  5
2361
  8
0
 10
342.205495691868407
 20
9.0588924112061946
 30
0.0
 11
342.2058038962182991
 21
9.0598406372821927
 31
0.0
  0
LINE
  5
2362
  8
0
 10
342.2058038962182991
 20
9.0598406372821927
 30
0.0
 11
342.2208786587066243
 21
9.0510695438120443
 31
0.0
  0
LINE
  5
2363
  8
0
 10
342.2208786587066243
 20
9.0510695438120443
 30
0.0
 11
342.2356666464083901
 21
9.0414161550378296
 31
0.0
  0
LINE
  5
2364
  8
0
 10
342.2356666464083901
 20
9.0414161550378296
 30
0.0
 11
342.2353536555788764
 21
9.0404532030303457
 31
0.0
  0
LINE
  5
2365
  8
0
 10
342.1884777651183072
 20
9.0965949149821892
 30
0.0
 11
342.1903754486182834
 21
9.1024333547821925
 31
0.0
  0
LINE
  5
2366
  8
0
 10
342.1903754486182834
 20
9.1024333547821925
 30
0.0
 11
342.2058911506182994
 21
9.0950188622821901
 31
0.0
  0
LINE
  5
2367
  8
0
 10
342.2058911506182994
 20
9.0950188622821901
 30
0.0
 11
342.2195278231191082
 21
9.0818233206607033
 31
0.0
  0
LINE
  5
2368
  8
0
 10
342.2195278231191082
 20
9.0818233206607033
 30
0.0
 11
342.2176667299182782
 21
9.0760974548821913
 31
0.0
  0
LINE
  5
2369
  8
0
 10
342.2176667299182782
 20
9.0760974548821913
 30
0.0
 11
342.2021327302502982
 21
9.0834556526641776
 31
0.0
  0
LINE
  5
236A
  8
0
 10
342.2021327302502982
 20
9.0834556526641776
 30
0.0
 11
342.1884777651183072
 21
9.0965949149821892
 31
0.0
  0
LINE
  5
236B
  8
0
 10
342.1856271634183031
 20
9.0878247129821901
 30
0.0
 11
342.2008546573183025
 21
9.0795235152821903
 31
0.0
  0
LINE
  5
236C
  8
0
 10
342.2008546573183025
 20
9.0795235152821903
 30
0.0
 11
342.2148695941380083
 21
9.0674917469874998
 31
0.0
  0
LINE
  5
236D
  8
0
 10
342.2148695941380083
 20
9.0674917469874998
 30
0.0
 11
342.2136599112183148
 21
9.0637700192821917
 31
0.0
  0
LINE
  5
236E
  8
0
 10
342.2136599112183148
 20
9.0637700192821917
 30
0.0
 11
342.1984129840079731
 21
9.0720114282463662
 31
0.0
  0
LINE
  5
236F
  8
0
 10
342.1984129840079731
 20
9.0720114282463662
 30
0.0
 11
342.1843949062882189
 21
9.0840335332290323
 31
0.0
  0
LINE
  5
2370
  8
0
 10
342.1843949062882189
 20
9.0840335332290323
 30
0.0
 11
342.1856271634183031
 21
9.0878247129821901
 31
0.0
  0
LINE
  5
2371
  8
0
 10
342.1827194182183121
 20
9.0788787028821911
 30
0.0
 11
342.1976614471587936
 21
9.0696992394332892
 31
0.0
  0
LINE
  5
2372
  8
0
 10
342.1976614471587936
 20
9.0696992394332892
 30
0.0
 11
342.2120146129392992
 21
9.0587080713064392
 31
0.0
  0
LINE
  5
2373
  8
0
 10
342.2120146129392992
 20
9.0587080713064392
 30
0.0
 11
342.2114185437183096
 21
9.056874196282191
 31
0.0
  0
LINE
  5
2374
  8
0
 10
342.2114185437183096
 20
9.056874196282191
 30
0.0
 11
342.196458654497178
 21
9.0659987103968334
 31
0.0
  0
LINE
  5
2375
  8
0
 10
342.196458654497178
 20
9.0659987103968334
 30
0.0
 11
342.1821125548635223
 21
9.0770116182363942
 31
0.0
  0
LINE
  5
2376
  8
0
 10
342.1821125548635223
 20
9.0770116182363942
 30
0.0
 11
342.1827194182183121
 21
9.0788787028821911
 31
0.0
  0
LINE
  5
2377
  8
0
 10
342.1616256685098847
 20
9.0906888934644332
 30
0.0
 11
342.158211876518294
 21
9.0935385503821902
 31
0.0
  0
LINE
  5
2378
  8
0
 10
342.158211876518294
 20
9.0935385503821902
 30
0.0
 11
342.1585196333182921
 21
9.0944853992821901
 31
0.0
  0
LINE
  5
2379
  8
0
 10
342.1585196333182921
 20
9.0944853992821901
 30
0.0
 11
342.1730276643846764
 21
9.0839706919376368
 31
0.0
  0
LINE
  5
237A
  8
0
 10
342.1730276643846764
 20
9.0839706919376368
 30
0.0
 11
342.1872507121848912
 21
9.0725792009265902
 31
0.0
  0
LINE
  5
237B
  8
0
 10
342.1872507121848912
 20
9.0725792009265902
 30
0.0
 11
342.186949490518316
 21
9.0716524579821893
 31
0.0
  0
LINE
  5
237C
  8
0
 10
342.186949490518316
 20
9.0716524579821893
 30
0.0
 11
342.1849754993452848
 21
9.0730192477660125
 31
0.0
  0
LINE
  5
237D
  8
0
 10
342.1596498308182959
 20
9.0979625809821911
 30
0.0
 11
342.1605826988022159
 21
9.1008326559412183
 31
0.0
  0
LINE
  5
237E
  8
0
 10
342.1605826988022159
 20
9.1008326559412183
 30
0.0
 11
342.1753789269749859
 21
9.091204619810437
 31
0.0
  0
LINE
  5
237F
  8
0
 10
342.1753789269749859
 20
9.091204619810437
 30
0.0
 11
342.1892693710183266
 21
9.0787898352821905
 31
0.0
  0
LINE
  5
2380
  8
0
 10
342.1892693710183266
 20
9.0787898352821905
 30
0.0
 11
342.1883567127183028
 21
9.0759819378821902
 31
0.0
  0
LINE
  5
2381
  8
0
 10
342.1883567127183028
 20
9.0759819378821902
 30
0.0
 11
342.1735337123232057
 21
9.0855276060870267
 31
0.0
  0
LINE
  5
2382
  8
0
 10
342.1735337123232057
 20
9.0855276060870267
 30
0.0
 11
342.1596498308182959
 21
9.0979625809821911
 31
0.0
  0
LINE
  5
2383
  8
0
 10
342.1642172199142919
 20
9.1120146752698332
 30
0.0
 11
342.1628789569182914
 21
9.1078973563821926
 31
0.0
  0
LINE
  5
2384
  8
0
 10
342.1628789569182914
 20
9.1078973563821926
 30
0.0
 11
342.1764066817182766
 21
9.0943666246821913
 31
0.0
  0
LINE
  5
2385
  8
0
 10
342.1764066817182766
 20
9.0943666246821913
 30
0.0
 11
342.1915149449183104
 21
9.0856985998821926
 31
0.0
  0
LINE
  5
2386
  8
0
 10
342.1915149449183104
 20
9.0856985998821926
 30
0.0
 11
342.193067413218273
 21
9.0904749459821907
 31
0.0
  0
LINE
  5
2387
  8
0
 10
342.193067413218273
 20
9.0904749459821907
 30
0.0
 11
342.1795469694183112
 21
9.1040280783821927
 31
0.0
  0
LINE
  5
2388
  8
0
 10
342.1795469694183112
 20
9.1040280783821927
 30
0.0
 11
342.1669510479217138
 21
9.1111260919788428
 31
0.0
  0
LINE
  5
2389
  8
0
 10
342.1546200015549744
 20
9.1151340843369422
 30
0.0
 11
342.1674916846183123
 21
9.1018483945821913
 31
0.0
  0
LINE
  5
238A
  8
0
 10
342.1674916846183123
 20
9.1018483945821913
 30
0.0
 11
342.1662419209183099
 21
9.0980033537821896
 31
0.0
  0
LINE
  5
238B
  8
0
 10
342.1662419209183099
 20
9.0980033537821896
 30
0.0
 11
342.1515702028424926
 21
9.1080144593590617
 31
0.0
  0
LINE
  5
238C
  8
0
 10
342.1515702028424926
 20
9.1080144593590617
 30
0.0
 11
342.1400291667466718
 21
9.1198765816620728
 31
0.0
  0
LINE
  5
238D
  8
0
 10
342.1364425282183106
 20
9.1166227624821907
 30
0.0
 11
342.1358112970182788
 21
9.1146807075821918
 31
0.0
  0
LINE
  5
238E
  8
0
 10
342.1358112970182788
 20
9.1146807075821918
 30
0.0
 11
342.14954509945062
 21
9.1017839973468035
 31
0.0
  0
LINE
  5
238F
  8
0
 10
342.14954509945062
 20
9.1017839973468035
 30
0.0
 11
342.1639278173183243
 21
9.0908837495821881
 31
0.0
  0
LINE
  5
2390
  8
0
 10
342.1639278173183243
 20
9.0908837495821881
 30
0.0
 11
342.1645430396183087
 21
9.0927765512821921
 31
0.0
  0
LINE
  5
2391
  8
0
 10
342.1645430396183087
 20
9.0927765512821921
 30
0.0
 11
342.1507912509117091
 21
9.1056179248608071
 31
0.0
  0
LINE
  5
2392
  8
0
 10
342.1507912509117091
 20
9.1056179248608071
 30
0.0
 11
342.1364425282183106
 21
9.1166227624821907
 31
0.0
  0
LINE
  5
2393
  8
0
 10
342.1285140759093792
 20
9.1236193618533115
 30
0.0
 11
342.1418667391183135
 21
9.1130704217821901
 31
0.0
  0
LINE
  5
2394
  8
0
 10
342.1418667391183135
 20
9.1130704217821901
 30
0.0
 11
342.1428150938182853
 21
9.1159881431821912
 31
0.0
  0
LINE
  5
2395
  8
0
 10
342.1428150938182853
 20
9.1159881431821912
 30
0.0
 11
342.1387127878643923
 21
9.1203044477444486
 31
0.0
  0
LINE
  5
2396
  8
0
 10
342.1248690815169198
 20
9.1248041039454648
 30
0.0
 11
342.1271221718843094
 21
9.1228573984669126
 31
0.0
  0
LINE
  5
2397
  8
0
 10
342.1271221718843094
 20
9.1228573984669126
 30
0.0
 11
342.1407180124932097
 21
9.1095362328697842
 31
0.0
  0
LINE
  5
2398
  8
0
 10
342.1407180124932097
 20
9.1095362328697842
 30
0.0
 11
342.1404052538183009
 21
9.1085739950821925
 31
0.0
  0
LINE
  5
2399
  8
0
 10
342.1404052538183009
 20
9.1085739950821925
 30
0.0
 11
342.1332328242144172
 21
9.1147430188959842
 31
0.0
  0
LINE
  5
239A
  8
0
 10
342.2337391130758988
 20
9.0557264238246304
 30
0.0
 11
342.2325408490182781
 21
9.05203982748219
 31
0.0
  0
LINE
  5
239B
  8
0
 10
342.2325408490182781
 20
9.05203982748219
 30
0.0
 11
342.2471299272182819
 21
9.0417744708821921
 31
0.0
  0
LINE
  5
239C
  8
0
 10
342.2471299272182819
 20
9.0417744708821921
 30
0.0
 11
342.2629101982183215
 21
9.0351739548821897
 31
0.0
  0
LINE
  5
239D
  8
0
 10
342.2629101982183215
 20
9.0351739548821897
 30
0.0
 11
342.264094482918324
 21
9.0388175422821924
 31
0.0
  0
LINE
  5
239E
  8
0
 10
342.264094482918324
 20
9.0388175422821924
 30
0.0
 11
342.2495123940312283
 21
9.0491044023528033
 31
0.0
  0
LINE
  5
239F
  8
0
 10
342.2495123940312283
 20
9.0491044023528033
 30
0.0
 11
342.2337391130758988
 21
9.0557264238246304
 31
0.0
  0
LINE
  5
23A0
  8
0
 10
342.2309108322738211
 20
9.0470248947620604
 30
0.0
 11
342.2463962905183052
 21
9.0395173539821911
 31
0.0
  0
LINE
  5
23A1
  8
0
 10
342.2463962905183052
 20
9.0395173539821911
 30
0.0
 11
342.2612988991182874
 21
9.0302166091821903
 31
0.0
  0
LINE
  5
23A2
  8
0
 10
342.2612988991182874
 20
9.0302166091821903
 30
0.0
 11
342.2607149952182795
 21
9.02842016238219
 31
0.0
  0
LINE
  5
23A3
  8
0
 10
342.2607149952182795
 20
9.02842016238219
 30
0.0
 11
342.2452218368545118
 21
9.0359040128711179
 31
0.0
  0
LINE
  5
23A4
  8
0
 10
342.2452218368545118
 20
9.0359040128711179
 30
0.0
 11
342.2303202298742804
 21
9.0452078388725816
 31
0.0
  0
LINE
  5
23A5
  8
0
 10
342.2303202298742804
 20
9.0452078388725816
 30
0.0
 11
342.2309108322738211
 21
9.0470248947620604
 31
0.0
  0
LINE
  5
23A6
  8
0
 10
342.2544214450182949
 20
9.0642076584821911
 30
0.0
 11
342.2507588190183014
 21
9.0529391711821923
 31
0.0
  0
LINE
  5
23A7
  8
0
 10
342.2495123940312283
 20
9.0491044023528033
 30
0.0
 11
342.2471299272182819
 21
9.0417744708821921
 31
0.0
  0
LINE
  5
23A8
  8
0
 10
342.2463962905183052
 20
9.0395173539821911
 30
0.0
 11
342.2452218368545118
 21
9.0359040128711179
 31
0.0
  0
LINE
  5
23A9
  8
0
 10
342.2208786587066243
 20
9.0510695438120443
 30
0.0
 11
342.2203316136794911
 21
9.0494306133502231
 31
0.0
  0
LINE
  5
23AA
  8
0
 10
342.2231611954002801
 20
9.0580920286047082
 30
0.0
 11
342.2213700676800272
 21
9.052581419620477
 31
0.0
  0
LINE
  5
23AB
  8
0
 10
342.2272028176370782
 20
9.070526541041918
 30
0.0
 11
342.2241583331301058
 21
9.0611598366360742
 31
0.0
  0
LINE
  5
23AC
  8
0
 10
342.2287365098554233
 20
9.0752451206586482
 30
0.0
 11
342.2331330998183034
 21
9.0887717316821934
 31
0.0
  0
LINE
  5
23AD
  8
0
 10
342.2058911506182994
 20
9.0950188622821901
 30
0.0
 11
342.2021327302502982
 21
9.0834556526641776
 31
0.0
  0
LINE
  5
23AE
  8
0
 10
342.2008546573183025
 20
9.0795235152821903
 30
0.0
 11
342.1984129840079731
 21
9.0720114282463662
 31
0.0
  0
LINE
  5
23AF
  8
0
 10
342.1976614471587936
 20
9.0696992394332892
 30
0.0
 11
342.196458654497178
 21
9.0659987103968334
 31
0.0
  0
LINE
  5
23B0
  8
0
 10
342.1795469694183112
 20
9.1040280783821927
 30
0.0
 11
342.1764066817182766
 21
9.0943666246821913
 31
0.0
  0
LINE
  5
23B1
  8
0
 10
342.1753789269749859
 20
9.091204619810437
 30
0.0
 11
342.1735337123232057
 21
9.0855276060870267
 31
0.0
  0
LINE
  5
23B2
  8
0
 10
342.1730276643846764
 20
9.0839706919376368
 30
0.0
 11
342.1724491788722275
 21
9.0822766607909813
 31
0.0
  0
LINE
  5
23B3
  8
0
 10
342.1546200015549744
 20
9.1151340843369422
 30
0.0
 11
342.1515702028424926
 21
9.1080144593590617
 31
0.0
  0
LINE
  5
23B4
  8
0
 10
342.1507912509117091
 20
9.1056179248608071
 30
0.0
 11
342.14954509945062
 21
9.1017839973468035
 31
0.0
  0
LINE
  5
23B5
  8
0
 10
342.1271221718843094
 20
9.1228573984669126
 30
0.0
 11
342.1262789585626933
 21
9.1211114580190227
 31
0.0
  0
LINE
  5
23B6
  8
0
 10
342.8586761850190783
 20
9.0346554323921673
 30
0.0
 11
342.856438741404304
 21
9.0277716814776134
 31
0.0
  0
LINE
  5
23B7
  8
0
 10
342.856438741404304
 20
9.0277716814776134
 30
0.0
 11
342.8316328540145719
 21
9.0151356418573432
 31
0.0
  0
LINE
  5
23B8
  8
0
 10
342.7567489997949224
 20
9.0394753374943591
 30
0.0
 11
342.7319431123036111
 21
9.0268392978713763
 31
0.0
  0
LINE
  5
23B9
  8
0
 10
342.7319431123036111
 20
9.0268392978713763
 30
0.0
 11
342.7138613175163755
 21
8.9712085903347187
 31
0.0
  0
ARC
  5
23BA
  8
0
 10
342.6764193907739013
 20
8.9833784379921582
 30
0.0
 40
0.0393700783616027
 50
296.9941474261099188
 51
341.9941478213871164
  0
LINE
  5
23BB
  8
0
 10
342.6942894490276217
 20
8.9482976157639555
 30
0.0
 11
342.6840145140183154
 21
8.9430635967821885
 31
0.0
  0
LINE
  5
23BC
  8
0
 10
342.4144326389986759
 20
9.0306865010218047
 30
0.0
 11
342.3968670805566035
 21
8.9766440536362175
 31
0.0
  0
ARC
  5
23BD
  8
0
 10
342.5305827523343964
 20
9.5655416372636353
 30
0.0
 40
0.6038876094781235
 50
257.2072699399365092
 51
277.6032081045236168
  0
LINE
  5
23BE
  8
0
 10
342.4443861807108078
 20
9.0209506227589102
 30
0.0
 11
342.4426780092181275
 21
9.0156952381632927
 31
0.0
  0
LINE
  5
23BF
  8
0
 10
342.4426780092181275
 20
9.0156952381632927
 30
0.0
 11
342.4434519672533952
 21
9.0153609594458395
 31
0.0
  0
LINE
  5
23C0
  8
0
 10
342.4434519672533952
 20
9.0153609594458395
 30
0.0
 11
342.4581484717800208
 21
9.0164774291794316
 31
0.0
  0
LINE
  5
23C1
  8
0
 10
342.4434519672533952
 20
9.0153609594458395
 30
0.0
 11
342.4451844554047284
 21
9.0206911574403996
 31
0.0
  0
LINE
  5
23C2
  8
0
 10
342.4413747276520894
 20
9.0089700946787801
 30
0.0
 11
342.4404777992659774
 21
9.0089260409802066
 31
0.0
  0
LINE
  5
23C3
  8
0
 10
342.4404777992659774
 20
9.0089260409802066
 30
0.0
 11
342.4362791319342136
 21
8.9960083611580437
 31
0.0
  0
LINE
  5
23C4
  8
0
 10
342.4362791319342136
 20
8.9960083611580437
 30
0.0
 11
342.4370689457568915
 21
8.9957228648802179
 31
0.0
  0
LINE
  5
23C5
  8
0
 10
342.4370689457568915
 20
8.9957228648802179
 30
0.0
 11
342.4551439113844253
 21
8.9961822389099453
 31
0.0
  0
LINE
  5
23C6
  8
0
 10
342.4551439113844253
 20
8.9961822389099453
 30
0.0
 11
342.4573068475007744
 21
9.0028367592384235
 31
0.0
  0
LINE
  5
23C7
  8
0
 10
342.4573068475007744
 20
9.0028367592384235
 30
0.0
 11
342.4413747276520894
 21
9.0089700946787801
 31
0.0
  0
LINE
  5
23C8
  8
0
 10
342.4413747276520894
 20
9.0089700946787801
 30
0.0
 11
342.4370689457568915
 21
8.9957228648802179
 31
0.0
  0
LINE
  5
23C9
  8
0
 10
342.4355658616282767
 20
8.9910984547865134
 30
0.0
 11
342.4346870439788972
 21
8.9911101207760034
 31
0.0
  0
LINE
  5
23CA
  8
0
 10
342.4346870439788972
 20
8.9911101207760034
 30
0.0
 11
342.4317759764214202
 21
8.9821538886297034
 31
0.0
  0
LINE
  5
23CB
  8
0
 10
342.4317759764214202
 20
8.9821538886297034
 30
0.0
 11
342.4325805796369195
 21
8.9819138936837302
 31
0.0
  0
LINE
  5
23CC
  8
0
 10
342.4325805796369195
 20
8.9819138936837302
 30
0.0
 11
342.4503089797406119
 21
8.9813070193930091
 31
0.0
  0
LINE
  5
23CD
  8
0
 10
342.4503089797406119
 20
8.9813070193930091
 30
0.0
 11
342.4518082240027752
 21
8.9859196157052601
 31
0.0
  0
LINE
  5
23CE
  8
0
 10
342.4518082240027752
 20
8.9859196157052601
 30
0.0
 11
342.4355658616282767
 21
8.9910984547865134
 31
0.0
  0
LINE
  5
23CF
  8
0
 10
342.4355658616282767
 20
8.9910984547865134
 30
0.0
 11
342.4325805796369195
 21
8.9819138936837302
 31
0.0
  0
LINE
  5
23D0
  8
0
 10
342.4316023957846937
 20
8.9789043993844935
 30
0.0
 11
342.4307398607687105
 21
8.9789661605468503
 31
0.0
  0
LINE
  5
23D1
  8
0
 10
342.4307398607687105
 20
8.9789661605468503
 30
0.0
 11
342.4290259324191084
 21
8.9736930642629424
 31
0.0
  0
LINE
  5
23D2
  8
0
 10
342.4290259324191084
 20
8.9736930642629424
 30
0.0
 11
342.4298447909808942
 21
8.9734969272694514
 31
0.0
  0
LINE
  5
23D3
  8
0
 10
342.4298447909808942
 20
8.9734969272694514
 30
0.0
 11
342.4472562132228859
 21
8.9719148346792714
 31
0.0
  0
LINE
  5
23D4
  8
0
 10
342.4472562132228859
 20
8.9719148346792714
 30
0.0
 11
342.4481387733188171
 21
8.9746301316338517
 31
0.0
  0
LINE
  5
23D5
  8
0
 10
342.4481387733188171
 20
8.9746301316338517
 30
0.0
 11
342.4316023957846937
 21
8.9789043993844935
 31
0.0
  0
LINE
  5
23D6
  8
0
 10
342.4316023957846937
 20
8.9789043993844935
 30
0.0
 11
342.4298447909808942
 21
8.9734969272694514
 31
0.0
  0
LINE
  5
23D7
  8
0
 10
342.4279673862856725
 20
8.9704363259683291
 30
0.0
 11
342.4285150373428905
 21
8.972121237155239
 31
0.0
  0
LINE
  5
23D8
  8
0
 10
342.4285150373428905
 20
8.972121237155239
 30
0.0
 11
342.429362463777295
 21
8.9720129924811225
 31
0.0
  0
LINE
  5
23D9
  8
0
 10
342.429362463777295
 20
8.9720129924811225
 30
0.0
 11
342.4461862837551962
 21
8.9686230741882653
 31
0.0
  0
LINE
  5
23DA
  8
0
 10
342.4461862837551962
 20
8.9686230741882653
 30
0.0
 11
342.445894810340917
 21
8.9677263231254081
 31
0.0
  0
LINE
  5
23DB
  8
0
 10
342.445894810340917
 20
8.9677263231254081
 30
0.0
 11
342.4387681043530733
 21
8.9686745538210388
 31
0.0
  0
LINE
  5
23DC
  8
0
 10
342.429362463777295
 20
8.9720129924811225
 30
0.0
 11
342.4288033401837197
 21
8.9702927849812895
 31
0.0
  0
LINE
  5
23DD
  8
0
 10
342.4622268061081058
 20
9.0151518374709561
 30
0.0
 11
342.4544937941572016
 21
9.0144226245033643
 31
0.0
  0
LINE
  5
23DE
  8
0
 10
342.4544937941572016
 20
9.0144226245033643
 30
0.0
 11
342.4519779125332093
 21
9.0066822273111669
 31
0.0
  0
LINE
  5
23DF
  8
0
 10
342.4519779125332093
 20
9.0066822273111669
 30
0.0
 11
342.4680235574650737
 21
9.0008981645806045
 31
0.0
  0
LINE
  5
23E0
  8
0
 10
342.4680235574650737
 20
9.0008981645806045
 30
0.0
 11
342.4865801723340155
 21
9.0028393878968345
 31
0.0
  0
LINE
  5
23E1
  8
0
 10
342.4865801723340155
 20
9.0028393878968345
 30
0.0
 11
342.4878727260017968
 21
9.0068160768311962
 31
0.0
  0
LINE
  5
23E2
  8
0
 10
342.4680235574650737
 20
9.0008981645806045
 30
0.0
 11
342.4716598959631142
 21
9.0120857755222588
 31
0.0
  0
LINE
  5
23E3
  8
0
 10
342.4825810408484017
 20
8.9905356029921606
 30
0.0
 11
342.4662249694541174
 21
8.9953646031473511
 31
0.0
  0
LINE
  5
23E4
  8
0
 10
342.4662249694541174
 20
8.9953646031473511
 30
0.0
 11
342.448029466492585
 21
8.9945343818918637
 31
0.0
  0
LINE
  5
23E5
  8
0
 10
342.448029466492585
 20
8.9945343818918637
 30
0.0
 11
342.4462094135536745
 21
8.9889347813370009
 31
0.0
  0
LINE
  5
23E6
  8
0
 10
342.4462094135536745
 20
8.9889347813370009
 30
0.0
 11
342.4625623434604904
 21
8.9840961158452508
 31
0.0
  0
LINE
  5
23E7
  8
0
 10
342.4625623434604904
 20
8.9840961158452508
 30
0.0
 11
342.4807384155124055
 21
8.9848665557038636
 31
0.0
  0
LINE
  5
23E8
  8
0
 10
342.4807384155124055
 20
8.9848665557038636
 30
0.0
 11
342.4825810408484017
 21
8.9905356029921606
 31
0.0
  0
LINE
  5
23E9
  8
0
 10
342.4978875052726153
 20
9.0027179125430195
 30
0.0
 11
342.4792014210145226
 21
9.0003783618678632
 31
0.0
  0
LINE
  5
23EA
  8
0
 10
342.4792014210145226
 20
9.0003783618678632
 30
0.0
 11
342.4770209784293797
 21
8.9936699813140812
 31
0.0
  0
LINE
  5
23EB
  8
0
 10
342.4770209784293797
 20
8.9936699813140812
 30
0.0
 11
342.4934909154673051
 21
8.9891913014682459
 31
0.0
  0
LINE
  5
23EC
  8
0
 10
342.4934909154673051
 20
8.9891913014682459
 30
0.0
 11
342.5121484260731108
 21
8.9914429420533146
 31
0.0
  0
LINE
  5
23ED
  8
0
 10
342.5121484260731108
 20
8.9914429420533146
 30
0.0
 11
342.5142958338254857
 21
8.9980496874263292
 31
0.0
  0
LINE
  5
23EE
  8
0
 10
342.4978875052610192
 20
9.0027179125928551
 30
0.0
 11
342.5142958338254857
 21
8.9980496874263345
 31
0.0
  0
LINE
  5
23EF
  8
0
 10
342.4919572230745075
 20
8.9844727219082259
 30
0.0
 11
342.4736591565589947
 21
8.9833269522003292
 31
0.0
  0
LINE
  5
23F0
  8
0
 10
342.4736591565589947
 20
8.9833269522003292
 30
0.0
 11
342.4721484935117246
 21
8.9786792246873333
 31
0.0
  0
LINE
  5
23F1
  8
0
 10
342.4721484935117246
 20
8.9786792246873333
 30
0.0
 11
342.4889127385587244
 21
8.9751060175052544
 31
0.0
  0
LINE
  5
23F2
  8
0
 10
342.4889127385587244
 20
8.9751060175052544
 30
0.0
 11
342.5071991375176026
 21
8.9762158902565545
 31
0.0
  0
LINE
  5
23F3
  8
0
 10
342.5071991375176026
 20
8.9762158902565545
 30
0.0
 11
342.5087331378480258
 21
8.9809354175998202
 31
0.0
  0
LINE
  5
23F4
  8
0
 10
342.5087331378480258
 20
8.9809354175998202
 30
0.0
 11
342.4919572230745075
 21
8.9844727219082259
 31
0.0
  0
LINE
  5
23F5
  8
0
 10
342.4879156008926202
 20
8.9720382094531885
 30
0.0
 11
342.4699621034857273
 21
8.9719525461256566
 31
0.0
  0
LINE
  5
23F6
  8
0
 10
342.4699621034857273
 20
8.9719525461256566
 30
0.0
 11
342.4690730759029975
 21
8.969217351090176
 31
0.0
  0
LINE
  5
23F7
  8
0
 10
342.4690730759029975
 20
8.969217351090176
 30
0.0
 11
342.4861244732118735
 21
8.9665276004560894
 31
0.0
  0
LINE
  5
23F8
  8
0
 10
342.4861244732118735
 20
8.9665276004560894
 30
0.0
 11
342.5040774674080239
 21
8.9666117156667191
 31
0.0
  0
LINE
  5
23F9
  8
0
 10
342.5040774674080239
 20
8.9666117156667191
 30
0.0
 11
342.5049796959453943
 21
8.9693875247297967
 31
0.0
  0
LINE
  5
23FA
  8
0
 10
342.5049796959453943
 20
8.9693875247297967
 30
0.0
 11
342.4879156008926202
 21
8.9720382094531885
 31
0.0
  0
LINE
  5
23FB
  8
0
 10
342.5026757573600094
 20
8.9622991946978807
 30
0.0
 11
342.5029839618180176
 21
8.9632474207387283
 31
0.0
  0
LINE
  5
23FC
  8
0
 10
342.5029839618180176
 20
8.9632474207387283
 30
0.0
 11
342.4856330642605258
 21
8.9650157246405087
 31
0.0
  0
LINE
  5
23FD
  8
0
 10
342.4856330642605258
 20
8.9650157246405087
 30
0.0
 11
342.4679953919682021
 21
8.9659017332214006
 31
0.0
  0
LINE
  5
23FE
  8
0
 10
342.4679953919682021
 20
8.9659017332214006
 30
0.0
 11
342.4676824011597773
 21
8.96493878120706
 31
0.0
  0
LINE
  5
23FF
  8
0
 10
342.53860871183889
 20
8.9827909346011197
 30
0.0
 11
342.5405063951736793
 21
8.9886293744548134
 31
0.0
  0
LINE
  5
2400
  8
0
 10
342.5405063951736793
 20
8.9886293744548134
 30
0.0
 11
342.5235964372391209
 21
8.9917542792906175
 31
0.0
  0
LINE
  5
2401
  8
0
 10
342.5235964372391209
 20
8.9917542792906175
 30
0.0
 11
342.5048074496846198
 21
8.989098135044113
 31
0.0
  0
LINE
  5
2402
  8
0
 10
342.5048074496846198
 20
8.989098135044113
 30
0.0
 11
342.5029463565231254
 21
8.9833722692528202
 31
0.0
  0
LINE
  5
2403
  8
0
 10
342.5029463565231254
 20
8.9833722692528202
 30
0.0
 11
342.5198380168766903
 21
8.9801910696707381
 31
0.0
  0
LINE
  5
2404
  8
0
 10
342.5198380168766903
 20
8.9801910696707381
 30
0.0
 11
342.53860871183889
 21
8.9827909346011197
 31
0.0
  0
LINE
  5
2405
  8
0
 10
342.535758110012921
 20
8.9740207326420922
 30
0.0
 11
342.5185599439457178
 21
8.9762589322884416
 31
0.0
  0
LINE
  5
2406
  8
0
 10
342.5185599439457178
 20
8.9762589322884416
 30
0.0
 11
342.5001492206728813
 21
8.97476656138085
 31
0.0
  0
LINE
  5
2407
  8
0
 10
342.5001492206728813
 20
8.97476656138085
 30
0.0
 11
342.4989395377486971
 21
8.9710448336770057
 31
0.0
  0
LINE
  5
2408
  8
0
 10
342.4989395377486971
 20
8.9710448336770057
 30
0.0
 11
342.5161182705429042
 21
8.9687468452826984
 31
0.0
  0
LINE
  5
2409
  8
0
 10
342.5161182705429042
 20
8.9687468452826984
 30
0.0
 11
342.5345258529309262
 21
8.9702295528732634
 31
0.0
  0
LINE
  5
240A
  8
0
 10
342.5345258529309262
 20
8.9702295528732634
 30
0.0
 11
342.535758110012921
 21
8.9740207326420922
 31
0.0
  0
LINE
  5
240B
  8
0
 10
342.532850364925423
 20
8.9650747225055056
 30
0.0
 11
342.5153667337875731
 21
8.9664346564391195
 31
0.0
  0
LINE
  5
240C
  8
0
 10
342.5153667337875731
 20
8.9664346564391195
 30
0.0
 11
342.4972942395521045
 21
8.9659828856744355
 31
0.0
  0
LINE
  5
240D
  8
0
 10
342.4972942395521045
 20
8.9659828856744355
 30
0.0
 11
342.4966981703486226
 21
8.9641490106445652
 31
0.0
  0
LINE
  5
240E
  8
0
 10
342.4966981703486226
 20
8.9641490106445652
 30
0.0
 11
342.5141639411231722
 21
8.9627341274035466
 31
0.0
  0
LINE
  5
240F
  8
0
 10
342.5141639411231722
 20
8.9627341274035466
 30
0.0
 11
342.5322435014494999
 21
8.9632076378991066
 31
0.0
  0
LINE
  5
2410
  8
0
 10
342.5322435014494999
 20
8.9632076378991066
 30
0.0
 11
342.532850364925423
 21
8.9650747225055056
 31
0.0
  0
LINE
  5
2411
  8
0
 10
342.5568568412979857
 20
8.9622258682584395
 30
0.0
 11
342.5612937043006809
 21
8.9625238061827481
 31
0.0
  0
LINE
  5
2412
  8
0
 10
342.5612937043006809
 20
8.9625238061827481
 30
0.0
 11
342.561601461069074
 21
8.9634706550929977
 31
0.0
  0
LINE
  5
2413
  8
0
 10
342.561601461069074
 20
8.9634706550929977
 30
0.0
 11
342.5436838321421078
 21
8.9634953451033432
 31
0.0
  0
LINE
  5
2414
  8
0
 10
342.5436838321421078
 20
8.9634953451033432
 30
0.0
 11
342.5254812198950845
 21
8.9626432514647085
 31
0.0
  0
LINE
  5
2415
  8
0
 10
342.5254812198950845
 20
8.9626432514647085
 30
0.0
 11
342.5251799981842851
 21
8.9617165085346482
 31
0.0
  0
LINE
  5
2416
  8
0
 10
342.5251799981842851
 20
8.9617165085346482
 30
0.0
 11
342.5275803582790104
 21
8.9616614914473161
 31
0.0
  0
LINE
  5
2417
  8
0
 10
342.562731658555208
 20
8.9669478367975142
 30
0.0
 11
342.5636645265595916
 21
8.9698179117498622
 31
0.0
  0
LINE
  5
2418
  8
0
 10
342.5636645265595916
 20
8.9698179117498622
 30
0.0
 11
342.5460350946754033
 21
8.9707292729946673
 31
0.0
  0
LINE
  5
2419
  8
0
 10
342.5460350946754033
 20
8.9707292729946673
 30
0.0
 11
342.5274998786351262
 21
8.9688538858506401
 31
0.0
  0
LINE
  5
241A
  8
0
 10
342.5274998786351262
 20
8.9688538858506401
 30
0.0
 11
342.5265872204072934
 21
8.9660459884271511
 31
0.0
  0
LINE
  5
241B
  8
0
 10
342.5265872204072934
 20
8.9660459884271511
 30
0.0
 11
342.5441898799953719
 21
8.9650522592804407
 31
0.0
  0
LINE
  5
241C
  8
0
 10
342.5441898799953719
 20
8.9650522592804407
 30
0.0
 11
342.562731658555208
 21
8.9669478367975142
 31
0.0
  0
LINE
  5
241D
  8
0
 10
342.5672990476223276
 20
8.9809999310945479
 30
0.0
 11
342.5659607846874906
 21
8.9768826121870369
 31
0.0
  0
LINE
  5
241E
  8
0
 10
342.5659607846874906
 20
8.9768826121870369
 30
0.0
 11
342.5470628494142034
 21
8.9738912778678923
 31
0.0
  0
LINE
  5
241F
  8
0
 10
342.5470628494142034
 20
8.9738912778678923
 30
0.0
 11
342.5297454525115768
 21
8.9757626504582717
 31
0.0
  0
LINE
  5
2420
  8
0
 10
342.5297454525115768
 20
8.9757626504582717
 30
0.0
 11
342.5312979208230786
 21
8.9805389965545324
 31
0.0
  0
LINE
  5
2421
  8
0
 10
342.5312979208230786
 20
8.9805389965545324
 30
0.0
 11
342.5502031370210148
 21
8.9835527315981984
 31
0.0
  0
LINE
  5
2422
  8
0
 10
342.5502031370210148
 20
8.9835527315981984
 30
0.0
 11
342.5645652196150195
 21
8.9818885143855471
 31
0.0
  0
LINE
  5
2423
  8
0
 10
342.5768962659815884
 20
8.9778805220274407
 30
0.0
 11
342.5586730733738818
 21
8.9747016813072094
 31
0.0
  0
LINE
  5
2424
  8
0
 10
342.5586730733738818
 20
8.9747016813072094
 30
0.0
 11
342.5574233096722878
 21
8.9708566405077281
 31
0.0
  0
LINE
  5
2425
  8
0
 10
342.5574233096722878
 20
8.9708566405077281
 30
0.0
 11
342.5751772515997118
 21
8.9703283487265146
 31
0.0
  0
LINE
  5
2426
  8
0
 10
342.5751772515997118
 20
8.9703283487265146
 30
0.0
 11
342.5914871007900047
 21
8.9731380247023118
 31
0.0
  0
LINE
  5
2427
  8
0
 10
342.5924752369530211
 20
8.9683972544999335
 30
0.0
 11
342.5918440057525913
 21
8.9664551996000732
 31
0.0
  0
LINE
  5
2428
  8
0
 10
342.5918440057525913
 20
8.9664551996000732
 30
0.0
 11
342.5731521481623076
 21
8.9640978867290535
 31
0.0
  0
LINE
  5
2429
  8
0
 10
342.5731521481623076
 20
8.9640978867290535
 30
0.0
 11
342.5551092060081828
 21
8.9637370363285847
 31
0.0
  0
LINE
  5
242A
  8
0
 10
342.5551092060081828
 20
8.9637370363285847
 30
0.0
 11
342.5557244283143064
 21
8.9656298380265866
 31
0.0
  0
LINE
  5
242B
  8
0
 10
342.5557244283143064
 20
8.9656298380265866
 30
0.0
 11
342.5743982997307171
 21
8.9679318142081854
 31
0.0
  0
LINE
  5
242C
  8
0
 10
342.5743982997307171
 20
8.9679318142081854
 30
0.0
 11
342.5924752369530211
 21
8.9683972544999335
 31
0.0
  0
LINE
  5
242D
  8
0
 10
342.6030021916271835
 20
8.9693952445110696
 30
0.0
 11
342.5859990090337988
 21
8.9687129446569323
 31
0.0
  0
LINE
  5
242E
  8
0
 10
342.5859990090337988
 20
8.9687129446569323
 30
0.0
 11
342.5869473636307134
 21
8.9716306660904728
 31
0.0
  0
LINE
  5
242F
  8
0
 10
342.5869473636307134
 20
8.9716306660904728
 30
0.0
 11
342.5928034796722272
 21
8.972710158619936
 31
0.0
  0
LINE
  5
2430
  8
0
 10
342.6066471860198135
 20
8.9682105024189163
 30
0.0
 11
342.60368010172391
 21
8.9679605240093174
 31
0.0
  0
LINE
  5
2431
  8
0
 10
342.60368010172391
 20
8.9679605240093174
 30
0.0
 11
342.584850282280172
 21
8.9651787557862832
 31
0.0
  0
LINE
  5
2432
  8
0
 10
342.584850282280172
 20
8.9651787557862832
 30
0.0
 11
342.584537523608617
 21
8.9642165179976416
 31
0.0
  0
LINE
  5
2433
  8
0
 10
342.584537523608617
 20
8.9642165179976416
 30
0.0
 11
342.5939663603887766
 21
8.9649895886356994
 31
0.0
  0
LINE
  5
2434
  8
0
 10
342.4779682975056971
 20
8.9763439711346642
 30
0.0
 11
342.4767700334020901
 21
8.9726573748072056
 31
0.0
  0
LINE
  5
2435
  8
0
 10
342.4767700334020901
 20
8.9726573748072056
 30
0.0
 11
342.4589334515962946
 21
8.9729314155661122
 31
0.0
  0
LINE
  5
2436
  8
0
 10
342.4589334515962946
 20
8.9729314155661122
 30
0.0
 11
342.4422880625127732
 21
8.9768702969502847
 31
0.0
  0
LINE
  5
2437
  8
0
 10
342.4422880625127732
 20
8.9768702969502847
 30
0.0
 11
342.4434723473460735
 21
8.9805138843069798
 31
0.0
  0
LINE
  5
2438
  8
0
 10
342.4434723473460735
 20
8.9805138843069798
 30
0.0
 11
342.4613159184946767
 21
8.9802613470089412
 31
0.0
  0
LINE
  5
2439
  8
0
 10
342.4613159184946767
 20
8.9802613470089412
 30
0.0
 11
342.4779682975056971
 21
8.9763439711346642
 31
0.0
  0
LINE
  5
243A
  8
0
 10
342.4751400166629764
 20
8.9676424420853138
 30
0.0
 11
342.4581998150251252
 21
8.9706742986242691
 31
0.0
  0
LINE
  5
243B
  8
0
 10
342.4581998150251252
 20
8.9706742986242691
 30
0.0
 11
342.4406767634466746
 21
8.9719129512392897
 31
0.0
  0
LINE
  5
243C
  8
0
 10
342.4406767634466746
 20
8.9719129512392897
 30
0.0
 11
342.4400928596959943
 21
8.9701165043907274
 31
0.0
  0
LINE
  5
243D
  8
0
 10
342.4400928596959943
 20
8.9701165043907274
 30
0.0
 11
342.4570253612179727
 21
8.9670609575597666
 31
0.0
  0
LINE
  5
243E
  8
0
 10
342.4570253612179727
 20
8.9670609575597666
 30
0.0
 11
342.4745494141831159
 21
8.9658253862219723
 31
0.0
  0
LINE
  5
243F
  8
0
 10
342.4745494141831159
 20
8.9658253862219723
 30
0.0
 11
342.4751400166629764
 21
8.9676424420853138
 31
0.0
  0
LINE
  5
2440
  8
0
 10
342.4662249694541174
 20
8.9953646031473511
 30
0.0
 11
342.4625623434604904
 21
8.9840961158452508
 31
0.0
  0
LINE
  5
2441
  8
0
 10
342.4613159184946767
 20
8.9802613470089412
 30
0.0
 11
342.4589334515962946
 21
8.9729314155661122
 31
0.0
  0
LINE
  5
2442
  8
0
 10
342.4581998150251252
 20
8.9706742986242691
 30
0.0
 11
342.4570253612179727
 21
8.9670609575597666
 31
0.0
  0
LINE
  5
2443
  8
0
 10
342.4856330642605258
 20
8.9650157246405087
 30
0.0
 11
342.4851119572925882
 21
8.9633683634632533
 31
0.0
  0
LINE
  5
2444
  8
0
 10
342.4879156008926202
 20
8.9720382094531885
 30
0.0
 11
342.4861244732118735
 21
8.9665276004560894
 31
0.0
  0
LINE
  5
2445
  8
0
 10
342.4919572230745075
 20
8.9844727219082259
 30
0.0
 11
342.4889127385587244
 21
8.9751060175052544
 31
0.0
  0
LINE
  5
2446
  8
0
 10
342.4934909154673051
 20
8.9891913014682459
 30
0.0
 11
342.4978875052726153
 21
9.0027179125430195
 31
0.0
  0
LINE
  5
2447
  8
0
 10
342.5235964372391209
 20
8.9917542792906175
 30
0.0
 11
342.5198380168766903
 21
8.9801910696707381
 31
0.0
  0
LINE
  5
2448
  8
0
 10
342.5185599439457178
 20
8.9762589322884416
 30
0.0
 11
342.5161182705429042
 21
8.9687468452826984
 31
0.0
  0
LINE
  5
2449
  8
0
 10
342.5153667337875731
 20
8.9664346564391195
 30
0.0
 11
342.5141639411231722
 21
8.9627341274035466
 31
0.0
  0
LINE
  5
244A
  8
0
 10
342.5502031370210148
 20
8.9835527315981984
 30
0.0
 11
342.5470628494142034
 21
8.9738912778678923
 31
0.0
  0
LINE
  5
244B
  8
0
 10
342.5460350946754033
 20
8.9707292729946673
 30
0.0
 11
342.5441898799953719
 21
8.9650522592804407
 31
0.0
  0
LINE
  5
244C
  8
0
 10
342.5436838321421078
 20
8.9634953451033432
 30
0.0
 11
342.5431557608100093
 21
8.9617849277033361
 31
0.0
  0
LINE
  5
244D
  8
0
 10
342.5768962659815884
 20
8.9778805220274407
 30
0.0
 11
342.5751772515997118
 21
8.9703283487265146
 31
0.0
  0
LINE
  5
244E
  8
0
 10
342.5743982997307171
 20
8.9679318142081854
 30
0.0
 11
342.5731521481623076
 21
8.9640978867290535
 31
0.0
  0
LINE
  5
244F
  8
0
 10
342.60368010172391
 20
8.9679605240093174
 30
0.0
 11
342.6033356477968823
 21
8.9660524704865985
 31
0.0
  0
LINE
  5
2450
  8
0
 10
344.16067707008051
 20
8.9710870013821911
 30
0.0
 11
344.0100489557182755
 21
8.9710870013821911
 31
0.0
  0
ARC
  5
2451
  8
0
 10
344.0100489557182755
 20
8.9750240092821905
 30
0.0
 40
0.0039370078999994
 50
180.000001455312912
 51
270.0
  0
LINE
  5
2452
  8
0
 10
344.0061119478182832
 20
8.9750240091821922
 30
0.0
 11
344.0061119478182832
 21
8.997982497865582
 31
0.0
  0
ENDSEC
  0
EOF
