  0
SECTION
  2
HEADER
  9
$ACADVER
  1
AC1009
  9
$INSBASE
 10
331.78399695870928
 20
52.768545903747359
 30
0.0
  9
$EXTMIN
 10
323.3041592316506
 20
52.768545903747352
 30
0.0
  9
$EXTMAX
 10
332.9339783881037
 20
62.896559886496668
 30
0.0
  9
$LIMMIN
 10
0.0
 20
0.0
  9
$LIMMAX
 10
11.692913385800001
 20
8.2677165353999982
  9
$ORTHOMODE
 70
     1
  9
$REGENMODE
 70
     1
  9
$FILLMODE
 70
     1
  9
$QTEXTMODE
 70
     0
  9
$MIRRTEXT
 70
     0
  9
$DRAGMODE
 70
     2
  9
$LTSCALE
 40
0.6431102362
  9
$OSMODE
 70
  3071
  9
$ATTMODE
 70
     1
  9
$TEXTSIZE
 40
0.2
  9
$TRACEWID
 40
0.05
  9
$TEXTSTYLE
  7
STANDARD
  9
$CLAYER
  8
0
  9
$CELTYPE
  6
BYLAYER
  9
$CECOLOR
 62
   256
  9
$DIMSCALE
 40
1.0
  9
$DIMASZ
 40
0.1875
  9
$DIMEXO
 40
0.0625
  9
$DIMDLI
 40
0.4443307087
  9
$DIMRND
 40
0.0
  9
$DIMDLE
 40
0.0
  9
$DIMEXE
 40
0.125
  9
$DIMTP
 40
0.01
  9
$DIMTM
 40
0.01
  9
$DIMTXT
 40
2.0
  9
$DIMCEN
 40
0.1052362205
  9
$DIMTSZ
 40
0.0
  9
$DIMTOL
 70
     1
  9
$DIMLIM
 70
     0
  9
$DIMTIH
 70
     1
  9
$DIMTOH
 70
     1
  9
$DIMSE1
 70
     0
  9
$DIMSE2
 70
     0
  9
$DIMTAD
 70
     0
  9
$DIMZIN
 70
     0
  9
$DIMBLK
  1

  9
$DIMASO
 70
     1
  9
$DIMSHO
 70
     1
  9
$DIMPOST
  1
\X
  9
$DIMAPOST
  1

  9
$DIMALT
 70
     1
  9
$DIMALTD
 70
     2
  9
$DIMALTF
 40
25.399999999999999
  9
$DIMLFAC
 40
1.0
  9
$DIMTOFL
 70
     0
  9
$DIMTVP
 40
0.0
  9
$DIMTIX
 70
     0
  9
$DIMSOXD
 70
     0
  9
$DIMSAH
 70
     0
  9
$DIMBLK1
  1

  9
$DIMBLK2
  1

  9
$DIMSTYLE
  2
STANDARD
  9
$DIMCLRD
 70
     0
  9
$DIMCLRE
 70
     0
  9
$DIMCLRT
 70
     0
  9
$DIMTFAC
 40
1.0
  9
$DIMGAP
 40
0.09
  9
$LUNITS
 70
     2
  9
$LUPREC
 70
     4
  9
$SKETCHINC
 40
0.1
  9
$FILLETRAD
 40
0.0
  9
$AUNITS
 70
     0
  9
$AUPREC
 70
     0
  9
$MENU
  1
.
  9
$ELEVATION
 40
0.0
  9
$PELEVATION
 40
0.0
  9
$THICKNESS
 40
0.0
  9
$LIMCHECK
 70
     0
  9
$BLIPMODE
 70
     0
  9
$CHAMFERA
 40
0.0
  9
$CHAMFERB
 40
0.0
  9
$SKPOLY
 70
     0
  9
$TDCREATE
 40
2458060.4683680669
  9
$TDUPDATE
 40
2458534.7232398959
  9
$TDINDWG
 40
0.2442425463
  9
$TDUSRTIMER
 40
0.2442425463
  9
$USRTIMER
 70
     1
  9
$ANGBASE
 50
0.0
  9
$ANGDIR
 70
     0
  9
$PDMODE
 70
     0
  9
$PDSIZE
 40
0.3125
  9
$PLINEWID
 40
0.0
  9
$COORDS
 70
     1
  9
$SPLFRAME
 70
     0
  9
$SPLINETYPE
 70
     6
  9
$SPLINESEGS
 70
     8
  9
$ATTDIA
 70
     1
  9
$ATTREQ
 70
     1
  9
$HANDLING
 70
     1
  9
$HANDSEED
  5
43CD
  9
$SURFTAB1
 70
     6
  9
$SURFTAB2
 70
     6
  9
$SURFTYPE
 70
     6
  9
$SURFU
 70
     6
  9
$SURFV
 70
     6
  9
$UCSNAME
  2

  9
$UCSORG
 10
0.0
 20
0.0
 30
0.0
  9
$UCSXDIR
 10
1.0
 20
0.0
 30
0.0
  9
$UCSYDIR
 10
0.0
 20
1.0
 30
0.0
  9
$PUCSNAME
  2

  9
$PUCSORG
 10
0.0
 20
0.0
 30
0.0
  9
$PUCSXDIR
 10
1.0
 20
0.0
 30
0.0
  9
$PUCSYDIR
 10
0.0
 20
1.0
 30
0.0
  9
$USERI1
 70
     0
  9
$USERI2
 70
     0
  9
$USERI3
 70
     0
  9
$USERI4
 70
     0
  9
$USERI5
 70
     0
  9
$USERR1
 40
0.0
  9
$USERR2
 40
0.0
  9
$USERR3
 40
0.0
  9
$USERR4
 40
0.0
  9
$USERR5
 40
0.0
  9
$WORLDVIEW
 70
     1
  9
$SHADEDGE
 70
     3
  9
$SHADEDIF
 70
    70
  9
$TILEMODE
 70
     1
  9
$MAXACTVP
 70
    64
  9
$PLIMCHECK
 70
     0
  9
$PEXTMIN
 10
1.0000000000000000E+020
 20
1.0000000000000000E+020
 30
1.0000000000000000E+020
  9
$PEXTMAX
 10
-1.0000000000000000E+020
 20
-1.0000000000000000E+020
 30
-1.0000000000000000E+020
  9
$PLIMMIN
 10
0.0
 20
0.0
  9
$PLIMMAX
 10
12.0
 20
9.0
  9
$UNITMODE
 70
     0
  9
$VISRETAIN
 70
     1
  9
$PLINEGEN
 70
     0
  9
$PSLTSCALE
 70
     1
  0
ENDSEC
  0
SECTION
  2
TABLES
  0
TABLE
  2
VPORT
 70
     1
  0
VPORT
  2
*ACTIVE
 70
     0
 10
0.0
 20
0.0
 11
1.0
 21
1.0
 12
0.0
 22
0.0
 13
0.0
 23
0.0
 14
1.0
 24
1.0
 15
0.0
 25
0.0
 16
0.0
 26
0.0
 36
39.510721449106782
 17
328.11906880987709
 27
57.832383808844909
 37
0.0
 40
13.982333006812469
 41
2.112723214285714
 42
50.0
 43
0.0
 44
0.0
 50
0.0
 51
0.0
 71
     0
 72
   100
 73
     1
 74
     1
 75
     0
 76
     0
 77
     0
 78
     0
  0
ENDTAB
  0
TABLE
  2
LTYPE
 70
     2
  0
LTYPE
  2
CONTINUOUS
 70
     0
  3
Solid line
 72
    65
 73
     0
 40
0.0
  0
LTYPE
  2
PHANTOM2
 70
     0
  3
___ _ _ ___ _ _ ___ _ _ ___ _ _
 72
    65
 73
     6
 40
1.25
 49
0.625
 49
-0.125
 49
0.125
 49
-0.125
 49
0.125
 49
-0.125
  0
ENDTAB
  0
TABLE
  2
LAYER
 70
     2
  0
LAYER
  2
0
 70
     0
 62
   255
  6
CONTINUOUS
  0
LAYER
  2
DEFPOINTS
 70
     0
 62
     7
  6
CONTINUOUS
  0
ENDTAB
  0
TABLE
  2
STYLE
 70
     1
  0
STYLE
  2
STANDARD
 70
     0
 40
0.0
 41
0.8
 50
0.0
 71
     0
 42
0.2
  3
txt
  4

  0
ENDTAB
  0
TABLE
  2
VIEW
 70
     0
  0
ENDTAB
  0
TABLE
  2
UCS
 70
     0
  0
ENDTAB
  0
TABLE
  2
APPID
 70
     9
  0
APPID
  2
ACAD
 70
     0
  0
APPID
  2
ACAD_MLEADERVER
 70
     0
  0
APPID
  2
ACAD_EXEMPT_FROM_CAD_STANDARDS
 70
     0
  0
APPID
  2
ACAD_NAV_VCDISPLAY
 70
     0
  0
APPID
  2
ACAECLAYERSTANDARD
 70
     0
  0
APPID
  2
ACCMTRANSPARENCY
 70
     0
  0
APPID
  2
ACAD_DSTYLE_DIMJAG
 70
     0
  0
APPID
  2
ACAD_DSTYLE_DIMTALN
 70
     0
  0
APPID
  2
ACDBATTR
 70
     0
  0
ENDTAB
  0
TABLE
  2
DIMSTYLE
 70
     1
  0
DIMSTYLE
  2
STANDARD
 70
     0
  3

  4

  5

  6

  7

 40
1.0
 41
0.1875
 42
0.0625
 43
0.38
 44
0.125
 45
0.0
 46
0.0
 47
0.01
 48
0.01
140
0.15625
141
0.09
142
0.0
143
25.399999999999999
144
1.0
145
0.0
146
1.0
147
0.09
 71
     1
 72
     0
 73
     1
 74
     1
 75
     0
 76
     0
 77
     0
 78
     4
170
     0
171
     2
172
     0
173
     0
174
     0
175
     0
176
     0
177
     0
178
     0
  0
ENDTAB
  0
ENDSEC
  0
SECTION
  2
BLOCKS
  0
BLOCK
  8
0
  2
$MODEL_SPACE
 70
     0
 10
0.0
 20
0.0
 30
0.0
  3
$MODEL_SPACE
  1

  0
ENDBLK
  5
21
  8
0
  0
BLOCK
 67
     1
  8
0
  2
$PAPER_SPACE
 70
     0
 10
0.0
 20
0.0
 30
0.0
  3
$PAPER_SPACE
  1

  0
ENDBLK
  5
1D
 67
     1
  8
0
  0
ENDSEC
  0
SECTION
  2
ENTITIES
  0
ATTDEF
  5
3930
  8
DEFPOINTS
 10
331.78002622184431
 20
52.781728676963581
 30
0.0
 40
0.001
  1
K-10443
  3

  2
MODELNUMBER
 70
     0
1001
ACDBATTR
1070
     0
1070
     1
  0
ATTDEF
  5
3931
  8
DEFPOINTS
 10
331.78002622184431
 20
52.780062010296909
 30
0.0
 40
0.001
  1
FORTE
  3

  2
TRADENAME
 70
     0
1001
ACDBATTR
1070
     0
1070
     1
  0
ATTDEF
  5
3932
  8
DEFPOINTS
 10
331.78002622184431
 20
52.778395343630251
 30
0.0
 40
0.001
  1
BAR SINK FAUCET
  3

  2
PRODUCT
 70
     0
1001
ACDBATTR
1070
     0
1070
     1
  0
ATTDEF
  5
3933
  8
DEFPOINTS
 10
331.78002622184431
 20
52.776728676963593
 30
0.0
 40
0.001
  1
METAL
  3

  2
MATERIAL
 70
     0
1001
ACDBATTR
1070
     0
1070
     1
  0
LINE
  5
426D
  8
0
 10
323.6124969587093
 20
60.62654590374737
 30
0.0
 11
323.6124969587093
 21
60.446545903747371
 31
0.0
  0
LINE
  5
426E
  8
0
 10
323.89738707150929
 20
60.570545903747359
 30
0.0
 11
323.89738707150929
 21
60.446545903747371
 31
0.0
  0
LINE
  5
426F
  8
0
 10
324.55549695870923
 20
60.626545903747363
 30
0.0
 11
324.55549695870923
 21
60.446545903747371
 31
0.0
  0
LINE
  5
4270
  8
0
 10
330.86339785210919
 20
55.268390043547363
 30
0.0
 11
330.86389809860918
 21
55.333858015547357
 31
0.0
  0
LINE
  5
4271
  8
0
 10
323.64249695870922
 20
60.416545903747362
 30
0.0
 11
324.5254969587092
 21
60.416545903747362
 31
0.0
  0
LINE
  5
4272
  8
0
 10
323.89738707150929
 20
60.570545903747359
 30
0.0
 11
324.2706068459093
 21
60.570545903747359
 31
0.0
  0
LINE
  5
4273
  8
0
 10
323.51689044080922
 20
60.626545903747363
 30
0.0
 11
324.6551111898093
 21
60.626545903747363
 31
0.0
  0
LINE
  5
4274
  8
0
 10
331.83254441410918
 20
55.355625190447363
 30
0.0
 11
332.6322426847093
 21
55.711673800047357
 31
0.0
  0
LINE
  5
4275
  8
0
 10
332.72148321000918
 20
55.367558601047371
 30
0.0
 11
332.72148379900921
 21
55.268545882847363
 31
0.0
  0
ARC
  5
4276
  8
0
 10
324.65812799170919
 20
61.394824995147367
 30
0.0
 40
1.403161351699999
 50
195.2163579288999
 51
211.82515704799951
  0
ARC
  5
4277
  8
0
 10
323.64249695870922
 20
60.446545903747371
 30
0.0
 40
0.03
 50
180.0
 51
270.0
  0
ARC
  5
4278
  8
0
 10
324.5254969587092
 20
60.446545903747371
 30
0.0
 40
0.03
 50
270.0
 51
0.0
  0
ARC
  5
4279
  8
0
 10
329.84415688158219
 20
54.803320911731973
 30
0.0
 40
2.9593645853973758
 50
18.629821413794978
 51
19.764605363005462
  0
ARC
  5
427A
  8
0
 10
335.72418548050928
 20
55.367291753747367
 30
0.0
 40
3.0027022823
 50
168.0343523870998
 51
179.9949081802001
  0
ARC
  5
427B
  8
0
 10
335.72318687320927
 20
55.367056219647367
 30
0.0
 40
3.0017742367000002
 50
158.30837831439931
 51
168.02600259010001
  0
ARC
  5
427C
  8
0
 10
331.73085781830918
 20
55.584010470647357
 30
0.0
 40
0.25
 50
270.0
 51
294.00061089590162
  0
ARC
  5
427D
  8
0
 10
332.56171702252487
 20
55.860811404862837
 30
0.0
 40
0.0399954330235296
 50
351.28432703950239
 51
21.79255230654444
  0
ARC
  5
427E
  8
0
 10
332.6200279031159
 20
55.73908589566269
 30
0.0
 40
0.0300103961219783
 50
294.01766865235447
 51
18.679629369748049
  0
LINE
  5
427F
  8
0
 10
330.84299695870931
 20
52.768545903747359
 30
0.0
 11
332.7249969587092
 21
52.768545903747359
 31
0.0
  0
LINE
  5
4280
  8
0
 10
331.02091186590269
 20
55.271144529503708
 30
0.0
 11
330.94649696032241
 21
55.268545903747359
 31
0.0
  0
LINE
  5
4281
  8
0
 10
330.84299695870931
 20
55.268545903747359
 30
0.0
 11
332.7249969587092
 21
55.268545903747359
 31
0.0
  0
LINE
  5
4282
  8
0
 10
330.81299695870928
 20
52.79854590374736
 30
0.0
 11
330.81299695870928
 21
53.011129329847357
 31
0.0
  0
LINE
  5
4283
  8
0
 10
330.81299695870928
 20
53.085962477547369
 30
0.0
 11
330.81299695870928
 21
55.238545903747358
 31
0.0
  0
ARC
  5
4284
  8
0
 10
332.56184043280928
 20
55.18149727884736
 30
0.0
 40
1.53
 50
174.2791297778968
 51
176.1165531257999
  0
ARC
  5
4285
  8
0
 10
330.84623431741068
 20
52.801783262448822
 30
0.0
 40
0.0333946478467864
 50
185.56312964299829
 51
264.43687035700412
  0
ARC
  5
4286
  8
0
 10
330.84528717807791
 20
53.009905156111998
 30
0.0
 40
0.0323134162262128
 50
125.92012361993299
 51
177.8288653674658
  0
ARC
  5
4287
  8
0
 10
330.85029808899691
 20
53.08986509581181
 30
0.0
 40
0.0375047297024891
 50
185.97282152396599
 51
230.27818949383379
  0
ARC
  5
4288
  8
0
 10
330.84394312514712
 20
55.237599737309559
 30
0.0
 40
0.0309606273858336
 50
91.751249571487193
 51
178.24875042851161
  0
ARC
  5
4289
  8
0
 10
331.01964920225731
 20
55.286898745114648
 30
0.0
 40
0.0158047343855375
 50
274.58232812059958
 51
353.5367315369802
  0
ARC
  5
428A
  8
0
 10
330.81702452438719
 20
53.048545903747367
 30
0.0
 40
0.0155612617486674
 50
306.72740366350371
 51
53.272596336496612
  0
LINE
  5
428B
  8
0
 10
332.54708205151587
 20
55.271144529503708
 30
0.0
 11
332.6214969570961
 21
55.268545903747359
 31
0.0
  0
LINE
  5
428C
  8
0
 10
332.75499695870928
 20
52.79854590374736
 30
0.0
 11
332.75499695870928
 21
53.011129329847357
 31
0.0
  0
LINE
  5
428D
  8
0
 10
332.75499695870928
 20
53.085962477547369
 30
0.0
 11
332.75499695870928
 21
55.238545903747358
 31
0.0
  0
ARC
  5
428E
  8
0
 10
331.00615348460929
 20
55.18149727884736
 30
0.0
 40
1.53
 50
3.8834468742000281
 51
17.35491598292807
  0
ARC
  5
428F
  8
0
 10
332.72175960000777
 20
52.801783262448822
 30
0.0
 40
0.0333946478467864
 50
275.56312964299588
 51
354.43687035700168
  0
ARC
  5
4290
  8
0
 10
332.72270673934071
 20
53.009905156111998
 30
0.0
 40
0.0323134162262128
 50
2.1711346325341641
 51
54.079876380064377
  0
ARC
  5
4291
  8
0
 10
332.7176958284216
 20
53.08986509581181
 30
0.0
 40
0.0375047297024891
 50
309.72181050616609
 51
354.0271784760339
  0
ARC
  5
4292
  8
0
 10
332.72405079227138
 20
55.237599737309559
 30
0.0
 40
0.0309606273858336
 50
1.7512495714883609
 51
88.248750428512807
  0
ARC
  5
4293
  8
0
 10
332.54834471516119
 20
55.286898745114648
 30
0.0
 40
0.0158047343855375
 50
186.4632684630198
 51
265.4176718794003
  0
ARC
  5
4294
  8
0
 10
332.75096939303131
 20
53.048545903747367
 30
0.0
 40
0.0155612617486674
 50
126.7274036635034
 51
233.27259633649371
  0
LINE
  5
4295
  8
0
 10
330.83258578613601
 20
53.048545903747367
 30
0.0
 11
332.73540813128261
 21
53.048545903747367
 31
0.0
  0
LINE
  5
4296
  8
0
 10
330.84022378690918
 20
55.334011039047361
 30
0.0
 11
331.73085781830918
 21
55.334010470647357
 31
0.0
  0
ARC
  5
4297
  8
0
 10
330.84437134682292
 20
55.364144648541611
 30
0.0
 40
0.0304177033056145
 50
177.14630216768319
 51
262.16310723290269
  0
ARC
  5
4298
  8
0
 10
335.30266509622732
 20
57.310071081628273
 30
0.0
 40
3.0684845156227691
 50
197.53724000466659
 51
209.39337469622521
  0
ARC
  5
4299
  8
0
 10
329.52718438341873
 20
54.634337542672768
 30
0.0
 40
3.3130100461162182
 50
22.004600589264609
 51
28.799371495824769
  0
ARC
  5
429A
  8
0
 10
331.74137990468569
 20
55.314386499037298
 30
0.0
 40
0.9288048108761998
 50
160.4534467832153
 51
176.83551048120461
  0
ARC
  5
429B
  8
0
 10
333.29382337320823
 20
54.50930794457085
 30
0.0
 40
2.6718738158381861
 50
142.06446670929179
 51
155.31550304700241
  0
ARC
  5
429C
  8
0
 10
330.45868864857152
 20
56.744440894211209
 30
0.0
 40
0.9385187299346004
 50
320.85025435763151
 51
22.931762998781149
  0
ARC
  5
429D
  8
0
 10
329.86868193013839
 20
56.440125072056411
 30
0.0
 40
1.601261610108637
 50
24.734689583111351
 51
55.44166159400023
  0
ARC
  5
429E
  8
0
 10
329.0873649219439
 20
55.354875679205811
 30
0.0
 40
2.9383479233374419
 50
54.898587428100278
 51
82.136268926156248
  0
ARC
  5
429F
  8
0
 10
328.97905844652951
 20
54.835677931654253
 30
0.0
 40
3.4676710037594081
 50
81.537261289290385
 51
94.070390069813598
  0
ARC
  5
42A0
  8
0
 10
328.7248191417591
 20
58.419588791758187
 30
0.0
 40
0.125248724980211
 50
205.33746514812211
 51
273.70669651026361
  0
ARC
  5
42A1
  8
0
 10
330.04229481768238
 20
58.969347359820318
 30
0.0
 40
1.5526992585054771
 50
192.18120910427919
 51
202.86660217147079
  0
ARC
  5
42A2
  8
0
 10
328.57346558163061
 20
58.652332156964661
 30
0.0
 40
0.0500489727931246
 50
109.39534862448809
 51
192.24019766698731
  0
ARC
  5
42A3
  8
0
 10
328.91614431684133
 20
55.714808965574562
 30
0.0
 40
3.0466092968538718
 50
80.028600091504543
 51
87.583748935937493
  0
ARC
  5
42A4
  8
0
 10
329.1263051298456
 20
56.04521768417024
 30
0.0
 40
2.7147221049287968
 50
91.724980910445112
 51
102.10871822331301
  0
ARC
  5
42A5
  8
0
 10
328.86152850331689
 20
55.126221508227268
 30
0.0
 40
3.636081338482009
 50
41.949371432662318
 51
80.786986194345815
  0
ARC
  5
42A6
  8
0
 10
328.19476547187332
 20
54.356538926665287
 30
0.0
 40
4.6482172569542541
 50
25.88040074164071
 51
43.51165203117278
  0
ARC
  5
42A7
  8
0
 10
323.51703700909769
 20
60.686809424344979
 30
0.0
 40
0.0602636988334072
 50
211.97430814744891
 51
269.86064989734399
  0
ARC
  5
42A8
  8
0
 10
324.65512273142281
 20
60.686558335387872
 30
0.0
 40
0.0600124327503462
 50
269.9889808541306
 51
321.13140499949668
  0
ARC
  5
42A9
  8
0
 10
327.2135779176233
 20
58.624676769890087
 30
0.0
 40
3.2258738298076488
 50
124.25662397438219
 51
141.13440805148571
  0
ARC
  5
42AA
  8
0
 10
327.22044366999728
 20
58.595783915897009
 30
0.0
 40
3.2536364533360231
 50
58.407790131878158
 51
124.0701522775542
  0
ARC
  5
42AB
  8
0
 10
327.1295521671131
 20
58.357668376106467
 30
0.0
 40
3.504397676336453
 50
12.83259906846947
 51
59.181486952096812
  0
ARC
  5
42AC
  8
0
 10
318.71846727752092
 20
56.444649834911182
 30
0.0
 40
12.130288154558359
 50
8.5865635898314192
 51
12.81893805091344
  0
ARC
  5
42AD
  8
0
 10
310.76311678873031
 20
55.854266052204437
 30
0.0
 40
20.104291075781731
 50
359.3469908247223
 51
5.4360575644228888
  0
ARC
  5
42AE
  8
0
 10
334.98274882246051
 20
58.795257009503331
 30
0.0
 40
3.0941698825266162
 50
192.22209102125089
 51
228.53679307246719
  0
ARC
  5
42AF
  8
0
 10
320.77810668172799
 20
55.575142199749941
 30
0.0
 40
11.471072424943969
 50
12.92129546736636
 51
24.354408103242289
  0
ARC
  5
42B0
  8
0
 10
327.30705844583582
 20
58.492063638789872
 30
0.0
 40
4.320381631211923
 50
24.819317969452381
 51
59.644578706353812
  0
ARC
  5
42B1
  8
0
 10
326.99703090528192
 20
57.962775095775818
 30
0.0
 40
4.9337847907208534
 50
59.644086628867569
 51
115.4922433602179
  0
ARC
  5
42B2
  8
0
 10
326.26698905646577
 20
59.261542047093222
 30
0.0
 40
3.448709169541702
 50
113.83076311785921
 51
149.21710171039601
  0
ARC
  5
42B3
  8
0
 10
323.25479389181839
 20
64.024975366421387
 30
0.0
 40
2.9988370074524449
 50
270.94321677926382
 51
298.1037752822844
  0
ARC
  5
42B4
  8
0
 10
318.7685714961105
 20
71.023558312121111
 30
0.0
 40
11.30489172626487
 50
301.45302236773222
 51
304.86595894469502
  0
ARC
  5
42B5
  8
0
 10
327.17015282177908
 20
58.516735843157363
 30
0.0
 40
3.7684065448645581
 50
72.365959341641798
 51
120.9675642051385
  0
ARC
  5
42B6
  8
0
 10
327.15793203527988
 20
58.381100430994401
 30
0.0
 40
3.9014817770544341
 50
24.096264738436648
 51
72.798343034277678
  0
ARC
  5
42B7
  8
0
 10
305.05075726376089
 20
50.085301133513219
 30
0.0
 40
27.507580431798068
 50
16.606025716665151
 51
21.06879116121112
  0
ARC
  5
42B8
  8
0
 10
337.8066897393457
 20
60.259887527655493
 30
0.0
 40
6.8011015914363897
 50
199.884433042632
 51
203.41834373396659
  0
ARC
  5
42B9
  8
0
 10
332.92559389809821
 20
57.762586079196019
 30
0.0
 40
1.286068752761518
 50
236.4107004003304
 51
270.37354091124439
  0
ARC
  5
42BA
  8
0
 10
324.01940935652061
 20
60.96292509509744
 30
0.0
 40
0.5468071151825003
 50
259.78980899070427
 51
267.7331012880328
  0
ARC
  5
42BB
  8
0
 10
323.92667601644882
 20
60.45496114227992
 30
0.0
 40
0.0304738992456117
 50
196.03030652260861
 51
262.09031011064172
  0
LINE
  5
42BC
  8
0
 10
324.2706068459093
 20
60.570545903747359
 30
0.0
 11
324.2706068459093
 21
60.446545903747371
 31
0.0
  0
ARC
  5
42BD
  8
0
 10
324.14858456089797
 20
60.96292509509744
 30
0.0
 40
0.5468071151825003
 50
272.26689871196709
 51
280.21019100929573
  0
ARC
  5
42BE
  8
0
 10
324.2413179009697
 20
60.45496114227992
 30
0.0
 40
0.0304738992456117
 50
277.90968988935828
 51
343.96969347739139
  0
ENDSEC
  0
EOF
