  0
SECTION
  2
HEADER
  9
$ACADVER
  1
AC1009
  9
$INSBASE
 10
302.67792697773962
 20
36.62979971715945
 30
0.0
  9
$EXTMIN
 10
301.64878953280942
 20
28.149975103559441
 30
0.0
  9
$EXTMAX
 10
307.6528703969874
 20
37.779799717159442
 30
0.0
  9
$LIMMIN
 10
0.0
 20
0.0
  9
$LIMMAX
 10
11.692913385800001
 20
8.2677165353999982
  9
$ORTHOMODE
 70
     1
  9
$REGENMODE
 70
     1
  9
$FILLMODE
 70
     1
  9
$QTEXTMODE
 70
     0
  9
$MIRRTEXT
 70
     0
  9
$DRAGMODE
 70
     2
  9
$LTSCALE
 40
0.6431102362
  9
$OSMODE
 70
  3071
  9
$ATTMODE
 70
     1
  9
$TEXTSIZE
 40
0.2
  9
$TRACEWID
 40
0.05
  9
$TEXTSTYLE
  7
STANDARD
  9
$CLAYER
  8
0
  9
$CELTYPE
  6
BYLAYER
  9
$CECOLOR
 62
   256
  9
$DIMSCALE
 40
1.0
  9
$DIMASZ
 40
0.1875
  9
$DIMEXO
 40
0.0625
  9
$DIMDLI
 40
0.4443307087
  9
$DIMRND
 40
0.0
  9
$DIMDLE
 40
0.0
  9
$DIMEXE
 40
0.125
  9
$DIMTP
 40
0.01
  9
$DIMTM
 40
0.01
  9
$DIMTXT
 40
2.0
  9
$DIMCEN
 40
0.1052362205
  9
$DIMTSZ
 40
0.0
  9
$DIMTOL
 70
     1
  9
$DIMLIM
 70
     0
  9
$DIMTIH
 70
     1
  9
$DIMTOH
 70
     1
  9
$DIMSE1
 70
     0
  9
$DIMSE2
 70
     0
  9
$DIMTAD
 70
     0
  9
$DIMZIN
 70
     0
  9
$DIMBLK
  1

  9
$DIMASO
 70
     1
  9
$DIMSHO
 70
     1
  9
$DIMPOST
  1
\X
  9
$DIMAPOST
  1

  9
$DIMALT
 70
     1
  9
$DIMALTD
 70
     2
  9
$DIMALTF
 40
25.399999999999999
  9
$DIMLFAC
 40
1.0
  9
$DIMTOFL
 70
     0
  9
$DIMTVP
 40
0.0
  9
$DIMTIX
 70
     0
  9
$DIMSOXD
 70
     0
  9
$DIMSAH
 70
     0
  9
$DIMBLK1
  1

  9
$DIMBLK2
  1

  9
$DIMSTYLE
  2
STANDARD
  9
$DIMCLRD
 70
     0
  9
$DIMCLRE
 70
     0
  9
$DIMCLRT
 70
     0
  9
$DIMTFAC
 40
1.0
  9
$DIMGAP
 40
0.09
  9
$LUNITS
 70
     2
  9
$LUPREC
 70
     4
  9
$SKETCHINC
 40
0.1
  9
$FILLETRAD
 40
0.0
  9
$AUNITS
 70
     0
  9
$AUPREC
 70
     0
  9
$MENU
  1
.
  9
$ELEVATION
 40
0.0
  9
$PELEVATION
 40
0.0
  9
$THICKNESS
 40
0.0
  9
$LIMCHECK
 70
     0
  9
$BLIPMODE
 70
     0
  9
$CHAMFERA
 40
0.0
  9
$CHAMFERB
 40
0.0
  9
$SKPOLY
 70
     0
  9
$TDCREATE
 40
2458060.4683680669
  9
$TDUPDATE
 40
2458534.7231455208
  9
$TDINDWG
 40
0.243736875
  9
$TDUSRTIMER
 40
0.243736875
  9
$USRTIMER
 70
     1
  9
$ANGBASE
 50
0.0
  9
$ANGDIR
 70
     0
  9
$PDMODE
 70
     0
  9
$PDSIZE
 40
0.3125
  9
$PLINEWID
 40
0.0
  9
$COORDS
 70
     1
  9
$SPLFRAME
 70
     0
  9
$SPLINETYPE
 70
     6
  9
$SPLINESEGS
 70
     8
  9
$ATTDIA
 70
     1
  9
$ATTREQ
 70
     1
  9
$HANDLING
 70
     1
  9
$HANDSEED
  5
4447
  9
$SURFTAB1
 70
     6
  9
$SURFTAB2
 70
     6
  9
$SURFTYPE
 70
     6
  9
$SURFU
 70
     6
  9
$SURFV
 70
     6
  9
$UCSNAME
  2

  9
$UCSORG
 10
0.0
 20
0.0
 30
0.0
  9
$UCSXDIR
 10
1.0
 20
0.0
 30
0.0
  9
$UCSYDIR
 10
0.0
 20
1.0
 30
0.0
  9
$PUCSNAME
  2

  9
$PUCSORG
 10
0.0
 20
0.0
 30
0.0
  9
$PUCSXDIR
 10
1.0
 20
0.0
 30
0.0
  9
$PUCSYDIR
 10
0.0
 20
1.0
 30
0.0
  9
$USERI1
 70
     0
  9
$USERI2
 70
     0
  9
$USERI3
 70
     0
  9
$USERI4
 70
     0
  9
$USERI5
 70
     0
  9
$USERR1
 40
0.0
  9
$USERR2
 40
0.0
  9
$USERR3
 40
0.0
  9
$USERR4
 40
0.0
  9
$USERR5
 40
0.0
  9
$WORLDVIEW
 70
     1
  9
$SHADEDGE
 70
     3
  9
$SHADEDIF
 70
    70
  9
$TILEMODE
 70
     1
  9
$MAXACTVP
 70
    64
  9
$PLIMCHECK
 70
     0
  9
$PEXTMIN
 10
1.0000000000000000E+020
 20
1.0000000000000000E+020
 30
1.0000000000000000E+020
  9
$PEXTMAX
 10
-1.0000000000000000E+020
 20
-1.0000000000000000E+020
 30
-1.0000000000000000E+020
  9
$PLIMMIN
 10
0.0
 20
0.0
  9
$PLIMMAX
 10
12.0
 20
9.0
  9
$UNITMODE
 70
     0
  9
$VISRETAIN
 70
     1
  9
$PLINEGEN
 70
     0
  9
$PSLTSCALE
 70
     1
  0
ENDSEC
  0
SECTION
  2
TABLES
  0
TABLE
  2
VPORT
 70
     1
  0
VPORT
  2
*ACTIVE
 70
     0
 10
0.0
 20
0.0
 11
1.0
 21
1.0
 12
0.0
 22
0.0
 13
0.0
 23
0.0
 14
1.0
 24
1.0
 15
0.0
 25
0.0
 16
0.0
 26
0.0
 36
32.083923733674773
 17
304.65085979375522
 27
32.964887410359438
 37
0.0
 40
11.35337927846783
 41
2.112723214285714
 42
50.0
 43
0.0
 44
0.0
 50
0.0
 51
0.0
 71
     0
 72
   100
 73
     1
 74
     1
 75
     0
 76
     0
 77
     0
 78
     0
  0
ENDTAB
  0
TABLE
  2
LTYPE
 70
     2
  0
LTYPE
  2
CONTINUOUS
 70
     0
  3
Solid line
 72
    65
 73
     0
 40
0.0
  0
LTYPE
  2
PHANTOM2
 70
     0
  3
___ _ _ ___ _ _ ___ _ _ ___ _ _
 72
    65
 73
     6
 40
1.25
 49
0.625
 49
-0.125
 49
0.125
 49
-0.125
 49
0.125
 49
-0.125
  0
ENDTAB
  0
TABLE
  2
LAYER
 70
     2
  0
LAYER
  2
0
 70
     0
 62
   255
  6
CONTINUOUS
  0
LAYER
  2
DEFPOINTS
 70
     0
 62
     7
  6
CONTINUOUS
  0
ENDTAB
  0
TABLE
  2
STYLE
 70
     1
  0
STYLE
  2
STANDARD
 70
     0
 40
0.0
 41
0.8
 50
0.0
 71
     0
 42
0.2
  3
txt
  4

  0
ENDTAB
  0
TABLE
  2
VIEW
 70
     0
  0
ENDTAB
  0
TABLE
  2
UCS
 70
     0
  0
ENDTAB
  0
TABLE
  2
APPID
 70
     9
  0
APPID
  2
ACAD
 70
     0
  0
APPID
  2
ACAD_MLEADERVER
 70
     0
  0
APPID
  2
ACAD_EXEMPT_FROM_CAD_STANDARDS
 70
     0
  0
APPID
  2
ACAD_NAV_VCDISPLAY
 70
     0
  0
APPID
  2
ACAECLAYERSTANDARD
 70
     0
  0
APPID
  2
ACCMTRANSPARENCY
 70
     0
  0
APPID
  2
ACAD_DSTYLE_DIMJAG
 70
     0
  0
APPID
  2
ACAD_DSTYLE_DIMTALN
 70
     0
  0
APPID
  2
ACDBATTR
 70
     0
  0
ENDTAB
  0
TABLE
  2
DIMSTYLE
 70
     1
  0
DIMSTYLE
  2
STANDARD
 70
     0
  3

  4

  5

  6

  7

 40
1.0
 41
0.1875
 42
0.0625
 43
0.38
 44
0.125
 45
0.0
 46
0.0
 47
0.01
 48
0.01
140
0.15625
141
0.09
142
0.0
143
25.399999999999999
144
1.0
145
0.0
146
1.0
147
0.09
 71
     1
 72
     0
 73
     1
 74
     1
 75
     0
 76
     0
 77
     0
 78
     4
170
     0
171
     2
172
     0
173
     0
174
     0
175
     0
176
     0
177
     0
178
     0
  0
ENDTAB
  0
ENDSEC
  0
SECTION
  2
BLOCKS
  0
BLOCK
  8
0
  2
$MODEL_SPACE
 70
     0
 10
0.0
 20
0.0
 30
0.0
  3
$MODEL_SPACE
  1

  0
ENDBLK
  5
21
  8
0
  0
BLOCK
 67
     1
  8
0
  2
$PAPER_SPACE
 70
     0
 10
0.0
 20
0.0
 30
0.0
  3
$PAPER_SPACE
  1

  0
ENDBLK
  5
1D
 67
     1
  8
0
  0
ENDSEC
  0
SECTION
  2
ENTITIES
  0
ATTDEF
  5
3930
  8
DEFPOINTS
 10
302.67502353048332
 20
36.635309742850481
 30
0.0
 40
0.001
  1
K-10443
  3

  2
MODELNUMBER
 70
     0
1001
ACDBATTR
1070
     0
1070
     1
  0
ATTDEF
  5
3931
  8
DEFPOINTS
 10
302.67502353048332
 20
36.633643076183823
 30
0.0
 40
0.001
  1
FORTE
  3

  2
TRADENAME
 70
     0
1001
ACDBATTR
1070
     0
1070
     1
  0
ATTDEF
  5
3932
  8
DEFPOINTS
 10
302.67502353048332
 20
36.631976409517151
 30
0.0
 40
0.001
  1
BAR SINK FAUCET
  3

  2
PRODUCT
 70
     0
1001
ACDBATTR
1070
     0
1070
     1
  0
ATTDEF
  5
3933
  8
DEFPOINTS
 10
302.67502353048332
 20
36.630309742850493
 30
0.0
 40
0.001
  1
METAL
  3

  2
MATERIAL
 70
     0
1001
ACDBATTR
1070
     0
1070
     1
  0
LINE
  5
42A8
  8
0
 10
306.52733309253972
 20
37.268384182259453
 30
0.0
 11
306.52833633683969
 21
37.320550468559453
 31
0.0
  0
ARC
  5
42A9
  8
0
 10
306.67798286782607
 20
36.212394932396663
 30
0.0
 40
1.235133893155586
 50
90.002592646906464
 51
91.658085669941016
  0
ARC
  5
42AA
  8
0
 10
306.67863789716762
 20
36.630614334990398
 30
0.0
 40
0.9701992098271086
 50
90.041983837984617
 51
172.18548034860299
  0
ARC
  5
42AB
  8
0
 10
302.67836317811179
 20
28.877203279014829
 30
0.0
 40
0.7272283062745349
 50
247.95049874047839
 51
269.96563329338858
  0
ARC
  5
42AC
  8
0
 10
302.67810442111869
 20
28.875034652525851
 30
0.0
 40
0.7251213815205571
 50
205.1751924390571
 51
247.9051211855267
  0
ARC
  5
42AD
  8
0
 10
303.82934959918248
 20
29.263958048093709
 30
0.0
 40
1.9373574583905711
 50
182.69036387363909
 51
201.0980490800699
  0
ARC
  5
42AE
  8
0
 10
313.1432562967928
 20
28.995475501695921
 30
0.0
 40
11.25052979286772
 50
174.4839869748927
 51
179.09577078864999
  0
ARC
  5
42AF
  8
0
 10
264.35273045249772
 20
33.121629755323703
 30
0.0
 40
37.715192080748423
 50
355.36953126482189
 51
357.91984577734212
  0
ARC
  5
42B0
  8
0
 10
273.03323254993688
 20
32.711952004772229
 30
0.0
 40
29.025693171646601
 50
358.1060439494924
 51
2.5536624364955411
  0
ARC
  5
42B1
  8
0
 10
291.99173287339067
 20
33.795529829210778
 30
0.0
 40
10.0405576107137
 50
1.196519378364624
 51
10.151829890476829
  0
ARC
  5
42B2
  8
0
 10
294.16894416588678
 20
34.105755295534188
 30
0.0
 40
7.8431446084450611
 50
10.724425988210029
 51
15.91842209042608
  0
ARC
  5
42B3
  8
0
 10
302.97839390714307
 20
36.659864275680981
 30
0.0
 40
1.3296043743336881
 50
158.18099691334109
 51
197.64293950340141
  0
ARC
  5
42B4
  8
0
 10
302.67724922023888
 20
36.770711270754433
 30
0.0
 40
1.0088741075590011
 50
108.8395797250223
 51
157.6686157995666
  0
ARC
  5
42B5
  8
0
 10
302.67873039659742
 20
36.765789796737671
 30
0.0
 40
1.014010238703547
 50
90.045396498758436
 51
108.8289899560457
  0
ARC
  5
42B6
  8
0
 10
302.67749077736761
 20
28.877203279014829
 30
0.0
 40
0.7272283062745349
 50
270.03436670661142
 51
292.04950125952161
  0
ARC
  5
42B7
  8
0
 10
302.6777495343606
 20
28.875034652525851
 30
0.0
 40
0.7251213815205571
 50
292.0948788144733
 51
334.82480756094247
  0
ARC
  5
42B8
  8
0
 10
301.52650435629693
 20
29.263958048093709
 30
0.0
 40
1.9373574583905711
 50
338.90195091993007
 51
357.30963612636077
  0
ARC
  5
42B9
  8
0
 10
292.21259765868649
 20
28.995475501695921
 30
0.0
 40
11.25052979286772
 50
0.9042292113500206
 51
5.5160130251072541
  0
ARC
  5
42BA
  8
0
 10
341.00312350298162
 20
33.121629755323703
 30
0.0
 40
37.715192080748423
 50
182.08015422265791
 51
184.63046873517811
  0
ARC
  5
42BB
  8
0
 10
332.32262140554241
 20
32.711952004772229
 30
0.0
 40
29.025693171646601
 50
177.44633756350439
 51
181.89395605050709
  0
ARC
  5
42BC
  8
0
 10
313.36412108208867
 20
33.795529829210778
 30
0.0
 40
10.0405576107137
 50
169.8481701095231
 51
178.80348062163529
  0
ARC
  5
42BD
  8
0
 10
311.18690978959251
 20
34.105755295534188
 30
0.0
 40
7.8431446084450611
 50
164.08157790957389
 51
169.2755740117899
  0
ARC
  5
42BE
  8
0
 10
302.37746004833622
 20
36.659864275680981
 30
0.0
 40
1.3296043743336881
 50
342.35706049659859
 51
21.819003086658839
  0
ARC
  5
42BF
  8
0
 10
302.67860473524041
 20
36.770711270754433
 30
0.0
 40
1.0088741075590011
 50
22.331384200433359
 51
71.160420274977653
  0
ARC
  5
42C0
  8
0
 10
302.67712355888199
 20
36.765789796737671
 30
0.0
 40
1.014010238703547
 50
71.17101004395424
 51
89.954603501241564
  0
ARC
  5
42C1
  8
0
 10
306.68269983951888
 20
33.854232596876543
 30
0.0
 40
0.4850401940518068
 50
244.05576283471109
 51
269.43619260242292
  0
ARC
  5
42C2
  8
0
 10
306.68649458582411
 20
33.779922979125722
 30
0.0
 40
0.4214135260611256
 50
194.28286325540569
 51
239.16577332665159
  0
ARC
  5
42C3
  8
0
 10
307.44037952978732
 20
33.93523404838038
 30
0.0
 40
1.190840887513136
 50
172.68767394774289
 51
192.57553611172369
  0
ARC
  5
42C4
  8
0
 10
-708.53267038633157
 20
144.86555851247439
 30
0.0
 40
1020.820513667109
 50
353.77003162149521
 51
353.81660190922349
  0
ARC
  5
42C5
  8
0
 10
293.447984204823
 20
36.376606641892153
 30
0.0
 40
12.98385349063861
 50
353.52164453857779
 51
357.59548615460602
  0
ARC
  5
42C6
  8
0
 10
304.63182060557619
 20
35.872431055027953
 30
0.0
 40
1.789044861822126
 50
358.70111810444229
 51
16.358406049779411
  0
ARC
  5
42C7
  8
0
 10
237.13470870748421
 20
43.523624668628607
 30
0.0
 40
69.755665478920974
 50
352.56672089683872
 51
353.38168400902691
  0
ARC
  5
42C8
  8
0
 10
266.07887003334241
 20
40.149820601241423
 30
0.0
 40
40.61554497473437
 50
353.40336667866671
 51
354.79749739818959
  0
ARC
  5
42C9
  8
0
 10
308.4975747191998
 20
36.320567890454143
 30
0.0
 40
1.975908542676706
 50
165.13037359147279
 51
175.751083191877
  0
ARC
  5
42CA
  8
0
 10
306.84767861512631
 20
36.754193960440837
 30
0.0
 40
0.2700205327441012
 50
142.02335203570379
 51
164.21957330341289
  0
ARC
  5
42CB
  8
0
 10
306.68822254678628
 20
36.875816328361871
 30
0.0
 40
0.0695246972895456
 50
111.5896853172077
 51
140.1692052027646
  0
ARC
  5
42CC
  8
0
 10
306.67815274330502
 20
36.898169900874201
 30
0.0
 40
0.0450485144302791
 50
90.287145277998732
 51
110.1419205199898
  0
ARC
  5
42CD
  8
0
 10
308.54321664840398
 20
36.433120941177989
 30
0.0
 40
2.8449033734798208
 50
173.35087260905379
 51
176.7165158368224
  0
ARC
  5
42CE
  8
0
 10
306.6894712566762
 20
36.643815691318451
 30
0.0
 40
0.9876426379375327
 50
182.77114793422291
 51
253.8016101196971
  0
ARC
  5
42CF
  8
0
 10
306.73425054985552
 20
36.083966014537232
 30
0.0
 40
1.4114321278086781
 50
92.287010483468265
 51
107.2182705947132
  0
ARC
  5
42D0
  8
0
 10
306.66771083510559
 20
36.494573119005238
 30
0.0
 40
1.001210823015581
 50
110.5385340078752
 51
145.79042859687371
  0
ARC
  5
42D1
  8
0
 10
306.536491074369
 20
36.59580149087143
 30
0.0
 40
0.8358401656745524
 50
146.4718147747507
 51
168.4938550707723
  0
ARC
  5
42D2
  8
0
 10
306.59293079299908
 20
37.328107423982793
 30
0.0
 40
0.0887125915950337
 50
222.31620678852499
 51
249.1902771644728
  0
ARC
  5
42D3
  8
0
 10
306.64568396232482
 20
37.456260643787537
 30
0.0
 40
0.2272786662654425
 50
248.2364554789489
 51
264.75211448039659
  0
ARC
  5
42D4
  8
0
 10
306.87756098962228
 20
41.192407142173401
 30
0.0
 40
3.970519838703563
 50
266.35150325600341
 51
267.11800682470653
  0
ARC
  5
42D5
  8
0
 10
306.5732114836436
 20
37.305949386970411
 30
0.0
 40
0.059295626948826
 50
180.1350876800181
 51
219.31060050085441
  0
ARC
  5
42D6
  8
0
 10
306.62882506472999
 20
37.301459542919361
 30
0.0
 40
0.1149913521777125
 50
136.7912383376337
 51
177.8320239484614
  0
ARC
  5
42D7
  8
0
 10
306.65391310081321
 20
37.317588642535902
 30
0.0
 40
0.1256116876068424
 50
150.1079821462726
 51
178.64888480567609
  0
ARC
  5
42D8
  8
0
 10
306.6734370905757
 20
37.304779064961352
 30
0.0
 40
0.148928547723755
 50
114.43928865481099
 51
149.578846562173
  0
ARC
  5
42D9
  8
0
 10
306.64356699684038
 20
37.368021996375887
 30
0.0
 40
0.0790007466485478
 50
90.959375190065273
 51
113.693474912502
  0
ARC
  5
42DA
  8
0
 10
305.71635414718469
 20
36.052184119809539
 30
0.0
 40
0.7103457840634542
 50
27.147851541076051
 51
89.911728658981986
  0
LINE
  5
42DB
  8
0
 10
306.82852086293968
 20
37.268384182259453
 30
0.0
 11
306.82751761863972
 21
37.320550468559453
 31
0.0
  0
ARC
  5
42DC
  8
0
 10
306.67787108765327
 20
36.212394932396663
 30
0.0
 40
1.235133893155586
 50
88.341914330058984
 51
89.997407353093564
  0
ARC
  5
42DD
  8
0
 10
306.67721605831179
 20
36.630614334990398
 30
0.0
 40
0.9701992098271086
 50
7.8145196513969459
 51
89.958016162015369
  0
ARC
  5
42DE
  8
0
 10
306.67315411596047
 20
33.854232596876543
 30
0.0
 40
0.4850401940518068
 50
270.56380739757708
 51
295.94423716528888
  0
ARC
  5
42DF
  8
0
 10
306.6693593696553
 20
33.779922979125722
 30
0.0
 40
0.4214135260611256
 50
300.83422667334838
 51
345.71713674459431
  0
ARC
  5
42E0
  8
0
 10
305.91547442569208
 20
33.93523404838038
 30
0.0
 40
1.190840887513136
 50
347.42446388827631
 51
7.3123260522570561
  0
ARC
  5
42E1
  8
0
 10
1321.888524341811
 20
144.86555851247439
 30
0.0
 40
1020.820513667109
 50
186.18339809077651
 51
186.22996837850471
  0
ARC
  5
42E2
  8
0
 10
319.9078697506564
 20
36.376606641892153
 30
0.0
 40
12.98385349063861
 50
182.40451384539401
 51
186.47835546142221
  0
ARC
  5
42E3
  8
0
 10
308.7240333499031
 20
35.872431055027953
 30
0.0
 40
1.789044861822126
 50
163.6415939502206
 51
181.2988818955576
  0
ARC
  5
42E4
  8
0
 10
376.22114524799508
 20
43.523624668628607
 30
0.0
 40
69.755665478920974
 50
186.61831599097309
 51
187.4332791031612
  0
ARC
  5
42E5
  8
0
 10
347.27698392213699
 20
40.149820601241423
 30
0.0
 40
40.61554497473437
 50
185.20250260181041
 51
186.5966333213332
  0
ARC
  5
42E6
  8
0
 10
304.85827923627971
 20
36.320567890454143
 30
0.0
 40
1.975908542676706
 50
4.2489168081229387
 51
14.869626408527139
  0
ARC
  5
42E7
  8
0
 10
306.50817534035309
 20
36.754193960440837
 30
0.0
 40
0.2700205327441012
 50
15.780426696587099
 51
37.97664796429617
  0
ARC
  5
42E8
  8
0
 10
306.66763140869313
 20
36.875816328361871
 30
0.0
 40
0.0695246972895456
 50
39.830794797235349
 51
68.410314682792261
  0
ARC
  5
42E9
  8
0
 10
306.67770121217438
 20
36.898169900874201
 30
0.0
 40
0.0450485144302791
 50
69.858079480010218
 51
89.712854722001268
  0
ARC
  5
42EA
  8
0
 10
304.81263730707542
 20
36.433120941177989
 30
0.0
 40
2.8449033734798208
 50
3.2834841631775848
 51
6.6491273909461448
  0
ARC
  5
42EB
  8
0
 10
306.6663826988032
 20
36.643815691318451
 30
0.0
 40
0.9876426379375327
 50
286.19838988030278
 51
357.22885206577712
  0
ARC
  5
42EC
  8
0
 10
306.62160340562389
 20
36.083966014537232
 30
0.0
 40
1.4114321278086781
 50
72.781729405286782
 51
87.712989516531721
  0
ARC
  5
42ED
  8
0
 10
306.68814312037381
 20
36.494573119005238
 30
0.0
 40
1.001210823015581
 50
34.20957140312624
 51
69.461465992124744
  0
ARC
  5
42EE
  8
0
 10
306.81936288111041
 20
36.59580149087143
 30
0.0
 40
0.8358401656745524
 50
11.506144929227681
 51
33.528185225249302
  0
ARC
  5
42EF
  8
0
 10
306.76292316248032
 20
37.328107423982793
 30
0.0
 40
0.0887125915950337
 50
290.80972283552723
 51
317.68379321147501
  0
ARC
  5
42F0
  8
0
 10
306.71016999315469
 20
37.456260643787537
 30
0.0
 40
0.2272786662654425
 50
275.24788551960341
 51
291.76354452105119
  0
ARC
  5
42F1
  8
0
 10
306.47829296585712
 20
41.192407142173401
 30
0.0
 40
3.970519838703563
 50
272.88199317529347
 51
273.64849674399647
  0
ARC
  5
42F2
  8
0
 10
306.7826424718358
 20
37.305949386970411
 30
0.0
 40
0.059295626948826
 50
320.6893994991454
 51
359.8649123199819
  0
ARC
  5
42F3
  8
0
 10
306.72702889074941
 20
37.301459542919361
 30
0.0
 40
0.1149913521777125
 50
2.1679760515385889
 51
43.20876166236657
  0
ARC
  5
42F4
  8
0
 10
306.70194085466619
 20
37.317588642535902
 30
0.0
 40
0.1256116876068424
 50
1.351115194323885
 51
29.892017853727371
  0
ARC
  5
42F5
  8
0
 10
306.68241686490359
 20
37.304779064961352
 30
0.0
 40
0.148928547723755
 50
30.421153437827009
 51
65.560711345188921
  0
ARC
  5
42F6
  8
0
 10
306.71228695863903
 20
37.368021996375887
 30
0.0
 40
0.0790007466485478
 50
66.306525087498017
 51
89.040624809934698
  0
ARC
  5
42F7
  8
0
 10
307.63949980829472
 20
36.052184119809539
 30
0.0
 40
0.7103457840634542
 50
90.088271341018029
 51
152.85214845892389
  0
ENDSEC
  0
EOF
