  0
SECTION
  2
HEADER
  9
$ACADVER
  1
AC1009
  9
$INSBASE
 10
316.21379298731739
 20
47.03484937648534
 30
0.0
  9
$EXTMIN
 10
315.1846555423873
 20
47.028286150339433
 30
0.0
  9
$EXTMAX
 10
321.18873640656523
 20
57.162863359234628
 30
0.0
  9
$LIMMIN
 10
0.0
 20
0.0
  9
$LIMMAX
 10
11.692913385800001
 20
8.2677165353999982
  9
$ORTHOMODE
 70
     1
  9
$REGENMODE
 70
     1
  9
$FILLMODE
 70
     1
  9
$QTEXTMODE
 70
     0
  9
$MIRRTEXT
 70
     0
  9
$DRAGMODE
 70
     2
  9
$LTSCALE
 40
0.6431102362
  9
$OSMODE
 70
  3071
  9
$ATTMODE
 70
     1
  9
$TEXTSIZE
 40
0.2
  9
$TRACEWID
 40
0.05
  9
$TEXTSTYLE
  7
STANDARD
  9
$CLAYER
  8
0
  9
$CELTYPE
  6
BYLAYER
  9
$CECOLOR
 62
   256
  9
$DIMSCALE
 40
1.0
  9
$DIMASZ
 40
0.1875
  9
$DIMEXO
 40
0.0625
  9
$DIMDLI
 40
0.4443307087
  9
$DIMRND
 40
0.0
  9
$DIMDLE
 40
0.0
  9
$DIMEXE
 40
0.125
  9
$DIMTP
 40
0.01
  9
$DIMTM
 40
0.01
  9
$DIMTXT
 40
2.0
  9
$DIMCEN
 40
0.1052362205
  9
$DIMTSZ
 40
0.0
  9
$DIMTOL
 70
     1
  9
$DIMLIM
 70
     0
  9
$DIMTIH
 70
     1
  9
$DIMTOH
 70
     1
  9
$DIMSE1
 70
     0
  9
$DIMSE2
 70
     0
  9
$DIMTAD
 70
     0
  9
$DIMZIN
 70
     0
  9
$DIMBLK
  1

  9
$DIMASO
 70
     1
  9
$DIMSHO
 70
     1
  9
$DIMPOST
  1
\X
  9
$DIMAPOST
  1

  9
$DIMALT
 70
     1
  9
$DIMALTD
 70
     2
  9
$DIMALTF
 40
25.399999999999999
  9
$DIMLFAC
 40
1.0
  9
$DIMTOFL
 70
     0
  9
$DIMTVP
 40
0.0
  9
$DIMTIX
 70
     0
  9
$DIMSOXD
 70
     0
  9
$DIMSAH
 70
     0
  9
$DIMBLK1
  1

  9
$DIMBLK2
  1

  9
$DIMSTYLE
  2
STANDARD
  9
$DIMCLRD
 70
     0
  9
$DIMCLRE
 70
     0
  9
$DIMCLRT
 70
     0
  9
$DIMTFAC
 40
1.0
  9
$DIMGAP
 40
0.09
  9
$LUNITS
 70
     2
  9
$LUPREC
 70
     4
  9
$SKETCHINC
 40
0.1
  9
$FILLETRAD
 40
0.0
  9
$AUNITS
 70
     0
  9
$AUPREC
 70
     0
  9
$MENU
  1
.
  9
$ELEVATION
 40
0.0
  9
$PELEVATION
 40
0.0
  9
$THICKNESS
 40
0.0
  9
$LIMCHECK
 70
     0
  9
$BLIPMODE
 70
     0
  9
$CHAMFERA
 40
0.0
  9
$CHAMFERB
 40
0.0
  9
$SKPOLY
 70
     0
  9
$TDCREATE
 40
2458060.4683680669
  9
$TDUPDATE
 40
2458534.7230466902
  9
$TDINDWG
 40
0.2420266435
  9
$TDUSRTIMER
 40
0.2420266435
  9
$USRTIMER
 70
     1
  9
$ANGBASE
 50
0.0
  9
$ANGDIR
 70
     0
  9
$PDMODE
 70
     0
  9
$PDSIZE
 40
0.3125
  9
$PLINEWID
 40
0.0
  9
$COORDS
 70
     1
  9
$SPLFRAME
 70
     0
  9
$SPLINETYPE
 70
     6
  9
$SPLINESEGS
 70
     8
  9
$ATTDIA
 70
     1
  9
$ATTREQ
 70
     1
  9
$HANDLING
 70
     1
  9
$HANDSEED
  5
4345
  9
$SURFTAB1
 70
     6
  9
$SURFTAB2
 70
     6
  9
$SURFTYPE
 70
     6
  9
$SURFU
 70
     6
  9
$SURFV
 70
     6
  9
$UCSNAME
  2

  9
$UCSORG
 10
0.0
 20
0.0
 30
0.0
  9
$UCSXDIR
 10
1.0
 20
0.0
 30
0.0
  9
$UCSYDIR
 10
0.0
 20
1.0
 30
0.0
  9
$PUCSNAME
  2

  9
$PUCSORG
 10
0.0
 20
0.0
 30
0.0
  9
$PUCSXDIR
 10
1.0
 20
0.0
 30
0.0
  9
$PUCSYDIR
 10
0.0
 20
1.0
 30
0.0
  9
$USERI1
 70
     0
  9
$USERI2
 70
     0
  9
$USERI3
 70
     0
  9
$USERI4
 70
     0
  9
$USERI5
 70
     0
  9
$USERR1
 40
0.0
  9
$USERR2
 40
0.0
  9
$USERR3
 40
0.0
  9
$USERR4
 40
0.0
  9
$USERR5
 40
0.0
  9
$WORLDVIEW
 70
     1
  9
$SHADEDGE
 70
     3
  9
$SHADEDIF
 70
    70
  9
$TILEMODE
 70
     1
  9
$MAXACTVP
 70
    64
  9
$PLIMCHECK
 70
     0
  9
$PEXTMIN
 10
1.0000000000000000E+020
 20
1.0000000000000000E+020
 30
1.0000000000000000E+020
  9
$PEXTMAX
 10
-1.0000000000000000E+020
 20
-1.0000000000000000E+020
 30
-1.0000000000000000E+020
  9
$PLIMMIN
 10
0.0
 20
0.0
  9
$PLIMMAX
 10
12.0
 20
9.0
  9
$UNITMODE
 70
     0
  9
$VISRETAIN
 70
     1
  9
$PLINEGEN
 70
     0
  9
$PSLTSCALE
 70
     1
  0
ENDSEC
  0
SECTION
  2
TABLES
  0
TABLE
  2
VPORT
 70
     1
  0
VPORT
  2
*ACTIVE
 70
     0
 10
0.0
 20
0.0
 11
1.0
 21
1.0
 12
0.0
 22
0.0
 13
0.0
 23
0.0
 14
1.0
 24
1.0
 15
0.0
 25
0.0
 16
0.0
 26
0.0
 36
33.303528861422933
 17
318.18669574027751
 27
52.09557475478703
 37
0.0
 40
11.78071720703811
 41
2.112723214285714
 42
50.0
 43
0.0
 44
0.0
 50
0.0
 51
0.0
 71
     0
 72
   100
 73
     1
 74
     1
 75
     0
 76
     0
 77
     0
 78
     0
  0
ENDTAB
  0
TABLE
  2
LTYPE
 70
     2
  0
LTYPE
  2
CONTINUOUS
 70
     0
  3
Solid line
 72
    65
 73
     0
 40
0.0
  0
LTYPE
  2
PHANTOM2
 70
     0
  3
___ _ _ ___ _ _ ___ _ _ ___ _ _
 72
    65
 73
     6
 40
1.25
 49
0.625
 49
-0.125
 49
0.125
 49
-0.125
 49
0.125
 49
-0.125
  0
ENDTAB
  0
TABLE
  2
LAYER
 70
     2
  0
LAYER
  2
0
 70
     0
 62
   255
  6
CONTINUOUS
  0
LAYER
  2
DEFPOINTS
 70
     0
 62
     7
  6
CONTINUOUS
  0
ENDTAB
  0
TABLE
  2
STYLE
 70
     1
  0
STYLE
  2
STANDARD
 70
     0
 40
0.0
 41
0.8
 50
0.0
 71
     0
 42
0.2
  3
txt
  4

  0
ENDTAB
  0
TABLE
  2
VIEW
 70
     0
  0
ENDTAB
  0
TABLE
  2
UCS
 70
     0
  0
ENDTAB
  0
TABLE
  2
APPID
 70
     9
  0
APPID
  2
ACAD
 70
     0
  0
APPID
  2
ACAD_MLEADERVER
 70
     0
  0
APPID
  2
ACAD_EXEMPT_FROM_CAD_STANDARDS
 70
     0
  0
APPID
  2
ACAD_NAV_VCDISPLAY
 70
     0
  0
APPID
  2
ACAECLAYERSTANDARD
 70
     0
  0
APPID
  2
ACCMTRANSPARENCY
 70
     0
  0
APPID
  2
ACAD_DSTYLE_DIMJAG
 70
     0
  0
APPID
  2
ACAD_DSTYLE_DIMTALN
 70
     0
  0
APPID
  2
ACDBATTR
 70
     0
  0
ENDTAB
  0
TABLE
  2
DIMSTYLE
 70
     1
  0
DIMSTYLE
  2
STANDARD
 70
     0
  3

  4

  5

  6

  7

 40
1.0
 41
0.1875
 42
0.0625
 43
0.38
 44
0.125
 45
0.0
 46
0.0
 47
0.01
 48
0.01
140
0.15625
141
0.09
142
0.0
143
25.399999999999999
144
1.0
145
0.0
146
1.0
147
0.09
 71
     1
 72
     0
 73
     1
 74
     1
 75
     0
 76
     0
 77
     0
 78
     4
170
     0
171
     2
172
     0
173
     0
174
     0
175
     0
176
     0
177
     0
178
     0
  0
ENDTAB
  0
ENDSEC
  0
SECTION
  2
BLOCKS
  0
BLOCK
  8
0
  2
$MODEL_SPACE
 70
     0
 10
0.0
 20
0.0
 30
0.0
  3
$MODEL_SPACE
  1

  0
ENDBLK
  5
21
  8
0
  0
BLOCK
 67
     1
  8
0
  2
$PAPER_SPACE
 70
     0
 10
0.0
 20
0.0
 30
0.0
  3
$PAPER_SPACE
  1

  0
ENDBLK
  5
1D
 67
     1
  8
0
  0
ENDSEC
  0
SECTION
  2
ENTITIES
  0
ATTDEF
  5
3930
  8
DEFPOINTS
 10
316.20921724786842
 20
47.033286150339421
 30
0.0
 40
0.001
  1
K-10443
  3

  2
MODELNUMBER
 70
     0
1001
ACDBATTR
1070
     0
1070
     1
  0
ATTDEF
  5
3931
  8
DEFPOINTS
 10
316.20921724786842
 20
47.031619483672763
 30
0.0
 40
0.001
  1
FORTE
  3

  2
TRADENAME
 70
     0
1001
ACDBATTR
1070
     0
1070
     1
  0
ATTDEF
  5
3932
  8
DEFPOINTS
 10
316.20921724786842
 20
47.029952817006091
 30
0.0
 40
0.001
  1
BAR SINK FAUCET
  3

  2
PRODUCT
 70
     0
1001
ACDBATTR
1070
     0
1070
     1
  0
ATTDEF
  5
3933
  8
DEFPOINTS
 10
316.20921724786842
 20
47.028286150339433
 30
0.0
 40
0.001
  1
METAL
  3

  2
MATERIAL
 70
     0
1001
ACDBATTR
1070
     0
1070
     1
  0
LINE
  5
41D3
  8
0
 10
315.31129302416252
 20
47.034849376485347
 30
0.0
 11
317.11629295047248
 21
47.034849376485319
 31
0.0
  0
LINE
  5
41D4
  8
0
 10
319.27279298731759
 20
47.034849376485319
 30
0.0
 11
321.15479298731759
 21
47.034849376485319
 31
0.0
  0
LINE
  5
41D5
  8
0
 10
317.11629304724659
 20
47.314849376485327
 30
0.0
 11
315.31129292738768
 21
47.314849376485263
 31
0.0
  0
LINE
  5
41D6
  8
0
 10
315.28129298731761
 20
47.284849376485319
 30
0.0
 11
315.28129298731761
 21
47.06484937648532
 31
0.0
  0
LINE
  5
41D7
  8
0
 10
315.43229298731762
 20
47.314849376485263
 30
0.0
 11
315.43229298731762
 21
47.322849376885323
 31
0.0
  0
LINE
  5
41D8
  8
0
 10
315.74229298731763
 20
54.836849376485333
 30
0.0
 11
315.74229298731763
 21
54.89284937648533
 31
0.0
  0
LINE
  5
41D9
  8
0
 10
315.78079298731762
 20
54.682849376485322
 30
0.0
 11
315.78079298731762
 21
54.836849376485333
 31
0.0
  0
LINE
  5
41DA
  8
0
 10
319.45070789451103
 20
49.537448002241682
 30
0.0
 11
319.37629298893069
 21
49.534849376485319
 31
0.0
  0
LINE
  5
41DB
  8
0
 10
319.27279298731759
 20
49.534849376485319
 30
0.0
 11
321.15479298731759
 21
49.534849376485319
 31
0.0
  0
LINE
  5
41DC
  8
0
 10
319.24279298731761
 20
47.06484937648532
 30
0.0
 11
319.24279298731761
 21
47.277432802585317
 31
0.0
  0
LINE
  5
41DD
  8
0
 10
319.24279298731761
 20
47.352265950285329
 30
0.0
 11
319.24279298731761
 21
49.504849376485318
 31
0.0
  0
LINE
  5
41DE
  8
0
 10
315.78079298731762
 20
54.682849376485322
 30
0.0
 11
316.64679298731761
 21
54.682849376485322
 31
0.0
  0
LINE
  5
41DF
  8
0
 10
315.74229298731763
 20
54.836849376485333
 30
0.0
 11
315.78079298731762
 21
54.836849376485333
 31
0.0
  0
LINE
  5
41E0
  8
0
 10
315.64911585201759
 20
54.892849376485323
 30
0.0
 11
316.77847012261759
 21
54.892849376485323
 31
0.0
  0
ARC
  5
41E1
  8
0
 10
315.31359668462312
 20
47.282545683781777
 30
0.0
 40
0.032385735435221
 50
94.079176813286296
 51
175.92093764441191
  0
ARC
  5
41E2
  8
0
 10
315.31452195563259
 20
47.068078348766093
 30
0.0
 40
0.0333854848290819
 50
185.5502006762778
 51
264.449869692324
  0
ARC
  5
41E3
  8
0
 10
315.65931013192011
 20
54.969874122921411
 30
0.0
 40
0.0776964278861996
 50
215.71498984333061
 51
262.46068047905709
  0
ARC
  5
41E4
  8
0
 10
320.99163646141761
 20
49.447800751585334
 30
0.0
 40
1.53
 50
174.2791297778968
 51
176.1165531257999
  0
ARC
  5
41E5
  8
0
 10
319.27603034601913
 20
47.068086735186768
 30
0.0
 40
0.0333946478467864
 50
185.56312964299781
 51
264.43687035700083
  0
ARC
  5
41E6
  8
0
 10
319.27508320668619
 20
47.276208628849957
 30
0.0
 40
0.0323134162262128
 50
125.92012361993299
 51
177.8288653674654
  0
ARC
  5
41E7
  8
0
 10
319.2800941176053
 20
47.356168568549769
 30
0.0
 40
0.0375047297024891
 50
185.97282152396599
 51
230.27818949383379
  0
ARC
  5
41E8
  8
0
 10
319.2737391537554
 20
49.503903210047518
 30
0.0
 40
0.0309606273858336
 50
91.751249571487193
 51
178.24875042851161
  0
ARC
  5
41E9
  8
0
 10
319.44944523086559
 20
49.553202217852608
 30
0.0
 40
0.0158047343855375
 50
274.58232812059958
 51
353.5367315369802
  0
ARC
  5
41EA
  8
0
 10
319.24682055299559
 20
47.314849376485327
 30
0.0
 40
0.0155612617486674
 50
306.72740366350371
 51
53.272596336496612
  0
ARC
  5
41EB
  8
0
 10
315.31301819136968
 20
47.359577434808827
 30
0.0
 40
0.037337664928344
 50
190.39059371738381
 51
259.63231739637092
  0
LINE
  5
41EC
  8
0
 10
315.27629282331759
 20
47.35284330058532
 30
0.0
 11
315.27629282331759
 21
49.82285848073446
 31
0.0
  0
ARC
  5
41ED
  8
0
 10
198.1571265180884
 20
49.134534507226661
 30
0.0
 40
117.1211889707598
 50
0.3367305779390851
 51
0.78334178563561
  0
ARC
  5
41EE
  8
0
 10
313.99138115077972
 20
50.67969872577045
 30
0.0
 40
1.27721896530153
 50
2.5153922349626359
 51
15.930919905257531
  0
ARC
  5
41EF
  8
0
 10
321.33752771168849
 20
51.278027617451023
 30
0.0
 40
6.1539512703116221
 50
177.26011855577411
 51
178.9270042551064
  0
ARC
  5
41F0
  8
0
 10
318.14129731394638
 20
51.494277109016977
 30
0.0
 40
2.9583666846138681
 50
181.95666437221749
 51
189.02390641496279
  0
ARC
  5
41F1
  8
0
 10
152.65583165544021
 20
66.339009717699213
 30
0.0
 40
163.2042075752278
 50
354.80874446655599
 51
355.7486174337476
  0
ARC
  5
41F2
  8
0
 10
389.9939905723428
 20
47.603327101415857
 30
0.0
 40
74.877743709793521
 50
174.20714545681241
 51
174.91480099344051
  0
ARC
  5
41F3
  8
0
 10
317.02586507220337
 20
55.653144263192161
 30
0.0
 40
1.6046068953267989
 50
185.98123625481091
 51
207.00598845558619
  0
ARC
  5
41F4
  8
0
 10
324.57534219359792
 20
54.855561009971481
 30
0.0
 40
9.1670485675042634
 50
170.76681405058059
 51
176.0569021139803
  0
ARC
  5
41F5
  8
0
 10
316.921615889885
 20
56.15185400948927
 30
0.0
 40
1.4054353120754011
 50
146.1036944446011
 51
172.86414288094409
  0
ARC
  5
41F6
  8
0
 10
316.18311021516308
 20
56.634896644641458
 30
0.0
 40
0.5231649210149902
 50
103.4264760775079
 51
144.90880227044269
  0
ARC
  5
41F7
  8
0
 10
316.216623318149
 20
56.524691132187797
 30
0.0
 40
0.6381785033566456
 50
90.254108438361413
 51
104.055642448676
  0
ARC
  5
41F8
  8
0
 10
315.67219384075219
 20
55.52685636100378
 30
0.0
 40
0.2456321481906215
 50
189.5888348678036
 51
220.00638957227019
  0
ARC
  5
41F9
  8
0
 10
315.67456474651601
 20
55.61430175076066
 30
0.0
 40
0.3106391515668818
 50
232.17069609932099
 51
268.75195923018907
  0
ARC
  5
41FA
  8
0
 10
315.94129234982159
 20
58.8829216815557
 30
0.0
 40
3.5896193077156848
 50
265.63039292104719
 51
270.0956028222019
  0
LINE
  5
41FB
  8
0
 10
315.94728192846281
 20
55.293307370898781
 30
0.0
 11
316.48030404617288
 21
55.293307370898781
 31
0.0
  0
LINE
  5
41FC
  8
0
 10
317.14629298731762
 20
47.284849376485319
 30
0.0
 11
317.14629298731762
 21
47.06484937648532
 31
0.0
  0
LINE
  5
41FD
  8
0
 10
316.99529298731761
 20
47.31484937648532
 30
0.0
 11
316.99529298731761
 21
47.322849376885323
 31
0.0
  0
LINE
  5
41FE
  8
0
 10
316.68529298731761
 20
54.836849376485333
 30
0.0
 11
316.68529298731761
 21
54.89284937648533
 31
0.0
  0
LINE
  5
41FF
  8
0
 10
316.64679298731761
 20
54.682849376485322
 30
0.0
 11
316.64679298731761
 21
54.836849376485333
 31
0.0
  0
LINE
  5
4200
  8
0
 10
316.68529298731761
 20
54.836849376485333
 30
0.0
 11
316.64679298731761
 21
54.836849376485333
 31
0.0
  0
ARC
  5
4201
  8
0
 10
317.11398929001211
 20
47.282545683781777
 30
0.0
 40
0.032385735435221
 50
4.0790623555880599
 51
85.92082318671369
  0
ARC
  5
4202
  8
0
 10
317.11306401900248
 20
47.068078348766093
 30
0.0
 40
0.0333854848290819
 50
275.55013030767611
 51
354.44979932372217
  0
ARC
  5
4203
  8
0
 10
316.76827584271513
 20
54.969874122921411
 30
0.0
 40
0.0776964278861996
 50
277.53931952094291
 51
324.28501015666899
  0
LINE
  5
4204
  8
0
 10
317.15129315131759
 20
47.35284330058532
 30
0.0
 11
317.15129315131759
 21
49.82285848073446
 31
0.0
  0
ARC
  5
4205
  8
0
 10
434.27045945654669
 20
49.134534507226661
 30
0.0
 40
117.1211889707598
 50
179.2166582143644
 51
179.66326942206089
  0
ARC
  5
4206
  8
0
 10
318.43620482385552
 20
50.67969872577045
 30
0.0
 40
1.27721896530153
 50
164.0690800947425
 51
177.48460776503731
  0
ARC
  5
4207
  8
0
 10
311.09005826294668
 20
51.278027617451023
 30
0.0
 40
6.1539512703116221
 50
1.0729957448935279
 51
2.739881444225845
  0
ARC
  5
4208
  8
0
 10
314.2862886606888
 20
51.494277109016977
 30
0.0
 40
2.9583666846138681
 50
350.97609358503718
 51
358.04333562778248
  0
ARC
  5
4209
  8
0
 10
479.77175431919488
 20
66.339009717699213
 30
0.0
 40
163.2042075752278
 50
184.2513825662524
 51
185.19125553344401
  0
ARC
  5
420A
  8
0
 10
242.43359540229241
 20
47.603327101415857
 30
0.0
 40
74.877743709793521
 50
5.0851990065594723
 51
5.7928545431876151
  0
ARC
  5
420B
  8
0
 10
315.4017209024318
 20
55.653144263192161
 30
0.0
 40
1.6046068953267989
 50
332.99401154441369
 51
354.01876374518912
  0
ARC
  5
420C
  8
0
 10
307.85224378103732
 20
54.855561009971481
 30
0.0
 40
9.1670485675042634
 50
3.9430978860197379
 51
9.2331859494193562
  0
ARC
  5
420D
  8
0
 10
315.50597008475017
 20
56.15185400948927
 30
0.0
 40
1.4054353120754011
 50
7.1358571190558768
 51
33.896305555398861
  0
ARC
  5
420E
  8
0
 10
316.2444757594721
 20
56.634896644641458
 30
0.0
 40
0.5231649210149902
 50
35.091197729557308
 51
76.5735239224921
  0
ARC
  5
420F
  8
0
 10
316.21096265648617
 20
56.524691132187812
 30
0.0
 40
0.6381785033566403
 50
75.944357551324003
 51
89.745891561638587
  0
ARC
  5
4210
  8
0
 10
316.75539213388288
 20
55.52685636100378
 30
0.0
 40
0.2456321481906215
 50
319.99361042772989
 51
350.41116513219589
  0
ARC
  5
4211
  8
0
 10
316.75302122811922
 20
55.61430175076066
 30
0.0
 40
0.3106391515668818
 50
271.24804076981093
 51
307.82930390067639
  0
ARC
  5
4212
  8
0
 10
316.48629362481358
 20
58.8829216815557
 30
0.0
 40
3.5896193077156848
 50
269.90439717780129
 51
274.3696070789527
  0
LINE
  5
4213
  8
0
 10
315.30629874321761
 20
47.322849376885323
 30
0.0
 11
317.12128723141763
 21
47.322849376885323
 31
0.0
  0
ARC
  5
4214
  8
0
 10
317.1145677832655
 20
47.359577434808827
 30
0.0
 40
0.037337664928344
 50
280.36768260362908
 51
349.60940628261608
  0
ARC
  5
4215
  8
0
 10
319.2747570475928
 20
49.63590813084754
 30
0.0
 40
0.0359074795227978
 50
179.70734699274499
 51
262.4189332248568
  0
ARC
  5
4216
  8
0
 10
320.54559662251319
 20
49.570126460984227
 30
0.0
 40
1.308410498034666
 50
148.0934378421473
 51
177.11013981880569
  0
ARC
  5
4217
  8
0
 10
317.1815787149996
 20
51.87382132504154
 30
0.0
 40
2.7706264150654358
 50
324.41759516091059
 51
344.88418366132208
  0
ARC
  5
4218
  8
0
 10
316.43863543395622
 20
51.995348900984638
 30
0.0
 40
3.520384687125353
 50
346.12797280891488
 51
2.1658731378966509
  0
ARC
  5
4219
  8
0
 10
317.94512530951198
 20
52.108097927547668
 30
0.0
 40
2.011482254388905
 50
0.5781145810497899
 51
17.693522811602001
  0
ARC
  5
421A
  8
0
 10
320.43375802246362
 20
53.083060071436321
 30
0.0
 40
0.6780488285296881
 50
209.97640088416949
 51
212.4305238243426
  0
ARC
  5
421B
  8
0
 10
320.27696833171723
 20
52.981614003392281
 30
0.0
 40
0.4916383584928534
 50
180.99866174071741
 51
208.86490252676811
  0
ARC
  5
421C
  8
0
 10
319.8438791726752
 20
52.966015535212343
 30
0.0
 40
0.0588955511642006
 50
79.441750489826134
 51
173.14492605108251
  0
ARC
  5
421D
  8
0
 10
320.21387626362559
 20
54.494598183485401
 30
0.0
 40
1.513915669690477
 50
256.27458553429858
 51
269.99684831785697
  0
ARC
  5
421E
  8
0
 10
320.09432317383488
 20
52.863072954785018
 30
0.0
 40
0.2736018289828807
 50
211.66666712110629
 51
248.39547837950619
  0
ARC
  5
421F
  8
0
 10
320.2330432805411
 20
53.165933328533313
 30
0.0
 40
0.6065133667558974
 50
246.74564998544639
 51
268.18116815847827
  0
LINE
  5
4220
  8
0
 10
320.97687808012421
 20
49.537448002241682
 30
0.0
 11
321.05129298570438
 21
49.534849376485319
 31
0.0
  0
LINE
  5
4221
  8
0
 10
321.18479298731762
 20
47.06484937648532
 30
0.0
 11
321.18479298731762
 21
47.277432802585317
 31
0.0
  0
LINE
  5
4222
  8
0
 10
321.18479298731762
 20
47.352265950285329
 30
0.0
 11
321.18479298731762
 21
49.504849376485318
 31
0.0
  0
ARC
  5
4223
  8
0
 10
319.43594951321762
 20
49.447800751585334
 30
0.0
 40
1.53
 50
3.8834468742000281
 51
5.7208702221031738
  0
ARC
  5
4224
  8
0
 10
321.15155562861622
 20
47.068086735186768
 30
0.0
 40
0.0333946478467864
 50
275.56312964299917
 51
354.43687035700208
  0
ARC
  5
4225
  8
0
 10
321.15250276794887
 20
47.276208628849957
 30
0.0
 40
0.0323134162262128
 50
2.1711346325341641
 51
54.07987638006702
  0
ARC
  5
4226
  8
0
 10
321.14749185702988
 20
47.356168568549769
 30
0.0
 40
0.0375047297024891
 50
309.72181050616609
 51
354.02717847603441
  0
ARC
  5
4227
  8
0
 10
321.15384682087978
 20
49.503903210047518
 30
0.0
 40
0.0309606273858336
 50
1.7512495714883609
 51
88.248750428512807
  0
ARC
  5
4228
  8
0
 10
320.97814074376959
 20
49.553202217852608
 30
0.0
 40
0.0158047343855375
 50
186.4632684630198
 51
265.4176718794003
  0
ARC
  5
4229
  8
0
 10
321.18076542163959
 20
47.314849376485327
 30
0.0
 40
0.0155612617486674
 50
126.7274036635034
 51
233.27259633649641
  0
ARC
  5
422A
  8
0
 10
321.15282892704238
 20
49.63590813084754
 30
0.0
 40
0.0359074795227978
 50
277.58106677514331
 51
0.2926530072550182
  0
ARC
  5
422B
  8
0
 10
319.88198935212199
 20
49.570126460984227
 30
0.0
 40
1.308410498034666
 50
2.8898601811942628
 51
31.906562157852711
  0
ARC
  5
422C
  8
0
 10
323.24600725963558
 20
51.87382132504154
 30
0.0
 40
2.7706264150654358
 50
195.11581633867789
 51
215.58240483908929
  0
ARC
  5
422D
  8
0
 10
323.9889505406789
 20
51.995348900984638
 30
0.0
 40
3.520384687125353
 50
177.83412686210329
 51
193.8720271910851
  0
ARC
  5
422E
  8
0
 10
322.4824606651232
 20
52.108097927547668
 30
0.0
 40
2.011482254388905
 50
162.30647718839799
 51
179.42188541895021
  0
ARC
  5
422F
  8
0
 10
319.99382795217161
 20
53.083060071436321
 30
0.0
 40
0.6780488285296881
 50
327.56947617565743
 51
330.02359911583051
  0
ARC
  5
4230
  8
0
 10
320.15061764291789
 20
52.981614003392323
 30
0.0
 40
0.4916383584929557
 50
331.13509747323229
 51
359.0013382592773
  0
ARC
  5
4231
  8
0
 10
320.58370680195998
 20
52.966015535212343
 30
0.0
 40
0.0588955511642178
 50
6.8550739489211221
 51
100.5582495101574
  0
ARC
  5
4232
  8
0
 10
320.21370971100959
 20
54.494598183485401
 30
0.0
 40
1.513915669690477
 50
270.00315168214303
 51
283.72541446570142
  0
ARC
  5
4233
  8
0
 10
320.3332628008003
 20
52.863072954785018
 30
0.0
 40
0.2736018289828807
 50
291.6045216204937
 51
328.33333287889383
  0
ARC
  5
4234
  8
0
 10
320.19454269409403
 20
53.165933328533313
 30
0.0
 40
0.6065133667558974
 50
271.81883184152173
 51
293.25435001455361
  0
LINE
  5
4235
  8
0
 10
319.26238181474417
 20
47.314849376485327
 30
0.0
 11
321.165204159891
 21
47.314849376485327
 31
0.0
  0
LINE
  5
4236
  8
0
 10
319.27001981551763
 20
49.600314511785328
 30
0.0
 11
321.15756615911761
 21
49.600314511785328
 31
0.0
  0
ENDSEC
  0
EOF
