  0
SECTION
  2
HEADER
  9
$ACADVER
  1
AC1009
  9
$INSBASE
 10
0.0
 20
0.0
 30
0.0
  9
$EXTMIN
 10
-0.1077910792555485
 20
-0.0125691130518249
 30
-2.1326911964068809
  9
$EXTMAX
 10
74.714526902188481
 20
0.9902717818534939
 30
8.9014546910705121
  9
$LIMMIN
 10
0.0
 20
0.0
  9
$LIMMAX
 10
12.0
 20
9.0
  9
$ORTHOMODE
 70
     1
  9
$REGENMODE
 70
     1
  9
$FILLMODE
 70
     1
  9
$QTEXTMODE
 70
     0
  9
$MIRRTEXT
 70
     0
  9
$DRAGMODE
 70
     2
  9
$LTSCALE
 40
0.1
  9
$OSMODE
 70
    37
  9
$ATTMODE
 70
     1
  9
$TEXTSIZE
 40
0.001
  9
$TRACEWID
 40
0.05
  9
$TEXTSTYLE
  7
STANDARD
  9
$CLAYER
  8
0
  9
$CELTYPE
  6
BYLAYER
  9
$CECOLOR
 62
   256
  9
$DIMSCALE
 40
1.0
  9
$DIMASZ
 40
0.18
  9
$DIMEXO
 40
0.0625
  9
$DIMDLI
 40
0.38
  9
$DIMRND
 40
0.0
  9
$DIMDLE
 40
0.0
  9
$DIMEXE
 40
0.18
  9
$DIMTP
 40
0.0
  9
$DIMTM
 40
0.0
  9
$DIMTXT
 40
0.18
  9
$DIMCEN
 40
0.09
  9
$DIMTSZ
 40
0.0
  9
$DIMTOL
 70
     0
  9
$DIMLIM
 70
     0
  9
$DIMTIH
 70
     1
  9
$DIMTOH
 70
     1
  9
$DIMSE1
 70
     0
  9
$DIMSE2
 70
     0
  9
$DIMTAD
 70
     0
  9
$DIMZIN
 70
     0
  9
$DIMBLK
  1

  9
$DIMASO
 70
     1
  9
$DIMSHO
 70
     1
  9
$DIMPOST
  1

  9
$DIMAPOST
  1

  9
$DIMALT
 70
     0
  9
$DIMALTD
 70
     2
  9
$DIMALTF
 40
25.399999999999999
  9
$DIMLFAC
 40
1.0
  9
$DIMTOFL
 70
     0
  9
$DIMTVP
 40
0.0
  9
$DIMTIX
 70
     0
  9
$DIMSOXD
 70
     0
  9
$DIMSAH
 70
     0
  9
$DIMBLK1
  1

  9
$DIMBLK2
  1

  9
$DIMSTYLE
  2
STANDARD
  9
$DIMCLRD
 70
     0
  9
$DIMCLRE
 70
     0
  9
$DIMCLRT
 70
     0
  9
$DIMTFAC
 40
1.0
  9
$DIMGAP
 40
0.09
  9
$LUNITS
 70
     2
  9
$LUPREC
 70
     4
  9
$SKETCHINC
 40
0.1
  9
$FILLETRAD
 40
0.005
  9
$AUNITS
 70
     0
  9
$AUPREC
 70
     0
  9
$MENU
  1
.
  9
$ELEVATION
 40
0.0
  9
$PELEVATION
 40
0.0
  9
$THICKNESS
 40
0.0
  9
$LIMCHECK
 70
     0
  9
$BLIPMODE
 70
     0
  9
$CHAMFERA
 40
0.0
  9
$CHAMFERB
 40
0.0
  9
$SKPOLY
 70
     0
  9
$TDCREATE
 40
2453376.1374194329
  9
$TDUPDATE
 40
2453412.6110188779
  9
$TDINDWG
 40
0.0202165856
  9
$TDUSRTIMER
 40
0.0201730093
  9
$USRTIMER
 70
     1
  9
$ANGBASE
 50
0.0
  9
$ANGDIR
 70
     0
  9
$PDMODE
 70
     0
  9
$PDSIZE
 40
0.0
  9
$PLINEWID
 40
0.0
  9
$COORDS
 70
     1
  9
$SPLFRAME
 70
     0
  9
$SPLINETYPE
 70
     6
  9
$SPLINESEGS
 70
     8
  9
$ATTDIA
 70
     0
  9
$ATTREQ
 70
     1
  9
$HANDLING
 70
     1
  9
$HANDSEED
  5
3A3D
  9
$SURFTAB1
 70
     6
  9
$SURFTAB2
 70
     6
  9
$SURFTYPE
 70
     6
  9
$SURFU
 70
     6
  9
$SURFV
 70
     6
  9
$UCSNAME
  2

  9
$UCSORG
 10
0.0
 20
0.0
 30
0.0
  9
$UCSXDIR
 10
1.0
 20
0.0
 30
0.0
  9
$UCSYDIR
 10
0.0
 20
0.0
 30
1.0
  9
$PUCSNAME
  2

  9
$PUCSORG
 10
0.0
 20
0.0
 30
0.0
  9
$PUCSXDIR
 10
1.0
 20
0.0
 30
0.0
  9
$PUCSYDIR
 10
0.0
 20
1.0
 30
0.0
  9
$USERI1
 70
     0
  9
$USERI2
 70
     0
  9
$USERI3
 70
     0
  9
$USERI4
 70
     0
  9
$USERI5
 70
     0
  9
$USERR1
 40
0.0
  9
$USERR2
 40
0.0
  9
$USERR3
 40
0.0
  9
$USERR4
 40
0.0
  9
$USERR5
 40
0.0
  9
$WORLDVIEW
 70
     1
  9
$SHADEDGE
 70
     3
  9
$SHADEDIF
 70
    70
  9
$TILEMODE
 70
     1
  9
$MAXACTVP
 70
    64
  9
$PLIMCHECK
 70
     0
  9
$PEXTMIN
 10
0.0
 20
0.0
 30
0.0
  9
$PEXTMAX
 10
0.0
 20
0.0
 30
0.0
  9
$PLIMMIN
 10
0.0
 20
0.0
  9
$PLIMMAX
 10
12.0
 20
9.0
  9
$UNITMODE
 70
     0
  9
$VISRETAIN
 70
     1
  9
$PLINEGEN
 70
     0
  9
$PSLTSCALE
 70
     1
  0
ENDSEC
  0
SECTION
  2
TABLES
  0
TABLE
  2
VPORT
 70
     2
  0
VPORT
  2
*ACTIVE
 70
     0
 10
0.0
 20
0.0
 11
1.0
 21
1.0
 12
3.8133149870559828
 22
4.341298462256872
 13
0.0
 23
0.0
 14
0.5
 24
0.5
 15
0.5
 25
0.5
 16
0.0
 26
-1.0
 36
0.0
 17
0.0
 27
0.0
 37
0.0
 40
10.551880830103981
 41
1.9608247422680409
 42
50.0
 43
0.0
 44
0.0
 50
0.0
 51
0.0
 71
     0
 72
  1000
 73
     1
 74
     3
 75
     0
 76
     0
 77
     0
 78
     0
  0
ENDTAB
  0
TABLE
  2
LTYPE
 70
     2
  0
LTYPE
  2
CONTINUOUS
 70
     0
  3
Solid line
 72
    65
 73
     0
 40
0.0
  0
ENDTAB
  0
TABLE
  2
LAYER
 70
     8
  0
LAYER
  2
0
 70
     0
 62
     7
  6
CONTINUOUS
  0
LAYER
  2
ASHADE
 70
     0
 62
     7
  6
CONTINUOUS
  0
LAYER
  2
DEFPOINTS
 70
     0
 62
     7
  6
CONTINUOUS
  0
ENDTAB
  0
TABLE
  2
STYLE
 70
     3
  0
STYLE
  2
STANDARD
 70
     0
 40
0.0
 41
1.0
 50
0.0
 71
     0
 42
0.001
  3
txt
  4

  0
STYLE
  2
ASHADE
 70
     0
 40
0.2
 41
1.0
 50
0.0
 71
     0
 42
0.2
  3
simplex
  4

  0
ENDTAB
  0
TABLE
  2
VIEW
 70
     0
  0
ENDTAB
  0
TABLE
  2
UCS
 70
     0
  0
ENDTAB
  0
TABLE
  2
APPID
 70
     6
  0
APPID
  2
ACAD
 70
     0
  0
APPID
  2
AVE_RENDER
 70
     0
  0
APPID
  2
AVE_ENTITY_MATERIAL
 70
     0
  0
APPID
  2
AVE_FINISH
 70
     0
  0
APPID
  2
AVE_MATERIAL
 70
     0
  0
APPID
  2
AVE_GLOBAL
 70
     0
  0
ENDTAB
  0
TABLE
  2
DIMSTYLE
 70
     1
  0
DIMSTYLE
  2
STANDARD
 70
     0
  3

  4

  5

  6

  7

 40
1.0
 41
0.18
 42
0.0625
 43
0.38
 44
0.18
 45
0.0
 46
0.0
 47
0.0
 48
0.0
140
0.18
141
0.09
142
0.0
143
25.399999999999999
144
1.0
145
0.0
146
1.0
147
0.09
 71
     0
 72
     0
 73
     1
 74
     1
 75
     0
 76
     0
 77
     0
 78
     0
170
     0
171
     2
172
     0
173
     0
174
     0
175
     0
176
     0
177
     0
178
     0
  0
ENDTAB
  0
ENDSEC
  0
SECTION
  2
BLOCKS
  0
BLOCK
  8
0
  2
$MODEL_SPACE
 70
     0
 10
0.0
 20
0.0
 30
0.0
  3
$MODEL_SPACE
  1

  0
ENDBLK
  5
21
  8
0
  0
BLOCK
 67
     1
  8
0
  2
$PAPER_SPACE
 70
     0
 10
0.0
 20
0.0
 30
0.0
  3
$PAPER_SPACE
  1

  0
ENDBLK
  5
5B
 67
     1
  8
0
  0
BLOCK
  8
ASHADE
  2
AVE_RENDER
 70
     0
 10
0.0
 20
0.0
 30
0.0
  3
AVE_RENDER
  1
AVE_RENDER
  0
ENDBLK
  5
91
  8
0
  0
BLOCK
  8
ASHADE
  2
AVE_GLOBAL
 70
     0
 10
0.0
 20
0.0
 30
0.0
  3
AVE_GLOBAL
  1
AVE_GLOBAL
  0
ENDBLK
  5
9F
  8
0
  0
BLOCK
  8
ASHADE
  2
RM_SDB
 70
     2
 10
0.0
 20
0.0
 30
0.0
  3
RM_SDB
  1
RM_SDB
  0
ATTDEF
  5
1E76
  8
ASHADE
  6
CONTINUOUS
 62
     1
 10
0.0000000000000001
 20
-0.15
 30
0.0
 40
0.2
  1

 41
100.0
  7
ASHADE
 72
     1
 11
0.0000000000000001
 21
-0.15
 31
0.0
  3
Name
  2
NAME
 70
     0
  0
ENDBLK
  5
7DE
  8
0
  0
BLOCK
  8
0
  2
*U17
 70
     1
 10
0.0
 20
0.0
 30
0.0
  3
*U17
  1

  0
TEXT
  5
35E4
  8
0
 62
     0
 10
-1840.0034819051441
 20
623.18194443246068
 30
0.0
 40
3.5999999999999979
  1
50.0000
  0
ENDBLK
  5
35E6
  8
0
  0
BLOCK
  8
0
  2
*U18
 70
     1
 10
0.0
 20
0.0
 30
0.0
  3
*U18
  1

  0
TEXT
  5
35E8
  8
0
 62
     0
 10
-2096.7862969024718
 20
735.52641163130761
 30
0.0
 40
3.5999999999999979
  1
195.0000
  0
ENDBLK
  5
35EA
  8
0
  0
BLOCK
  8
0
  2
*U19
 70
     1
 10
0.0
 20
0.0
 30
0.0
  3
*U19
  1

  0
TEXT
  5
35EC
  8
0
 62
     0
 10
-1951.7284652873691
 20
886.74694245031935
 30
0.0
 40
3.5999999999999979
  1
270.0000
  0
ENDBLK
  5
35EE
  8
0
  0
BLOCK
  8
0
  2
*U20
 70
     1
 10
0.0
 20
0.0
 30
0.0
  3
*U20
  1

  0
TEXT
  5
35F0
  8
0
 62
     0
 10
-1775.3047536848669
 20
707.86489168227297
 30
0.0
 40
3.5999999999999979
  1
140.0000
  0
ENDBLK
  5
35F2
  8
0
  0
BLOCK
  8
0
  2
*U21
 70
     1
 10
0.0
 20
0.0
 30
0.0
  3
*U21
  1

  0
TEXT
  5
35F4
  8
0
 62
     0
 10
-1707.0871065568749
 20
623.18194443246068
 30
0.0
 40
3.5999999999999979
  1
50.0000
  0
ENDBLK
  5
35F6
  8
0
  0
BLOCK
  8
0
  2
*U22
 70
     1
 10
0.0
 20
0.0
 30
0.0
  3
*U22
  1

  0
TEXT
  5
35F8
  8
0
 62
     0
 10
-1842.6384596734069
 20
37.328982104613331
 30
0.0
 40
3.5999999999999979
  1
50.0000
  0
ENDBLK
  5
35FA
  8
0
  0
BLOCK
  8
0
  2
*U23
 70
     1
 10
0.0
 20
0.0
 30
0.0
  3
*U23
  1

  0
TEXT
  5
35FC
  8
0
 62
     0
 10
-1890.475446757054
 20
163.26192935442521
 30
0.0
 40
3.5999999999999979
  1
225.0000
  0
ENDBLK
  5
35FE
  8
0
  0
BLOCK
  8
0
  2
*U24
 70
     1
 10
0.0
 20
0.0
 30
0.0
  3
*U24
  1

  0
TEXT
  5
3600
  8
0
 62
     0
 10
-2030.787045129732
 20
122.0119293544254
 30
0.0
 40
3.5999999999999979
  1
140.0000
  0
ENDBLK
  5
3602
  8
0
  0
BLOCK
  8
0
  2
*U25
 70
     1
 10
0.0
 20
0.0
 30
0.0
  3
*U25
  1

  0
TEXT
  5
3604
  8
0
 62
     0
 10
-1962.550479487488
 20
37.328982104613331
 30
0.0
 40
3.5999999999999979
  1
50.0000
  0
ENDBLK
  5
3606
  8
0
  0
BLOCK
  8
0
  2
*U26
 70
     1
 10
0.0
 20
0.0
 30
0.0
  3
*U26
  1

  0
TEXT
  5
3608
  8
0
 62
     0
 10
-2045.77888589384
 20
-428.49107349414112
 30
0.0
 40
3.5999999999999979
  1
270.0000
  0
ENDBLK
  5
360A
  8
0
  0
BLOCK
  8
0
  2
*U27
 70
     1
 10
0.0
 20
0.0
 30
0.0
  3
*U27
  1

  0
TEXT
  5
360C
  8
0
 62
     0
 10
-1964.9967036141061
 20
-578.11441712191504
 30
0.0
 40
3.5999999999999979
  1
40.0000
  0
ENDBLK
  5
360E
  8
0
  0
BLOCK
  8
0
  2
*U28
 70
     1
 10
0.0
 20
0.0
 30
0.0
  3
*U28
  1

  0
TEXT
  5
3610
  8
0
 62
     0
 10
-1872.5440851112271
 20
-523.99107349414135
 30
0.0
 40
3.5999999999999979
  1
79.0000
  0
ENDBLK
  5
3612
  8
0
  0
BLOCK
  8
0
  2
*U29
 70
     1
 10
0.0
 20
0.0
 30
0.0
  3
*U29
  1

  0
TEXT
  5
3614
  8
0
 62
     0
 10
-1828.095924720107
 20
-467.92846801891602
 30
0.0
 40
3.5999999999999979
  1
30.0000
  0
ENDBLK
  5
3616
  8
0
  0
ENDSEC
  0
SECTION
  2
ENTITIES
  0
POLYLINE
  5
353F
  8
ASHADE
 10
5.0863174868767302
 20
-0.0012472617954783
 30
4.9493382672650545
 66
     1
 70
     8
  0
VERTEX
  8
ASHADE
  5
36AF
 10
5.08632
 20
-0.00124726
 30
4.94934
  70
    32
  0
VERTEX
  8
ASHADE
  5
36B0
 10
5.08707
 20
-0.00124726
 30
4.91982
  70
    32
  0
VERTEX
  8
ASHADE
  5
36B1
 10
5.08932
 20
-0.00124726
 30
4.89037
  70
    32
  0
VERTEX
  8
ASHADE
  5
36B2
 10
5.09306
 20
-0.00124726
 30
4.86106
  70
    32
  0
VERTEX
  8
ASHADE
  5
36B3
 10
5.09829
 20
-0.00124726
 30
4.83197
  70
    32
  0
VERTEX
  8
ASHADE
  5
36B4
 10
5.10499
 20
-0.00124726
 30
4.80316
  70
    32
  0
VERTEX
  8
ASHADE
  5
36B5
 10
5.11314
 20
-0.00124726
 30
4.77470
  70
    32
  0
VERTEX
  8
ASHADE
  5
36B6
 10
5.12274
 20
-0.00124726
 30
4.74666
  70
    32
  0
VERTEX
  8
ASHADE
  5
36B7
 10
5.13374
 20
-0.00124726
 30
4.71911
  70
    32
  0
VERTEX
  8
ASHADE
  5
36B8
 10
5.14613
 20
-0.00124726
 30
4.69212
  70
    32
  0
VERTEX
  8
ASHADE
  5
36B9
 10
5.15988
 20
-0.00124726
 30
4.66574
  70
    32
  0
VERTEX
  8
ASHADE
  5
36BA
 10
5.17496
 20
-0.00124726
 30
4.64005
  70
    32
  0
VERTEX
  8
ASHADE
  5
36BB
 10
5.19132
 20
-0.00124726
 30
4.61511
  70
    32
  0
VERTEX
  8
ASHADE
  5
36BC
 10
5.20892
 20
-0.00124726
 30
4.59096
  70
    32
  0
VERTEX
  8
ASHADE
  5
36BD
 10
5.22774
 20
-0.00124726
 30
4.56769
  70
    32
  0
VERTEX
  8
ASHADE
  5
36BE
 10
5.24771
 20
-0.00124726
 30
4.54533
  70
    32
  0
VERTEX
  8
ASHADE
  5
36BF
 10
5.26880
 20
-0.00124726
 30
4.52394
  70
    32
  0
VERTEX
  8
ASHADE
  5
36C0
 10
5.29094
 20
-0.00124726
 30
4.50358
  70
    32
  0
VERTEX
  8
ASHADE
  5
36C1
 10
5.31410
 20
-0.00124726
 30
4.48429
  70
    32
  0
VERTEX
  8
ASHADE
  5
36C2
 10
5.33820
 20
-0.00124726
 30
4.46613
  70
    32
  0
VERTEX
  8
ASHADE
  5
36C3
 10
5.36321
 20
-0.00124726
 30
4.44912
  70
    32
  0
VERTEX
  8
ASHADE
  5
36C4
 10
5.38904
 20
-0.00124726
 30
4.43333
  70
    32
  0
VERTEX
  8
ASHADE
  5
36C5
 10
5.41565
 20
-0.00124726
 30
4.41877
  70
    32
  0
VERTEX
  8
ASHADE
  5
36C6
 10
5.44296
 20
-0.00124726
 30
4.40550
  70
    32
  0
VERTEX
  8
ASHADE
  5
36C7
 10
5.47092
 20
-0.00124726
 30
4.39353
  70
    32
  0
VERTEX
  8
ASHADE
  5
36C8
 10
5.49945
 20
-0.00124726
 30
4.38290
  70
    32
  0
VERTEX
  8
ASHADE
  5
36C9
 10
5.52848
 20
-0.00124726
 30
4.37364
  70
    32
  0
VERTEX
  8
ASHADE
  5
36CA
 10
5.55796
 20
-0.00124726
 30
4.36576
  70
    32
  0
VERTEX
  8
ASHADE
  5
36CB
 10
5.58779
 20
-0.00124726
 30
4.35929
  70
    32
  0
VERTEX
  8
ASHADE
  5
36CC
 10
5.61792
 20
-0.00124726
 30
4.35425
  70
    32
  0
VERTEX
  8
ASHADE
  5
36CD
 10
5.64827
 20
-0.00124726
 30
4.35063
  70
    32
  0
VERTEX
  8
ASHADE
  5
36CE
 10
5.67877
 20
-0.00124726
 30
4.34846
  70
    32
  0
VERTEX
  8
ASHADE
  5
36CF
 10
5.70934
 20
-0.00124726
 30
4.34773
  70
    32
  0
VERTEX
  8
ASHADE
  5
36D0
 10
5.73991
 20
-0.00124726
 30
4.34846
  70
    32
  0
VERTEX
  8
ASHADE
  5
36D1
 10
5.77040
 20
-0.00124726
 30
4.35063
  70
    32
  0
VERTEX
  8
ASHADE
  5
36D2
 10
5.80075
 20
-0.00124726
 30
4.35425
  70
    32
  0
VERTEX
  8
ASHADE
  5
36D3
 10
5.83088
 20
-0.00124726
 30
4.35929
  70
    32
  0
VERTEX
  8
ASHADE
  5
36D4
 10
5.86072
 20
-0.00124726
 30
4.36576
  70
    32
  0
VERTEX
  8
ASHADE
  5
36D5
 10
5.89019
 20
-0.00124726
 30
4.37364
  70
    32
  0
VERTEX
  8
ASHADE
  5
36D6
 10
5.91923
 20
-0.00124726
 30
4.38290
  70
    32
  0
VERTEX
  8
ASHADE
  5
36D7
 10
5.94776
 20
-0.00124726
 30
4.39353
  70
    32
  0
VERTEX
  8
ASHADE
  5
36D8
 10
5.97571
 20
-0.00124726
 30
4.40549
  70
    32
  0
VERTEX
  8
ASHADE
  5
36D9
 10
6.00303
 20
-0.00124726
 30
4.41877
  70
    32
  0
VERTEX
  8
ASHADE
  5
36DA
 10
6.02963
 20
-0.00124726
 30
4.43333
  70
    32
  0
VERTEX
  8
ASHADE
  5
36DB
 10
6.05547
 20
-0.00124726
 30
4.44912
  70
    32
  0
VERTEX
  8
ASHADE
  5
36DC
 10
6.08047
 20
-0.00124726
 30
4.46613
  70
    32
  0
VERTEX
  8
ASHADE
  5
36DD
 10
6.10458
 20
-0.00124726
 30
4.48429
  70
    32
  0
VERTEX
  8
ASHADE
  5
36DE
 10
6.12773
 20
-0.00124726
 30
4.50358
  70
    32
  0
VERTEX
  8
ASHADE
  5
36DF
 10
6.14988
 20
-0.00124726
 30
4.52394
  70
    32
  0
VERTEX
  8
ASHADE
  5
36E0
 10
6.17096
 20
-0.00124726
 30
4.54533
  70
    32
  0
VERTEX
  8
ASHADE
  5
36E1
 10
6.19094
 20
-0.00124726
 30
4.56768
  70
    32
  0
VERTEX
  8
ASHADE
  5
36E2
 10
6.20975
 20
-0.00124726
 30
4.59096
  70
    32
  0
VERTEX
  8
ASHADE
  5
36E3
 10
6.22736
 20
-0.00124726
 30
4.61510
  70
    32
  0
VERTEX
  8
ASHADE
  5
36E4
 10
6.24372
 20
-0.00124726
 30
4.64005
  70
    32
  0
VERTEX
  8
ASHADE
  5
36E5
 10
6.25879
 20
-0.00124726
 30
4.66574
  70
    32
  0
VERTEX
  8
ASHADE
  5
36E6
 10
6.27254
 20
-0.00124726
 30
4.69212
  70
    32
  0
VERTEX
  8
ASHADE
  5
36E7
 10
6.28493
 20
-0.00124726
 30
4.71911
  70
    32
  0
VERTEX
  8
ASHADE
  5
36E8
 10
6.29594
 20
-0.00124726
 30
4.74666
  70
    32
  0
VERTEX
  8
ASHADE
  5
36E9
 10
6.30553
 20
-0.00124726
 30
4.77470
  70
    32
  0
VERTEX
  8
ASHADE
  5
36EA
 10
6.31369
 20
-0.00124726
 30
4.80316
  70
    32
  0
VERTEX
  8
ASHADE
  5
36EB
 10
6.32039
 20
-0.00124726
 30
4.83197
  70
    32
  0
VERTEX
  8
ASHADE
  5
36EC
 10
6.32561
 20
-0.00124726
 30
4.86106
  70
    32
  0
VERTEX
  8
ASHADE
  5
36ED
 10
6.32936
 20
-0.00124726
 30
4.89037
  70
    32
  0
VERTEX
  8
ASHADE
  5
36EE
 10
6.33161
 20
-0.00124726
 30
4.91982
  70
    32
  0
VERTEX
  8
ASHADE
  5
36EF
 10
6.33236
 20
-0.00124726
 30
4.94934
  70
    32
  0
VERTEX
  8
ASHADE
  5
36F0
 10
6.33161
 20
-0.00124726
 30
4.97886
  70
    32
  0
VERTEX
  8
ASHADE
  5
36F1
 10
6.32936
 20
-0.00124726
 30
5.00831
  70
    32
  0
VERTEX
  8
ASHADE
  5
36F2
 10
6.32561
 20
-0.00124726
 30
5.03761
  70
    32
  0
VERTEX
  8
ASHADE
  5
36F3
 10
6.32039
 20
-0.00124726
 30
5.06670
  70
    32
  0
VERTEX
  8
ASHADE
  5
36F4
 10
6.31369
 20
-0.00124726
 30
5.09552
  70
    32
  0
VERTEX
  8
ASHADE
  5
36F5
 10
6.30553
 20
-0.00124726
 30
5.12397
  70
    32
  0
VERTEX
  8
ASHADE
  5
36F6
 10
6.29594
 20
-0.00124726
 30
5.15201
  70
    32
  0
VERTEX
  8
ASHADE
  5
36F7
 10
6.28493
 20
-0.00124726
 30
5.17956
  70
    32
  0
VERTEX
  8
ASHADE
  5
36F8
 10
6.27254
 20
-0.00124726
 30
5.20656
  70
    32
  0
VERTEX
  8
ASHADE
  5
36F9
 10
6.25879
 20
-0.00124726
 30
5.23293
  70
    32
  0
VERTEX
  8
ASHADE
  5
36FA
 10
6.24372
 20
-0.00124726
 30
5.25862
  70
    32
  0
VERTEX
  8
ASHADE
  5
36FB
 10
6.22736
 20
-0.00124726
 30
5.28357
  70
    32
  0
VERTEX
  8
ASHADE
  5
36FC
 10
6.20975
 20
-0.00124726
 30
5.30771
  70
    32
  0
VERTEX
  8
ASHADE
  5
36FD
 10
6.19094
 20
-0.00124726
 30
5.33099
  70
    32
  0
VERTEX
  8
ASHADE
  5
36FE
 10
6.17096
 20
-0.00124726
 30
5.35335
  70
    32
  0
VERTEX
  8
ASHADE
  5
36FF
 10
6.14988
 20
-0.00124726
 30
5.37474
  70
    32
  0
VERTEX
  8
ASHADE
  5
3700
 10
6.12773
 20
-0.00124726
 30
5.39510
  70
    32
  0
VERTEX
  8
ASHADE
  5
3701
 10
6.10458
 20
-0.00124726
 30
5.41438
  70
    32
  0
VERTEX
  8
ASHADE
  5
3702
 10
6.08047
 20
-0.00124726
 30
5.43255
  70
    32
  0
VERTEX
  8
ASHADE
  5
3703
 10
6.05547
 20
-0.00124726
 30
5.44955
  70
    32
  0
VERTEX
  8
ASHADE
  5
3704
 10
6.02963
 20
-0.00124726
 30
5.46535
  70
    32
  0
VERTEX
  8
ASHADE
  5
3705
 10
6.00303
 20
-0.00124726
 30
5.47990
  70
    32
  0
VERTEX
  8
ASHADE
  5
3706
 10
5.97571
 20
-0.00124726
 30
5.49318
  70
    32
  0
VERTEX
  8
ASHADE
  5
3707
 10
5.94776
 20
-0.00124726
 30
5.50515
  70
    32
  0
VERTEX
  8
ASHADE
  5
3708
 10
5.91923
 20
-0.00124726
 30
5.51577
  70
    32
  0
VERTEX
  8
ASHADE
  5
3709
 10
5.89019
 20
-0.00124726
 30
5.52504
  70
    32
  0
VERTEX
  8
ASHADE
  5
370A
 10
5.86072
 20
-0.00124726
 30
5.53291
  70
    32
  0
VERTEX
  8
ASHADE
  5
370B
 10
5.83088
 20
-0.00124726
 30
5.53938
  70
    32
  0
VERTEX
  8
ASHADE
  5
370C
 10
5.80075
 20
-0.00124726
 30
5.54443
  70
    32
  0
VERTEX
  8
ASHADE
  5
370D
 10
5.77040
 20
-0.00124726
 30
5.54804
  70
    32
  0
VERTEX
  8
ASHADE
  5
370E
 10
5.73991
 20
-0.00124726
 30
5.55022
  70
    32
  0
VERTEX
  8
ASHADE
  5
370F
 10
5.70934
 20
-0.00124726
 30
5.55094
  70
    32
  0
VERTEX
  8
ASHADE
  5
3710
 10
5.67877
 20
-0.00124726
 30
5.55022
  70
    32
  0
VERTEX
  8
ASHADE
  5
3711
 10
5.64827
 20
-0.00124726
 30
5.54804
  70
    32
  0
VERTEX
  8
ASHADE
  5
3712
 10
5.61792
 20
-0.00124726
 30
5.54443
  70
    32
  0
VERTEX
  8
ASHADE
  5
3713
 10
5.58779
 20
-0.00124726
 30
5.53938
  70
    32
  0
VERTEX
  8
ASHADE
  5
3714
 10
5.55796
 20
-0.00124726
 30
5.53291
  70
    32
  0
VERTEX
  8
ASHADE
  5
3715
 10
5.52848
 20
-0.00124726
 30
5.52504
  70
    32
  0
VERTEX
  8
ASHADE
  5
3716
 10
5.49945
 20
-0.00124726
 30
5.51577
  70
    32
  0
VERTEX
  8
ASHADE
  5
3717
 10
5.47092
 20
-0.00124726
 30
5.50515
  70
    32
  0
VERTEX
  8
ASHADE
  5
3718
 10
5.44296
 20
-0.00124726
 30
5.49318
  70
    32
  0
VERTEX
  8
ASHADE
  5
3719
 10
5.41565
 20
-0.00124726
 30
5.47990
  70
    32
  0
VERTEX
  8
ASHADE
  5
371A
 10
5.38904
 20
-0.00124726
 30
5.46535
  70
    32
  0
VERTEX
  8
ASHADE
  5
371B
 10
5.36321
 20
-0.00124726
 30
5.44955
  70
    32
  0
VERTEX
  8
ASHADE
  5
371C
 10
5.33820
 20
-0.00124726
 30
5.43255
  70
    32
  0
VERTEX
  8
ASHADE
  5
371D
 10
5.31410
 20
-0.00124726
 30
5.41438
  70
    32
  0
VERTEX
  8
ASHADE
  5
371E
 10
5.29094
 20
-0.00124726
 30
5.39510
  70
    32
  0
VERTEX
  8
ASHADE
  5
371F
 10
5.26880
 20
-0.00124726
 30
5.37474
  70
    32
  0
VERTEX
  8
ASHADE
  5
3720
 10
5.24771
 20
-0.00124726
 30
5.35335
  70
    32
  0
VERTEX
  8
ASHADE
  5
3721
 10
5.22774
 20
-0.00124726
 30
5.33099
  70
    32
  0
VERTEX
  8
ASHADE
  5
3722
 10
5.20892
 20
-0.00124726
 30
5.30771
  70
    32
  0
VERTEX
  8
ASHADE
  5
3723
 10
5.19132
 20
-0.00124726
 30
5.28357
  70
    32
  0
VERTEX
  8
ASHADE
  5
3724
 10
5.17496
 20
-0.00124726
 30
5.25862
  70
    32
  0
VERTEX
  8
ASHADE
  5
3725
 10
5.15988
 20
-0.00124726
 30
5.23293
  70
    32
  0
VERTEX
  8
ASHADE
  5
3726
 10
5.14613
 20
-0.00124726
 30
5.20656
  70
    32
  0
VERTEX
  8
ASHADE
  5
3727
 10
5.13374
 20
-0.00124726
 30
5.17956
  70
    32
  0
VERTEX
  8
ASHADE
  5
3728
 10
5.12274
 20
-0.00124726
 30
5.15201
  70
    32
  0
VERTEX
  8
ASHADE
  5
3729
 10
5.11314
 20
-0.00124726
 30
5.12397
  70
    32
  0
VERTEX
  8
ASHADE
  5
372A
 10
5.10499
 20
-0.00124726
 30
5.09552
  70
    32
  0
VERTEX
  8
ASHADE
  5
372B
 10
5.09829
 20
-0.00124726
 30
5.06671
  70
    32
  0
VERTEX
  8
ASHADE
  5
372C
 10
5.09306
 20
-0.00124726
 30
5.03761
  70
    32
  0
VERTEX
  8
ASHADE
  5
372D
 10
5.08932
 20
-0.00124726
 30
5.00831
  70
    32
  0
VERTEX
  8
ASHADE
  5
372E
 10
5.08707
 20
-0.00124726
 30
4.97886
  70
    32
  0
VERTEX
  8
ASHADE
  5
372F
 10
5.08632
 20
-0.00124726
 30
4.94934
  70
    32
  0
SEQEND
  8
ASHADE
  5
3730
  0
POLYLINE
  5
3541
  8
ASHADE
 10
5.3788922856035457
 20
-0.0020885636955498
 30
4.9351056771859394
 66
     1
 70
     8
  0
VERTEX
  8
ASHADE
  5
3731
 10
5.37889
 20
-0.00208856
 30
4.93511
  70
    32
  0
VERTEX
  8
ASHADE
  5
3732
 10
5.37929
 20
-0.00208856
 30
4.91934
  70
    32
  0
VERTEX
  8
ASHADE
  5
3733
 10
5.38048
 20
-0.00208856
 30
4.90361
  70
    32
  0
VERTEX
  8
ASHADE
  5
3734
 10
5.38247
 20
-0.00208856
 30
4.88796
  70
    32
  0
VERTEX
  8
ASHADE
  5
3735
 10
5.38525
 20
-0.00208856
 30
4.87242
  70
    32
  0
VERTEX
  8
ASHADE
  5
3736
 10
5.38880
 20
-0.00208856
 30
4.85703
  70
    32
  0
VERTEX
  8
ASHADE
  5
3737
 10
5.39313
 20
-0.00208856
 30
4.84184
  70
    32
  0
VERTEX
  8
ASHADE
  5
3738
 10
5.39822
 20
-0.00208856
 30
4.82686
  70
    32
  0
VERTEX
  8
ASHADE
  5
3739
 10
5.40406
 20
-0.00208856
 30
4.81215
  70
    32
  0
VERTEX
  8
ASHADE
  5
373A
 10
5.41064
 20
-0.00208856
 30
4.79773
  70
    32
  0
VERTEX
  8
ASHADE
  5
373B
 10
5.41793
 20
-0.00208856
 30
4.78364
  70
    32
  0
VERTEX
  8
ASHADE
  5
373C
 10
5.42593
 20
-0.00208856
 30
4.76992
  70
    32
  0
VERTEX
  8
ASHADE
  5
373D
 10
5.43461
 20
-0.00208856
 30
4.75660
  70
    32
  0
VERTEX
  8
ASHADE
  5
373E
 10
5.44396
 20
-0.00208856
 30
4.74370
  70
    32
  0
VERTEX
  8
ASHADE
  5
373F
 10
5.45394
 20
-0.00208856
 30
4.73127
  70
    32
  0
VERTEX
  8
ASHADE
  5
3740
 10
5.46454
 20
-0.00208856
 30
4.71933
  70
    32
  0
VERTEX
  8
ASHADE
  5
3741
 10
5.47573
 20
-0.00208856
 30
4.70791
  70
    32
  0
VERTEX
  8
ASHADE
  5
3742
 10
5.48749
 20
-0.00208856
 30
4.69703
  70
    32
  0
VERTEX
  8
ASHADE
  5
3743
 10
5.49977
 20
-0.00208856
 30
4.68673
  70
    32
  0
VERTEX
  8
ASHADE
  5
3744
 10
5.51257
 20
-0.00208856
 30
4.67703
  70
    32
  0
VERTEX
  8
ASHADE
  5
3745
 10
5.52583
 20
-0.00208856
 30
4.66795
  70
    32
  0
VERTEX
  8
ASHADE
  5
3746
 10
5.53955
 20
-0.00208856
 30
4.65951
  70
    32
  0
VERTEX
  8
ASHADE
  5
3747
 10
5.55366
 20
-0.00208856
 30
4.65174
  70
    32
  0
VERTEX
  8
ASHADE
  5
3748
 10
5.56816
 20
-0.00208856
 30
4.64465
  70
    32
  0
VERTEX
  8
ASHADE
  5
3749
 10
5.58300
 20
-0.00208856
 30
4.63826
  70
    32
  0
VERTEX
  8
ASHADE
  5
374A
 10
5.59814
 20
-0.00208856
 30
4.63258
  70
    32
  0
VERTEX
  8
ASHADE
  5
374B
 10
5.61355
 20
-0.00208856
 30
4.62763
  70
    32
  0
VERTEX
  8
ASHADE
  5
374C
 10
5.62919
 20
-0.00208856
 30
4.62343
  70
    32
  0
VERTEX
  8
ASHADE
  5
374D
 10
5.64502
 20
-0.00208856
 30
4.61997
  70
    32
  0
VERTEX
  8
ASHADE
  5
374E
 10
5.66101
 20
-0.00208856
 30
4.61728
  70
    32
  0
VERTEX
  8
ASHADE
  5
374F
 10
5.67712
 20
-0.00208856
 30
4.61535
  70
    32
  0
VERTEX
  8
ASHADE
  5
3750
 10
5.69330
 20
-0.00208856
 30
4.61419
  70
    32
  0
VERTEX
  8
ASHADE
  5
3751
 10
5.70952
 20
-0.00208856
 30
4.61380
  70
    32
  0
VERTEX
  8
ASHADE
  5
3752
 10
5.72575
 20
-0.00208856
 30
4.61419
  70
    32
  0
VERTEX
  8
ASHADE
  5
3753
 10
5.74193
 20
-0.00208856
 30
4.61535
  70
    32
  0
VERTEX
  8
ASHADE
  5
3754
 10
5.75804
 20
-0.00208856
 30
4.61728
  70
    32
  0
VERTEX
  8
ASHADE
  5
3755
 10
5.77403
 20
-0.00208856
 30
4.61997
  70
    32
  0
VERTEX
  8
ASHADE
  5
3756
 10
5.78986
 20
-0.00208856
 30
4.62343
  70
    32
  0
VERTEX
  8
ASHADE
  5
3757
 10
5.80550
 20
-0.00208856
 30
4.62763
  70
    32
  0
VERTEX
  8
ASHADE
  5
3758
 10
5.82091
 20
-0.00208856
 30
4.63258
  70
    32
  0
VERTEX
  8
ASHADE
  5
3759
 10
5.83605
 20
-0.00208856
 30
4.63826
  70
    32
  0
VERTEX
  8
ASHADE
  5
375A
 10
5.85089
 20
-0.00208856
 30
4.64465
  70
    32
  0
VERTEX
  8
ASHADE
  5
375B
 10
5.86538
 20
-0.00208856
 30
4.65174
  70
    32
  0
VERTEX
  8
ASHADE
  5
375C
 10
5.87950
 20
-0.00208856
 30
4.65951
  70
    32
  0
VERTEX
  8
ASHADE
  5
375D
 10
5.89321
 20
-0.00208856
 30
4.66795
  70
    32
  0
VERTEX
  8
ASHADE
  5
375E
 10
5.90648
 20
-0.00208856
 30
4.67703
  70
    32
  0
VERTEX
  8
ASHADE
  5
375F
 10
5.91927
 20
-0.00208856
 30
4.68673
  70
    32
  0
VERTEX
  8
ASHADE
  5
3760
 10
5.93156
 20
-0.00208856
 30
4.69703
  70
    32
  0
VERTEX
  8
ASHADE
  5
3761
 10
5.94331
 20
-0.00208856
 30
4.70791
  70
    32
  0
VERTEX
  8
ASHADE
  5
3762
 10
5.95450
 20
-0.00208856
 30
4.71933
  70
    32
  0
VERTEX
  8
ASHADE
  5
3763
 10
5.96510
 20
-0.00208856
 30
4.73127
  70
    32
  0
VERTEX
  8
ASHADE
  5
3764
 10
5.97509
 20
-0.00208856
 30
4.74370
  70
    32
  0
VERTEX
  8
ASHADE
  5
3765
 10
5.98443
 20
-0.00208856
 30
4.75660
  70
    32
  0
VERTEX
  8
ASHADE
  5
3766
 10
5.99312
 20
-0.00208856
 30
4.76992
  70
    32
  0
VERTEX
  8
ASHADE
  5
3767
 10
6.00111
 20
-0.00208856
 30
4.78364
  70
    32
  0
VERTEX
  8
ASHADE
  5
3768
 10
6.00841
 20
-0.00208856
 30
4.79773
  70
    32
  0
VERTEX
  8
ASHADE
  5
3769
 10
6.01499
 20
-0.00208856
 30
4.81215
  70
    32
  0
VERTEX
  8
ASHADE
  5
376A
 10
6.02083
 20
-0.00208856
 30
4.82686
  70
    32
  0
VERTEX
  8
ASHADE
  5
376B
 10
6.02592
 20
-0.00208856
 30
4.84184
  70
    32
  0
VERTEX
  8
ASHADE
  5
376C
 10
6.03025
 20
-0.00208856
 30
4.85703
  70
    32
  0
VERTEX
  8
ASHADE
  5
376D
 10
6.03380
 20
-0.00208856
 30
4.87242
  70
    32
  0
VERTEX
  8
ASHADE
  5
376E
 10
6.03658
 20
-0.00208856
 30
4.88796
  70
    32
  0
VERTEX
  8
ASHADE
  5
376F
 10
6.03856
 20
-0.00208856
 30
4.90361
  70
    32
  0
VERTEX
  8
ASHADE
  5
3770
 10
6.03976
 20
-0.00208856
 30
4.91934
  70
    32
  0
VERTEX
  8
ASHADE
  5
3771
 10
6.04015
 20
-0.00208856
 30
4.93511
  70
    32
  0
VERTEX
  8
ASHADE
  5
3772
 10
6.03976
 20
-0.00208856
 30
4.95087
  70
    32
  0
VERTEX
  8
ASHADE
  5
3773
 10
6.03856
 20
-0.00208856
 30
4.96660
  70
    32
  0
VERTEX
  8
ASHADE
  5
3774
 10
6.03658
 20
-0.00208856
 30
4.98225
  70
    32
  0
VERTEX
  8
ASHADE
  5
3775
 10
6.03380
 20
-0.00208856
 30
4.99779
  70
    32
  0
VERTEX
  8
ASHADE
  5
3776
 10
6.03025
 20
-0.00208856
 30
5.01318
  70
    32
  0
VERTEX
  8
ASHADE
  5
3777
 10
6.02592
 20
-0.00208856
 30
5.02838
  70
    32
  0
VERTEX
  8
ASHADE
  5
3778
 10
6.02083
 20
-0.00208856
 30
5.04335
  70
    32
  0
VERTEX
  8
ASHADE
  5
3779
 10
6.01499
 20
-0.00208856
 30
5.05806
  70
    32
  0
VERTEX
  8
ASHADE
  5
377A
 10
6.00841
 20
-0.00208856
 30
5.07248
  70
    32
  0
VERTEX
  8
ASHADE
  5
377B
 10
6.00111
 20
-0.00208856
 30
5.08657
  70
    32
  0
VERTEX
  8
ASHADE
  5
377C
 10
5.99312
 20
-0.00208856
 30
5.10029
  70
    32
  0
VERTEX
  8
ASHADE
  5
377D
 10
5.98443
 20
-0.00208856
 30
5.11361
  70
    32
  0
VERTEX
  8
ASHADE
  5
377E
 10
5.97509
 20
-0.00208856
 30
5.12651
  70
    32
  0
VERTEX
  8
ASHADE
  5
377F
 10
5.96510
 20
-0.00208856
 30
5.13894
  70
    32
  0
VERTEX
  8
ASHADE
  5
3780
 10
5.95450
 20
-0.00208856
 30
5.15088
  70
    32
  0
VERTEX
  8
ASHADE
  5
3781
 10
5.94331
 20
-0.00208856
 30
5.16230
  70
    32
  0
VERTEX
  8
ASHADE
  5
3782
 10
5.93156
 20
-0.00208856
 30
5.17318
  70
    32
  0
VERTEX
  8
ASHADE
  5
3783
 10
5.91927
 20
-0.00208856
 30
5.18348
  70
    32
  0
VERTEX
  8
ASHADE
  5
3784
 10
5.90648
 20
-0.00208856
 30
5.19318
  70
    32
  0
VERTEX
  8
ASHADE
  5
3785
 10
5.89321
 20
-0.00208856
 30
5.20226
  70
    32
  0
VERTEX
  8
ASHADE
  5
3786
 10
5.87950
 20
-0.00208856
 30
5.21070
  70
    32
  0
VERTEX
  8
ASHADE
  5
3787
 10
5.86538
 20
-0.00208856
 30
5.21847
  70
    32
  0
VERTEX
  8
ASHADE
  5
3788
 10
5.85089
 20
-0.00208856
 30
5.22556
  70
    32
  0
VERTEX
  8
ASHADE
  5
3789
 10
5.83605
 20
-0.00208856
 30
5.23195
  70
    32
  0
VERTEX
  8
ASHADE
  5
378A
 10
5.82091
 20
-0.00208856
 30
5.23763
  70
    32
  0
VERTEX
  8
ASHADE
  5
378B
 10
5.80550
 20
-0.00208856
 30
5.24258
  70
    32
  0
VERTEX
  8
ASHADE
  5
378C
 10
5.78986
 20
-0.00208856
 30
5.24678
  70
    32
  0
VERTEX
  8
ASHADE
  5
378D
 10
5.77403
 20
-0.00208856
 30
5.25024
  70
    32
  0
VERTEX
  8
ASHADE
  5
378E
 10
5.75804
 20
-0.00208856
 30
5.25293
  70
    32
  0
VERTEX
  8
ASHADE
  5
378F
 10
5.74193
 20
-0.00208856
 30
5.25487
  70
    32
  0
VERTEX
  8
ASHADE
  5
3790
 10
5.72575
 20
-0.00208856
 30
5.25603
  70
    32
  0
VERTEX
  8
ASHADE
  5
3791
 10
5.70952
 20
-0.00208856
 30
5.25641
  70
    32
  0
VERTEX
  8
ASHADE
  5
3792
 10
5.69330
 20
-0.00208856
 30
5.25603
  70
    32
  0
VERTEX
  8
ASHADE
  5
3793
 10
5.67712
 20
-0.00208856
 30
5.25487
  70
    32
  0
VERTEX
  8
ASHADE
  5
3794
 10
5.66101
 20
-0.00208856
 30
5.25293
  70
    32
  0
VERTEX
  8
ASHADE
  5
3795
 10
5.64502
 20
-0.00208856
 30
5.25024
  70
    32
  0
VERTEX
  8
ASHADE
  5
3796
 10
5.62919
 20
-0.00208856
 30
5.24678
  70
    32
  0
VERTEX
  8
ASHADE
  5
3797
 10
5.61355
 20
-0.00208856
 30
5.24258
  70
    32
  0
VERTEX
  8
ASHADE
  5
3798
 10
5.59814
 20
-0.00208856
 30
5.23763
  70
    32
  0
VERTEX
  8
ASHADE
  5
3799
 10
5.58300
 20
-0.00208856
 30
5.23195
  70
    32
  0
VERTEX
  8
ASHADE
  5
379A
 10
5.56816
 20
-0.00208856
 30
5.22556
  70
    32
  0
VERTEX
  8
ASHADE
  5
379B
 10
5.55366
 20
-0.00208856
 30
5.21847
  70
    32
  0
VERTEX
  8
ASHADE
  5
379C
 10
5.53955
 20
-0.00208856
 30
5.21070
  70
    32
  0
VERTEX
  8
ASHADE
  5
379D
 10
5.52583
 20
-0.00208856
 30
5.20226
  70
    32
  0
VERTEX
  8
ASHADE
  5
379E
 10
5.51257
 20
-0.00208856
 30
5.19318
  70
    32
  0
VERTEX
  8
ASHADE
  5
379F
 10
5.49977
 20
-0.00208856
 30
5.18348
  70
    32
  0
VERTEX
  8
ASHADE
  5
37A0
 10
5.48749
 20
-0.00208856
 30
5.17318
  70
    32
  0
VERTEX
  8
ASHADE
  5
37A1
 10
5.47573
 20
-0.00208856
 30
5.16230
  70
    32
  0
VERTEX
  8
ASHADE
  5
37A2
 10
5.46454
 20
-0.00208856
 30
5.15088
  70
    32
  0
VERTEX
  8
ASHADE
  5
37A3
 10
5.45394
 20
-0.00208856
 30
5.13894
  70
    32
  0
VERTEX
  8
ASHADE
  5
37A4
 10
5.44396
 20
-0.00208856
 30
5.12651
  70
    32
  0
VERTEX
  8
ASHADE
  5
37A5
 10
5.43461
 20
-0.00208856
 30
5.11361
  70
    32
  0
VERTEX
  8
ASHADE
  5
37A6
 10
5.42593
 20
-0.00208856
 30
5.10029
  70
    32
  0
VERTEX
  8
ASHADE
  5
37A7
 10
5.41793
 20
-0.00208856
 30
5.08657
  70
    32
  0
VERTEX
  8
ASHADE
  5
37A8
 10
5.41064
 20
-0.00208856
 30
5.07248
  70
    32
  0
VERTEX
  8
ASHADE
  5
37A9
 10
5.40406
 20
-0.00208856
 30
5.05806
  70
    32
  0
VERTEX
  8
ASHADE
  5
37AA
 10
5.39822
 20
-0.00208856
 30
5.04335
  70
    32
  0
VERTEX
  8
ASHADE
  5
37AB
 10
5.39313
 20
-0.00208856
 30
5.02838
  70
    32
  0
VERTEX
  8
ASHADE
  5
37AC
 10
5.38880
 20
-0.00208856
 30
5.01318
  70
    32
  0
VERTEX
  8
ASHADE
  5
37AD
 10
5.38525
 20
-0.00208856
 30
4.99779
  70
    32
  0
VERTEX
  8
ASHADE
  5
37AE
 10
5.38247
 20
-0.00208856
 30
4.98225
  70
    32
  0
VERTEX
  8
ASHADE
  5
37AF
 10
5.38048
 20
-0.00208856
 30
4.96660
  70
    32
  0
VERTEX
  8
ASHADE
  5
37B0
 10
5.37929
 20
-0.00208856
 30
4.95087
  70
    32
  0
VERTEX
  8
ASHADE
  5
37B1
 10
5.37889
 20
-0.00208856
 30
4.93511
  70
    32
  0
SEQEND
  8
ASHADE
  5
37B2
  0
POLYLINE
  5
3542
  8
ASHADE
 10
5.1871228658654998
 20
-0.0020816997885701
 30
4.9504815328106151
 66
     1
 70
     8
  0
VERTEX
  8
ASHADE
  5
37B3
 10
5.18712
 20
-0.00208170
 30
4.95048
  70
    32
  0
VERTEX
  8
ASHADE
  5
37B4
 10
5.18775
 20
-0.00208170
 30
4.92565
  70
    32
  0
VERTEX
  8
ASHADE
  5
37B5
 10
5.18964
 20
-0.00208170
 30
4.90087
  70
    32
  0
VERTEX
  8
ASHADE
  5
37B6
 10
5.19278
 20
-0.00208170
 30
4.87622
  70
    32
  0
VERTEX
  8
ASHADE
  5
37B7
 10
5.19716
 20
-0.00208170
 30
4.85174
  70
    32
  0
VERTEX
  8
ASHADE
  5
37B8
 10
5.20278
 20
-0.00208170
 30
4.82751
  70
    32
  0
VERTEX
  8
ASHADE
  5
37B9
 10
5.20962
 20
-0.00208170
 30
4.80356
  70
    32
  0
VERTEX
  8
ASHADE
  5
37BA
 10
5.21766
 20
-0.00208170
 30
4.77998
  70
    32
  0
VERTEX
  8
ASHADE
  5
37BB
 10
5.22689
 20
-0.00208170
 30
4.75680
  70
    32
  0
VERTEX
  8
ASHADE
  5
37BC
 10
5.23728
 20
-0.00208170
 30
4.73409
  70
    32
  0
VERTEX
  8
ASHADE
  5
37BD
 10
5.24881
 20
-0.00208170
 30
4.71190
  70
    32
  0
VERTEX
  8
ASHADE
  5
37BE
 10
5.26145
 20
-0.00208170
 30
4.69029
  70
    32
  0
VERTEX
  8
ASHADE
  5
37BF
 10
5.27516
 20
-0.00208170
 30
4.66930
  70
    32
  0
VERTEX
  8
ASHADE
  5
37C0
 10
5.28993
 20
-0.00208170
 30
4.64899
  70
    32
  0
VERTEX
  8
ASHADE
  5
37C1
 10
5.30570
 20
-0.00208170
 30
4.62941
  70
    32
  0
VERTEX
  8
ASHADE
  5
37C2
 10
5.32245
 20
-0.00208170
 30
4.61060
  70
    32
  0
VERTEX
  8
ASHADE
  5
37C3
 10
5.34013
 20
-0.00208170
 30
4.59260
  70
    32
  0
VERTEX
  8
ASHADE
  5
37C4
 10
5.35870
 20
-0.00208170
 30
4.57547
  70
    32
  0
VERTEX
  8
ASHADE
  5
37C5
 10
5.37812
 20
-0.00208170
 30
4.55925
  70
    32
  0
VERTEX
  8
ASHADE
  5
37C6
 10
5.39833
 20
-0.00208170
 30
4.54397
  70
    32
  0
VERTEX
  8
ASHADE
  5
37C7
 10
5.41929
 20
-0.00208170
 30
4.52966
  70
    32
  0
VERTEX
  8
ASHADE
  5
37C8
 10
5.44096
 20
-0.00208170
 30
4.51637
  70
    32
  0
VERTEX
  8
ASHADE
  5
37C9
 10
5.46327
 20
-0.00208170
 30
4.50413
  70
    32
  0
VERTEX
  8
ASHADE
  5
37CA
 10
5.48617
 20
-0.00208170
 30
4.49296
  70
    32
  0
VERTEX
  8
ASHADE
  5
37CB
 10
5.50961
 20
-0.00208170
 30
4.48289
  70
    32
  0
VERTEX
  8
ASHADE
  5
37CC
 10
5.53353
 20
-0.00208170
 30
4.47395
  70
    32
  0
VERTEX
  8
ASHADE
  5
37CD
 10
5.55788
 20
-0.00208170
 30
4.46616
  70
    32
  0
VERTEX
  8
ASHADE
  5
37CE
 10
5.58259
 20
-0.00208170
 30
4.45953
  70
    32
  0
VERTEX
  8
ASHADE
  5
37CF
 10
5.60761
 20
-0.00208170
 30
4.45409
  70
    32
  0
VERTEX
  8
ASHADE
  5
37D0
 10
5.63287
 20
-0.00208170
 30
4.44984
  70
    32
  0
VERTEX
  8
ASHADE
  5
37D1
 10
5.65832
 20
-0.00208170
 30
4.44680
  70
    32
  0
VERTEX
  8
ASHADE
  5
37D2
 10
5.68389
 20
-0.00208170
 30
4.44498
  70
    32
  0
VERTEX
  8
ASHADE
  5
37D3
 10
5.70952
 20
-0.00208170
 30
4.44437
  70
    32
  0
VERTEX
  8
ASHADE
  5
37D4
 10
5.73516
 20
-0.00208170
 30
4.44498
  70
    32
  0
VERTEX
  8
ASHADE
  5
37D5
 10
5.76073
 20
-0.00208170
 30
4.44680
  70
    32
  0
VERTEX
  8
ASHADE
  5
37D6
 10
5.78618
 20
-0.00208170
 30
4.44984
  70
    32
  0
VERTEX
  8
ASHADE
  5
37D7
 10
5.81144
 20
-0.00208170
 30
4.45409
  70
    32
  0
VERTEX
  8
ASHADE
  5
37D8
 10
5.83646
 20
-0.00208170
 30
4.45953
  70
    32
  0
VERTEX
  8
ASHADE
  5
37D9
 10
5.86117
 20
-0.00208170
 30
4.46616
  70
    32
  0
VERTEX
  8
ASHADE
  5
37DA
 10
5.88551
 20
-0.00208170
 30
4.47395
  70
    32
  0
VERTEX
  8
ASHADE
  5
37DB
 10
5.90944
 20
-0.00208170
 30
4.48289
  70
    32
  0
VERTEX
  8
ASHADE
  5
37DC
 10
5.93288
 20
-0.00208170
 30
4.49296
  70
    32
  0
VERTEX
  8
ASHADE
  5
37DD
 10
5.95578
 20
-0.00208170
 30
4.50413
  70
    32
  0
VERTEX
  8
ASHADE
  5
37DE
 10
5.97809
 20
-0.00208170
 30
4.51637
  70
    32
  0
VERTEX
  8
ASHADE
  5
37DF
 10
5.99975
 20
-0.00208170
 30
4.52966
  70
    32
  0
VERTEX
  8
ASHADE
  5
37E0
 10
6.02072
 20
-0.00208170
 30
4.54397
  70
    32
  0
VERTEX
  8
ASHADE
  5
37E1
 10
6.04093
 20
-0.00208170
 30
4.55925
  70
    32
  0
VERTEX
  8
ASHADE
  5
37E2
 10
6.06035
 20
-0.00208170
 30
4.57547
  70
    32
  0
VERTEX
  8
ASHADE
  5
37E3
 10
6.07892
 20
-0.00208170
 30
4.59260
  70
    32
  0
VERTEX
  8
ASHADE
  5
37E4
 10
6.09660
 20
-0.00208170
 30
4.61060
  70
    32
  0
VERTEX
  8
ASHADE
  5
37E5
 10
6.11334
 20
-0.00208170
 30
4.62941
  70
    32
  0
VERTEX
  8
ASHADE
  5
37E6
 10
6.12912
 20
-0.00208170
 30
4.64899
  70
    32
  0
VERTEX
  8
ASHADE
  5
37E7
 10
6.14388
 20
-0.00208170
 30
4.66930
  70
    32
  0
VERTEX
  8
ASHADE
  5
37E8
 10
6.15760
 20
-0.00208170
 30
4.69029
  70
    32
  0
VERTEX
  8
ASHADE
  5
37E9
 10
6.17024
 20
-0.00208170
 30
4.71190
  70
    32
  0
VERTEX
  8
ASHADE
  5
37EA
 10
6.18177
 20
-0.00208170
 30
4.73409
  70
    32
  0
VERTEX
  8
ASHADE
  5
37EB
 10
6.19216
 20
-0.00208170
 30
4.75680
  70
    32
  0
VERTEX
  8
ASHADE
  5
37EC
 10
6.20139
 20
-0.00208170
 30
4.77998
  70
    32
  0
VERTEX
  8
ASHADE
  5
37ED
 10
6.20943
 20
-0.00208170
 30
4.80356
  70
    32
  0
VERTEX
  8
ASHADE
  5
37EE
 10
6.21627
 20
-0.00208170
 30
4.82751
  70
    32
  0
VERTEX
  8
ASHADE
  5
37EF
 10
6.22189
 20
-0.00208170
 30
4.85174
  70
    32
  0
VERTEX
  8
ASHADE
  5
37F0
 10
6.22627
 20
-0.00208170
 30
4.87622
  70
    32
  0
VERTEX
  8
ASHADE
  5
37F1
 10
6.22941
 20
-0.00208170
 30
4.90087
  70
    32
  0
VERTEX
  8
ASHADE
  5
37F2
 10
6.23129
 20
-0.00208170
 30
4.92565
  70
    32
  0
VERTEX
  8
ASHADE
  5
37F3
 10
6.23192
 20
-0.00208170
 30
4.95048
  70
    32
  0
VERTEX
  8
ASHADE
  5
37F4
 10
6.23129
 20
-0.00208170
 30
4.97532
  70
    32
  0
VERTEX
  8
ASHADE
  5
37F5
 10
6.22941
 20
-0.00208170
 30
5.00009
  70
    32
  0
VERTEX
  8
ASHADE
  5
37F6
 10
6.22627
 20
-0.00208170
 30
5.02474
  70
    32
  0
VERTEX
  8
ASHADE
  5
37F7
 10
6.22189
 20
-0.00208170
 30
5.04922
  70
    32
  0
VERTEX
  8
ASHADE
  5
37F8
 10
6.21627
 20
-0.00208170
 30
5.07346
  70
    32
  0
VERTEX
  8
ASHADE
  5
37F9
 10
6.20943
 20
-0.00208170
 30
5.09740
  70
    32
  0
VERTEX
  8
ASHADE
  5
37FA
 10
6.20139
 20
-0.00208170
 30
5.12099
  70
    32
  0
VERTEX
  8
ASHADE
  5
37FB
 10
6.19216
 20
-0.00208170
 30
5.14416
  70
    32
  0
VERTEX
  8
ASHADE
  5
37FC
 10
6.18177
 20
-0.00208170
 30
5.16687
  70
    32
  0
VERTEX
  8
ASHADE
  5
37FD
 10
6.17024
 20
-0.00208170
 30
5.18906
  70
    32
  0
VERTEX
  8
ASHADE
  5
37FE
 10
6.15760
 20
-0.00208170
 30
5.21068
  70
    32
  0
VERTEX
  8
ASHADE
  5
37FF
 10
6.14388
 20
-0.00208170
 30
5.23166
  70
    32
  0
VERTEX
  8
ASHADE
  5
3800
 10
6.12912
 20
-0.00208170
 30
5.25197
  70
    32
  0
VERTEX
  8
ASHADE
  5
3801
 10
6.11334
 20
-0.00208170
 30
5.27156
  70
    32
  0
VERTEX
  8
ASHADE
  5
3802
 10
6.09660
 20
-0.00208170
 30
5.29037
  70
    32
  0
VERTEX
  8
ASHADE
  5
3803
 10
6.07892
 20
-0.00208170
 30
5.30836
  70
    32
  0
VERTEX
  8
ASHADE
  5
3804
 10
6.06035
 20
-0.00208170
 30
5.32549
  70
    32
  0
VERTEX
  8
ASHADE
  5
3805
 10
6.04093
 20
-0.00208170
 30
5.34171
  70
    32
  0
VERTEX
  8
ASHADE
  5
3806
 10
6.02072
 20
-0.00208170
 30
5.35700
  70
    32
  0
VERTEX
  8
ASHADE
  5
3807
 10
5.99975
 20
-0.00208170
 30
5.37130
  70
    32
  0
VERTEX
  8
ASHADE
  5
3808
 10
5.97809
 20
-0.00208170
 30
5.38459
  70
    32
  0
VERTEX
  8
ASHADE
  5
3809
 10
5.95578
 20
-0.00208170
 30
5.39684
  70
    32
  0
VERTEX
  8
ASHADE
  5
380A
 10
5.93288
 20
-0.00208170
 30
5.40800
  70
    32
  0
VERTEX
  8
ASHADE
  5
380B
 10
5.90944
 20
-0.00208170
 30
5.41807
  70
    32
  0
VERTEX
  8
ASHADE
  5
380C
 10
5.88551
 20
-0.00208170
 30
5.42701
  70
    32
  0
VERTEX
  8
ASHADE
  5
380D
 10
5.86117
 20
-0.00208170
 30
5.43480
  70
    32
  0
VERTEX
  8
ASHADE
  5
380E
 10
5.83646
 20
-0.00208170
 30
5.44143
  70
    32
  0
VERTEX
  8
ASHADE
  5
380F
 10
5.81144
 20
-0.00208170
 30
5.44687
  70
    32
  0
VERTEX
  8
ASHADE
  5
3810
 10
5.78618
 20
-0.00208170
 30
5.45112
  70
    32
  0
VERTEX
  8
ASHADE
  5
3811
 10
5.76073
 20
-0.00208170
 30
5.45416
  70
    32
  0
VERTEX
  8
ASHADE
  5
3812
 10
5.73516
 20
-0.00208170
 30
5.45599
  70
    32
  0
VERTEX
  8
ASHADE
  5
3813
 10
5.70952
 20
-0.00208170
 30
5.45660
  70
    32
  0
VERTEX
  8
ASHADE
  5
3814
 10
5.68389
 20
-0.00208170
 30
5.45599
  70
    32
  0
VERTEX
  8
ASHADE
  5
3815
 10
5.65832
 20
-0.00208170
 30
5.45416
  70
    32
  0
VERTEX
  8
ASHADE
  5
3816
 10
5.63287
 20
-0.00208170
 30
5.45112
  70
    32
  0
VERTEX
  8
ASHADE
  5
3817
 10
5.60761
 20
-0.00208170
 30
5.44687
  70
    32
  0
VERTEX
  8
ASHADE
  5
3818
 10
5.58259
 20
-0.00208170
 30
5.44143
  70
    32
  0
VERTEX
  8
ASHADE
  5
3819
 10
5.55788
 20
-0.00208170
 30
5.43480
  70
    32
  0
VERTEX
  8
ASHADE
  5
381A
 10
5.53353
 20
-0.00208170
 30
5.42701
  70
    32
  0
VERTEX
  8
ASHADE
  5
381B
 10
5.50961
 20
-0.00208170
 30
5.41807
  70
    32
  0
VERTEX
  8
ASHADE
  5
381C
 10
5.48617
 20
-0.00208170
 30
5.40800
  70
    32
  0
VERTEX
  8
ASHADE
  5
381D
 10
5.46327
 20
-0.00208170
 30
5.39684
  70
    32
  0
VERTEX
  8
ASHADE
  5
381E
 10
5.44096
 20
-0.00208170
 30
5.38459
  70
    32
  0
VERTEX
  8
ASHADE
  5
381F
 10
5.41929
 20
-0.00208170
 30
5.37130
  70
    32
  0
VERTEX
  8
ASHADE
  5
3820
 10
5.39833
 20
-0.00208170
 30
5.35700
  70
    32
  0
VERTEX
  8
ASHADE
  5
3821
 10
5.37812
 20
-0.00208170
 30
5.34171
  70
    32
  0
VERTEX
  8
ASHADE
  5
3822
 10
5.35870
 20
-0.00208170
 30
5.32549
  70
    32
  0
VERTEX
  8
ASHADE
  5
3823
 10
5.34013
 20
-0.00208170
 30
5.30836
  70
    32
  0
VERTEX
  8
ASHADE
  5
3824
 10
5.32245
 20
-0.00208170
 30
5.29037
  70
    32
  0
VERTEX
  8
ASHADE
  5
3825
 10
5.30570
 20
-0.00208170
 30
5.27156
  70
    32
  0
VERTEX
  8
ASHADE
  5
3826
 10
5.28993
 20
-0.00208170
 30
5.25197
  70
    32
  0
VERTEX
  8
ASHADE
  5
3827
 10
5.27516
 20
-0.00208170
 30
5.23166
  70
    32
  0
VERTEX
  8
ASHADE
  5
3828
 10
5.26145
 20
-0.00208170
 30
5.21068
  70
    32
  0
VERTEX
  8
ASHADE
  5
3829
 10
5.24881
 20
-0.00208170
 30
5.18906
  70
    32
  0
VERTEX
  8
ASHADE
  5
382A
 10
5.23728
 20
-0.00208170
 30
5.16687
  70
    32
  0
VERTEX
  8
ASHADE
  5
382B
 10
5.22689
 20
-0.00208170
 30
5.14416
  70
    32
  0
VERTEX
  8
ASHADE
  5
382C
 10
5.21766
 20
-0.00208170
 30
5.12099
  70
    32
  0
VERTEX
  8
ASHADE
  5
382D
 10
5.20962
 20
-0.00208170
 30
5.09740
  70
    32
  0
VERTEX
  8
ASHADE
  5
382E
 10
5.20278
 20
-0.00208170
 30
5.07346
  70
    32
  0
VERTEX
  8
ASHADE
  5
382F
 10
5.19716
 20
-0.00208170
 30
5.04922
  70
    32
  0
VERTEX
  8
ASHADE
  5
3830
 10
5.19278
 20
-0.00208170
 30
5.02474
  70
    32
  0
VERTEX
  8
ASHADE
  5
3831
 10
5.18964
 20
-0.00208170
 30
5.00009
  70
    32
  0
VERTEX
  8
ASHADE
  5
3832
 10
5.18775
 20
-0.00208170
 30
4.97532
  70
    32
  0
VERTEX
  8
ASHADE
  5
3833
 10
5.18712
 20
-0.00208170
 30
4.95048
  70
    32
  0
SEQEND
  8
ASHADE
  5
3834
  0
POLYLINE
  5
3543
  8
ASHADE
 10
0.5406883497728656
 20
-0.0100090430229905
 30
6.0347193658052882
 66
     1
 70
     8
  0
VERTEX
  8
ASHADE
  5
3835
 10
0.540688
 20
-0.0100090
 30
6.03472
  70
    32
  0
VERTEX
  8
ASHADE
  5
3836
 10
0.541224
 20
-0.0100090
 30
6.02858
  70
    32
  0
VERTEX
  8
ASHADE
  5
3837
 10
0.542830
 20
-0.0100090
 30
6.02245
  70
    32
  0
VERTEX
  8
ASHADE
  5
3838
 10
0.545500
 20
-0.0100090
 30
6.01635
  70
    32
  0
VERTEX
  8
ASHADE
  5
3839
 10
0.549230
 20
-0.0100090
 30
6.01030
  70
    32
  0
VERTEX
  8
ASHADE
  5
383A
 10
0.554009
 20
-0.0100090
 30
6.00431
  70
    32
  0
VERTEX
  8
ASHADE
  5
383B
 10
0.559827
 20
-0.0100090
 30
5.99839
  70
    32
  0
VERTEX
  8
ASHADE
  5
383C
 10
0.566670
 20
-0.0100090
 30
5.99255
  70
    32
  0
VERTEX
  8
ASHADE
  5
383D
 10
0.574520
 20
-0.0100090
 30
5.98682
  70
    32
  0
VERTEX
  8
ASHADE
  5
383E
 10
0.583359
 20
-0.0100090
 30
5.98121
  70
    32
  0
VERTEX
  8
ASHADE
  5
383F
 10
0.593166
 20
-0.0100090
 30
5.97572
  70
    32
  0
VERTEX
  8
ASHADE
  5
3840
 10
0.603918
 20
-0.0100090
 30
5.97038
  70
    32
  0
VERTEX
  8
ASHADE
  5
3841
 10
0.615587
 20
-0.0100090
 30
5.96519
  70
    32
  0
VERTEX
  8
ASHADE
  5
3842
 10
0.628147
 20
-0.0100090
 30
5.96017
  70
    32
  0
VERTEX
  8
ASHADE
  5
3843
 10
0.641566
 20
-0.0100090
 30
5.95532
  70
    32
  0
VERTEX
  8
ASHADE
  5
3844
 10
0.655813
 20
-0.0100090
 30
5.95067
  70
    32
  0
VERTEX
  8
ASHADE
  5
3845
 10
0.670853
 20
-0.0100090
 30
5.94623
  70
    32
  0
VERTEX
  8
ASHADE
  5
3846
 10
0.686650
 20
-0.0100090
 30
5.94199
  70
    32
  0
VERTEX
  8
ASHADE
  5
3847
 10
0.703166
 20
-0.0100090
 30
5.93798
  70
    32
  0
VERTEX
  8
ASHADE
  5
3848
 10
0.720361
 20
-0.0100090
 30
5.93420
  70
    32
  0
VERTEX
  8
ASHADE
  5
3849
 10
0.738194
 20
-0.0100090
 30
5.93067
  70
    32
  0
VERTEX
  8
ASHADE
  5
384A
 10
0.756621
 20
-0.0100090
 30
5.92738
  70
    32
  0
VERTEX
  8
ASHADE
  5
384B
 10
0.775599
 20
-0.0100090
 30
5.92436
  70
    32
  0
VERTEX
  8
ASHADE
  5
384C
 10
0.795081
 20
-0.0100090
 30
5.92160
  70
    32
  0
VERTEX
  8
ASHADE
  5
384D
 10
0.815021
 20
-0.0100090
 30
5.91911
  70
    32
  0
VERTEX
  8
ASHADE
  5
384E
 10
0.835371
 20
-0.0100090
 30
5.91690
  70
    32
  0
VERTEX
  8
ASHADE
  5
384F
 10
0.856081
 20
-0.0100090
 30
5.91498
  70
    32
  0
VERTEX
  8
ASHADE
  5
3850
 10
0.877102
 20
-0.0100090
 30
5.91334
  70
    32
  0
VERTEX
  8
ASHADE
  5
3851
 10
0.898384
 20
-0.0100090
 30
5.91200
  70
    32
  0
VERTEX
  8
ASHADE
  5
3852
 10
0.919874
 20
-0.0100090
 30
5.91095
  70
    32
  0
VERTEX
  8
ASHADE
  5
3853
 10
0.941521
 20
-0.0100090
 30
5.91020
  70
    32
  0
VERTEX
  8
ASHADE
  5
3854
 10
0.963273
 20
-0.0100090
 30
5.90975
  70
    32
  0
VERTEX
  8
ASHADE
  5
3855
 10
0.985077
 20
-0.0100090
 30
5.90960
  70
    32
  0
VERTEX
  8
ASHADE
  5
3856
 10
1.00688
 20
-0.0100090
 30
5.90976
  70
    32
  0
VERTEX
  8
ASHADE
  5
3857
 10
1.02863
 20
-0.0100090
 30
5.91021
  70
    32
  0
VERTEX
  8
ASHADE
  5
3858
 10
1.05028
 20
-0.0100090
 30
5.91096
  70
    32
  0
VERTEX
  8
ASHADE
  5
3859
 10
1.07177
 20
-0.0100090
 30
5.91202
  70
    32
  0
VERTEX
  8
ASHADE
  5
385A
 10
1.09305
 20
-0.0100090
 30
5.91337
  70
    32
  0
VERTEX
  8
ASHADE
  5
385B
 10
1.11407
 20
-0.0100090
 30
5.91501
  70
    32
  0
VERTEX
  8
ASHADE
  5
385C
 10
1.13478
 20
-0.0100090
 30
5.91694
  70
    32
  0
VERTEX
  8
ASHADE
  5
385D
 10
1.15513
 20
-0.0100090
 30
5.91915
  70
    32
  0
VERTEX
  8
ASHADE
  5
385E
 10
1.17507
 20
-0.0100090
 30
5.92164
  70
    32
  0
VERTEX
  8
ASHADE
  5
385F
 10
1.19455
 20
-0.0100090
 30
5.92441
  70
    32
  0
VERTEX
  8
ASHADE
  5
3860
 10
1.21353
 20
-0.0100090
 30
5.92744
  70
    32
  0
VERTEX
  8
ASHADE
  5
3861
 10
1.23196
 20
-0.0100090
 30
5.93073
  70
    32
  0
VERTEX
  8
ASHADE
  5
3862
 10
1.24979
 20
-0.0100090
 30
5.93427
  70
    32
  0
VERTEX
  8
ASHADE
  5
3863
 10
1.26698
 20
-0.0100090
 30
5.93805
  70
    32
  0
VERTEX
  8
ASHADE
  5
3864
 10
1.28350
 20
-0.0100090
 30
5.94206
  70
    32
  0
VERTEX
  8
ASHADE
  5
3865
 10
1.29929
 20
-0.0100090
 30
5.94630
  70
    32
  0
VERTEX
  8
ASHADE
  5
3866
 10
1.31433
 20
-0.0100090
 30
5.95075
  70
    32
  0
VERTEX
  8
ASHADE
  5
3867
 10
1.32858
 20
-0.0100090
 30
5.95540
  70
    32
  0
VERTEX
  8
ASHADE
  5
3868
 10
1.34200
 20
-0.0100090
 30
5.96025
  70
    32
  0
VERTEX
  8
ASHADE
  5
3869
 10
1.35455
 20
-0.0100090
 30
5.96527
  70
    32
  0
VERTEX
  8
ASHADE
  5
386A
 10
1.36622
 20
-0.0100090
 30
5.97047
  70
    32
  0
VERTEX
  8
ASHADE
  5
386B
 10
1.37697
 20
-0.0100090
 30
5.97581
  70
    32
  0
VERTEX
  8
ASHADE
  5
386C
 10
1.38678
 20
-0.0100090
 30
5.98130
  70
    32
  0
VERTEX
  8
ASHADE
  5
386D
 10
1.39562
 20
-0.0100090
 30
5.98692
  70
    32
  0
VERTEX
  8
ASHADE
  5
386E
 10
1.40347
 20
-0.0100090
 30
5.99265
  70
    32
  0
VERTEX
  8
ASHADE
  5
386F
 10
1.41031
 20
-0.0100090
 30
5.99849
  70
    32
  0
VERTEX
  8
ASHADE
  5
3870
 10
1.41612
 20
-0.0100090
 30
6.00441
  70
    32
  0
VERTEX
  8
ASHADE
  5
3871
 10
1.42090
 20
-0.0100090
 30
6.01040
  70
    32
  0
VERTEX
  8
ASHADE
  5
3872
 10
1.42463
 20
-0.0100090
 30
6.01646
  70
    32
  0
VERTEX
  8
ASHADE
  5
3873
 10
1.42730
 20
-0.0100090
 30
6.02255
  70
    32
  0
VERTEX
  8
ASHADE
  5
3874
 10
1.42890
 20
-0.0100090
 30
6.02868
  70
    32
  0
VERTEX
  8
ASHADE
  5
3875
 10
1.42944
 20
-0.0100090
 30
6.03482
  70
    32
  0
VERTEX
  8
ASHADE
  5
3876
 10
1.42890
 20
-0.0100090
 30
6.04096
  70
    32
  0
VERTEX
  8
ASHADE
  5
3877
 10
1.42730
 20
-0.0100090
 30
6.04709
  70
    32
  0
VERTEX
  8
ASHADE
  5
3878
 10
1.42462
 20
-0.0100090
 30
6.05319
  70
    32
  0
VERTEX
  8
ASHADE
  5
3879
 10
1.42090
 20
-0.0100090
 30
6.05924
  70
    32
  0
VERTEX
  8
ASHADE
  5
387A
 10
1.41612
 20
-0.0100090
 30
6.06524
  70
    32
  0
VERTEX
  8
ASHADE
  5
387B
 10
1.41030
 20
-0.0100090
 30
6.07116
  70
    32
  0
VERTEX
  8
ASHADE
  5
387C
 10
1.40346
 20
-0.0100090
 30
6.07699
  70
    32
  0
VERTEX
  8
ASHADE
  5
387D
 10
1.39560
 20
-0.0100090
 30
6.08272
  70
    32
  0
VERTEX
  8
ASHADE
  5
387E
 10
1.38677
 20
-0.0100090
 30
6.08833
  70
    32
  0
VERTEX
  8
ASHADE
  5
387F
 10
1.37696
 20
-0.0100090
 30
6.09382
  70
    32
  0
VERTEX
  8
ASHADE
  5
3880
 10
1.36621
 20
-0.0100090
 30
6.09917
  70
    32
  0
VERTEX
  8
ASHADE
  5
3881
 10
1.35454
 20
-0.0100090
 30
6.10435
  70
    32
  0
VERTEX
  8
ASHADE
  5
3882
 10
1.34198
 20
-0.0100090
 30
6.10938
  70
    32
  0
VERTEX
  8
ASHADE
  5
3883
 10
1.32856
 20
-0.0100090
 30
6.11422
  70
    32
  0
VERTEX
  8
ASHADE
  5
3884
 10
1.31431
 20
-0.0100090
 30
6.11887
  70
    32
  0
VERTEX
  8
ASHADE
  5
3885
 10
1.29927
 20
-0.0100090
 30
6.12332
  70
    32
  0
VERTEX
  8
ASHADE
  5
3886
 10
1.28347
 20
-0.0100090
 30
6.12755
  70
    32
  0
VERTEX
  8
ASHADE
  5
3887
 10
1.26696
 20
-0.0100090
 30
6.13156
  70
    32
  0
VERTEX
  8
ASHADE
  5
3888
 10
1.24976
 20
-0.0100090
 30
6.13534
  70
    32
  0
VERTEX
  8
ASHADE
  5
3889
 10
1.23193
 20
-0.0100090
 30
6.13887
  70
    32
  0
VERTEX
  8
ASHADE
  5
388A
 10
1.21350
 20
-0.0100090
 30
6.14216
  70
    32
  0
VERTEX
  8
ASHADE
  5
388B
 10
1.19453
 20
-0.0100090
 30
6.14519
  70
    32
  0
VERTEX
  8
ASHADE
  5
388C
 10
1.17504
 20
-0.0100090
 30
6.14795
  70
    32
  0
VERTEX
  8
ASHADE
  5
388D
 10
1.15510
 20
-0.0100090
 30
6.15043
  70
    32
  0
VERTEX
  8
ASHADE
  5
388E
 10
1.13475
 20
-0.0100090
 30
6.15264
  70
    32
  0
VERTEX
  8
ASHADE
  5
388F
 10
1.11404
 20
-0.0100090
 30
6.15457
  70
    32
  0
VERTEX
  8
ASHADE
  5
3890
 10
1.09302
 20
-0.0100090
 30
6.15620
  70
    32
  0
VERTEX
  8
ASHADE
  5
3891
 10
1.07174
 20
-0.0100090
 30
6.15755
  70
    32
  0
VERTEX
  8
ASHADE
  5
3892
 10
1.05025
 20
-0.0100090
 30
6.15859
  70
    32
  0
VERTEX
  8
ASHADE
  5
3893
 10
1.02860
 20
-0.0100090
 30
6.15934
  70
    32
  0
VERTEX
  8
ASHADE
  5
3894
 10
1.00685
 20
-0.0100090
 30
6.15979
  70
    32
  0
VERTEX
  8
ASHADE
  5
3895
 10
0.985048
 20
-0.0100090
 30
6.15994
  70
    32
  0
VERTEX
  8
ASHADE
  5
3896
 10
0.963243
 20
-0.0100090
 30
6.15979
  70
    32
  0
VERTEX
  8
ASHADE
  5
3897
 10
0.941492
 20
-0.0100090
 30
6.15933
  70
    32
  0
VERTEX
  8
ASHADE
  5
3898
 10
0.919845
 20
-0.0100090
 30
6.15858
  70
    32
  0
VERTEX
  8
ASHADE
  5
3899
 10
0.898355
 20
-0.0100090
 30
6.15753
  70
    32
  0
VERTEX
  8
ASHADE
  5
389A
 10
0.877074
 20
-0.0100090
 30
6.15618
  70
    32
  0
VERTEX
  8
ASHADE
  5
389B
 10
0.856053
 20
-0.0100090
 30
6.15454
  70
    32
  0
VERTEX
  8
ASHADE
  5
389C
 10
0.835344
 20
-0.0100090
 30
6.15261
  70
    32
  0
VERTEX
  8
ASHADE
  5
389D
 10
0.814994
 20
-0.0100090
 30
6.15039
  70
    32
  0
VERTEX
  8
ASHADE
  5
389E
 10
0.795055
 20
-0.0100090
 30
6.14790
  70
    32
  0
VERTEX
  8
ASHADE
  5
389F
 10
0.775573
 20
-0.0100090
 30
6.14514
  70
    32
  0
VERTEX
  8
ASHADE
  5
38A0
 10
0.756596
 20
-0.0100090
 30
6.14211
  70
    32
  0
VERTEX
  8
ASHADE
  5
38A1
 10
0.738169
 20
-0.0100090
 30
6.13882
  70
    32
  0
VERTEX
  8
ASHADE
  5
38A2
 10
0.720337
 20
-0.0100090
 30
6.13528
  70
    32
  0
VERTEX
  8
ASHADE
  5
38A3
 10
0.703143
 20
-0.0100090
 30
6.13150
  70
    32
  0
VERTEX
  8
ASHADE
  5
38A4
 10
0.686628
 20
-0.0100090
 30
6.12748
  70
    32
  0
VERTEX
  8
ASHADE
  5
38A5
 10
0.670832
 20
-0.0100090
 30
6.12324
  70
    32
  0
VERTEX
  8
ASHADE
  5
38A6
 10
0.655793
 20
-0.0100090
 30
6.11879
  70
    32
  0
VERTEX
  8
ASHADE
  5
38A7
 10
0.641547
 20
-0.0100090
 30
6.11414
  70
    32
  0
VERTEX
  8
ASHADE
  5
38A8
 10
0.628129
 20
-0.0100090
 30
6.10929
  70
    32
  0
VERTEX
  8
ASHADE
  5
38A9
 10
0.615571
 20
-0.0100090
 30
6.10427
  70
    32
  0
VERTEX
  8
ASHADE
  5
38AA
 10
0.603903
 20
-0.0100090
 30
6.09908
  70
    32
  0
VERTEX
  8
ASHADE
  5
38AB
 10
0.593153
 20
-0.0100090
 30
6.09373
  70
    32
  0
VERTEX
  8
ASHADE
  5
38AC
 10
0.583347
 20
-0.0100090
 30
6.08824
  70
    32
  0
VERTEX
  8
ASHADE
  5
38AD
 10
0.574509
 20
-0.0100090
 30
6.08262
  70
    32
  0
VERTEX
  8
ASHADE
  5
38AE
 10
0.566660
 20
-0.0100090
 30
6.07689
  70
    32
  0
VERTEX
  8
ASHADE
  5
38AF
 10
0.559819
 20
-0.0100090
 30
6.07106
  70
    32
  0
VERTEX
  8
ASHADE
  5
38B0
 10
0.554002
 20
-0.0100090
 30
6.06513
  70
    32
  0
VERTEX
  8
ASHADE
  5
38B1
 10
0.549224
 20
-0.0100090
 30
6.05914
  70
    32
  0
VERTEX
  8
ASHADE
  5
38B2
 10
0.545496
 20
-0.0100090
 30
6.05309
  70
    32
  0
VERTEX
  8
ASHADE
  5
38B3
 10
0.542827
 20
-0.0100090
 30
6.04699
  70
    32
  0
VERTEX
  8
ASHADE
  5
38B4
 10
0.541223
 20
-0.0100090
 30
6.04086
  70
    32
  0
VERTEX
  8
ASHADE
  5
38B5
 10
0.540688
 20
-0.0100090
 30
6.03472
  70
    32
  0
SEQEND
  8
ASHADE
  5
38B6
  0
POLYLINE
  5
3546
  8
ASHADE
 10
1.4296191837600063
 20
-0.009963518306613
 30
6.1159004346479415
 66
     1
 70
     8
  0
VERTEX
  8
ASHADE
  5
38B7
 10
1.42962
 20
-0.00996352
 30
6.11590
  70
    32
  0
VERTEX
  8
ASHADE
  5
38B8
 10
1.44436
 20
-0.00996352
 30
6.11985
  70
    32
  0
VERTEX
  8
ASHADE
  5
38B9
 10
1.45849
 20
-0.00996352
 30
6.12393
  70
    32
  0
VERTEX
  8
ASHADE
  5
38BA
 10
1.47201
 20
-0.00996352
 30
6.12814
  70
    32
  0
VERTEX
  8
ASHADE
  5
38BB
 10
1.48488
 20
-0.00996352
 30
6.13245
  70
    32
  0
VERTEX
  8
ASHADE
  5
38BC
 10
1.49709
 20
-0.00996352
 30
6.13688
  70
    32
  0
VERTEX
  8
ASHADE
  5
38BD
 10
1.50863
 20
-0.00996352
 30
6.14141
  70
    32
  0
VERTEX
  8
ASHADE
  5
38BE
 10
1.51948
 20
-0.00996352
 30
6.14603
  70
    32
  0
VERTEX
  8
ASHADE
  5
38BF
 10
1.52963
 20
-0.00996352
 30
6.15075
  70
    32
  0
VERTEX
  8
ASHADE
  5
38C0
 10
1.53906
 20
-0.00996352
 30
6.15556
  70
    32
  0
VERTEX
  8
ASHADE
  5
38C1
 10
1.54776
 20
-0.00996352
 30
6.16044
  70
    32
  0
VERTEX
  8
ASHADE
  5
38C2
 10
1.55572
 20
-0.00996352
 30
6.16540
  70
    32
  0
VERTEX
  8
ASHADE
  5
38C3
 10
1.56293
 20
-0.00996352
 30
6.17042
  70
    32
  0
VERTEX
  8
ASHADE
  5
38C4
 10
1.56938
 20
-0.00996352
 30
6.17550
  70
    32
  0
VERTEX
  8
ASHADE
  5
38C5
 10
1.57506
 20
-0.00996352
 30
6.18064
  70
    32
  0
VERTEX
  8
ASHADE
  5
38C6
 10
1.57996
 20
-0.00996352
 30
6.18582
  70
    32
  0
VERTEX
  8
ASHADE
  5
38C7
 10
1.58408
 20
-0.00996352
 30
6.19104
  70
    32
  0
VERTEX
  8
ASHADE
  5
38C8
 10
1.58741
 20
-0.00996352
 30
6.19629
  70
    32
  0
VERTEX
  8
ASHADE
  5
38C9
 10
1.58995
 20
-0.00996352
 30
6.20157
  70
    32
  0
VERTEX
  8
ASHADE
  5
38CA
 10
1.59170
 20
-0.00996352
 30
6.20687
  70
    32
  0
VERTEX
  8
ASHADE
  5
38CB
 10
1.59264
 20
-0.00996352
 30
6.21218
  70
    32
  0
VERTEX
  8
ASHADE
  5
38CC
 10
1.59279
 20
-0.00996352
 30
6.21749
  70
    32
  0
VERTEX
  8
ASHADE
  5
38CD
 10
1.59213
 20
-0.00996352
 30
6.22281
  70
    32
  0
VERTEX
  8
ASHADE
  5
38CE
 10
1.59068
 20
-0.00996352
 30
6.22811
  70
    32
  0
VERTEX
  8
ASHADE
  5
38CF
 10
1.58843
 20
-0.00996352
 30
6.23339
  70
    32
  0
VERTEX
  8
ASHADE
  5
38D0
 10
1.58539
 20
-0.00996352
 30
6.23866
  70
    32
  0
VERTEX
  8
ASHADE
  5
38D1
 10
1.58155
 20
-0.00996352
 30
6.24389
  70
    32
  0
VERTEX
  8
ASHADE
  5
38D2
 10
1.57693
 20
-0.00996352
 30
6.24909
  70
    32
  0
VERTEX
  8
ASHADE
  5
38D3
 10
1.57153
 20
-0.00996352
 30
6.25424
  70
    32
  0
VERTEX
  8
ASHADE
  5
38D4
 10
1.56537
 20
-0.00996352
 30
6.25934
  70
    32
  0
VERTEX
  8
ASHADE
  5
38D5
 10
1.55843
 20
-0.00996352
 30
6.26438
  70
    32
  0
VERTEX
  8
ASHADE
  5
38D6
 10
1.55074
 20
-0.00996352
 30
6.26936
  70
    32
  0
VERTEX
  8
ASHADE
  5
38D7
 10
1.54231
 20
-0.00996352
 30
6.27427
  70
    32
  0
VERTEX
  8
ASHADE
  5
38D8
 10
1.53314
 20
-0.00996352
 30
6.27910
  70
    32
  0
VERTEX
  8
ASHADE
  5
38D9
 10
1.52326
 20
-0.00996352
 30
6.28385
  70
    32
  0
VERTEX
  8
ASHADE
  5
38DA
 10
1.51266
 20
-0.00996352
 30
6.28851
  70
    32
  0
VERTEX
  8
ASHADE
  5
38DB
 10
1.50137
 20
-0.00996352
 30
6.29307
  70
    32
  0
VERTEX
  8
ASHADE
  5
38DC
 10
1.48940
 20
-0.00996352
 30
6.29754
  70
    32
  0
VERTEX
  8
ASHADE
  5
38DD
 10
1.47677
 20
-0.00996352
 30
6.30189
  70
    32
  0
VERTEX
  8
ASHADE
  5
38DE
 10
1.46349
 20
-0.00996352
 30
6.30613
  70
    32
  0
VERTEX
  8
ASHADE
  5
38DF
 10
1.44958
 20
-0.00996352
 30
6.31025
  70
    32
  0
VERTEX
  8
ASHADE
  5
38E0
 10
1.43506
 20
-0.00996352
 30
6.31425
  70
    32
  0
VERTEX
  8
ASHADE
  5
38E1
 10
1.41994
 20
-0.00996352
 30
6.31812
  70
    32
  0
VERTEX
  8
ASHADE
  5
38E2
 10
1.40426
 20
-0.00996352
 30
6.32185
  70
    32
  0
VERTEX
  8
ASHADE
  5
38E3
 10
1.38802
 20
-0.00996352
 30
6.32544
  70
    32
  0
VERTEX
  8
ASHADE
  5
38E4
 10
1.37125
 20
-0.00996352
 30
6.32889
  70
    32
  0
VERTEX
  8
ASHADE
  5
38E5
 10
1.35398
 20
-0.00996352
 30
6.33219
  70
    32
  0
VERTEX
  8
ASHADE
  5
38E6
 10
1.33621
 20
-0.00996352
 30
6.33534
  70
    32
  0
VERTEX
  8
ASHADE
  5
38E7
 10
1.31799
 20
-0.00996352
 30
6.33833
  70
    32
  0
VERTEX
  8
ASHADE
  5
38E8
 10
1.29933
 20
-0.00996352
 30
6.34116
  70
    32
  0
VERTEX
  8
ASHADE
  5
38E9
 10
1.28025
 20
-0.00996352
 30
6.34382
  70
    32
  0
VERTEX
  8
ASHADE
  5
38EA
 10
1.26079
 20
-0.00996352
 30
6.34632
  70
    32
  0
VERTEX
  8
ASHADE
  5
38EB
 10
1.24096
 20
-0.00996352
 30
6.34864
  70
    32
  0
VERTEX
  8
ASHADE
  5
38EC
 10
1.22080
 20
-0.00996352
 30
6.35079
  70
    32
  0
VERTEX
  8
ASHADE
  5
38ED
 10
1.20032
 20
-0.00996352
 30
6.35276
  70
    32
  0
VERTEX
  8
ASHADE
  5
38EE
 10
1.17956
 20
-0.00996352
 30
6.35455
  70
    32
  0
VERTEX
  8
ASHADE
  5
38EF
 10
1.15855
 20
-0.00996352
 30
6.35615
  70
    32
  0
VERTEX
  8
ASHADE
  5
38F0
 10
1.13731
 20
-0.00996352
 30
6.35758
  70
    32
  0
VERTEX
  8
ASHADE
  5
38F1
 10
1.11586
 20
-0.00996352
 30
6.35881
  70
    32
  0
VERTEX
  8
ASHADE
  5
38F2
 10
1.09425
 20
-0.00996352
 30
6.35986
  70
    32
  0
VERTEX
  8
ASHADE
  5
38F3
 10
1.07249
 20
-0.00996352
 30
6.36072
  70
    32
  0
VERTEX
  8
ASHADE
  5
38F4
 10
1.05062
 20
-0.00996352
 30
6.36139
  70
    32
  0
VERTEX
  8
ASHADE
  5
38F5
 10
1.02866
 20
-0.00996352
 30
6.36186
  70
    32
  0
VERTEX
  8
ASHADE
  5
38F6
 10
1.00664
 20
-0.00996352
 30
6.36214
  70
    32
  0
VERTEX
  8
ASHADE
  5
38F7
 10
0.984591
 20
-0.00996352
 30
6.36224
  70
    32
  0
VERTEX
  8
ASHADE
  5
38F8
 10
0.962545
 20
-0.00996352
 30
6.36213
  70
    32
  0
VERTEX
  8
ASHADE
  5
38F9
 10
0.940529
 20
-0.00996352
 30
6.36184
  70
    32
  0
VERTEX
  8
ASHADE
  5
38FA
 10
0.918571
 20
-0.00996352
 30
6.36135
  70
    32
  0
VERTEX
  8
ASHADE
  5
38FB
 10
0.896700
 20
-0.00996352
 30
6.36067
  70
    32
  0
VERTEX
  8
ASHADE
  5
38FC
 10
0.874945
 20
-0.00996352
 30
6.35980
  70
    32
  0
VERTEX
  8
ASHADE
  5
38FD
 10
0.853335
 20
-0.00996352
 30
6.35875
  70
    32
  0
VERTEX
  8
ASHADE
  5
38FE
 10
0.831899
 20
-0.00996352
 30
6.35750
  70
    32
  0
VERTEX
  8
ASHADE
  5
38FF
 10
0.810664
 20
-0.00996352
 30
6.35607
  70
    32
  0
VERTEX
  8
ASHADE
  5
3900
 10
0.789658
 20
-0.00996352
 30
6.35445
  70
    32
  0
VERTEX
  8
ASHADE
  5
3901
 10
0.768909
 20
-0.00996352
 30
6.35265
  70
    32
  0
VERTEX
  8
ASHADE
  5
3902
 10
0.748444
 20
-0.00996352
 30
6.35067
  70
    32
  0
VERTEX
  8
ASHADE
  5
3903
 10
0.728291
 20
-0.00996352
 30
6.34851
  70
    32
  0
VERTEX
  8
ASHADE
  5
3904
 10
0.708475
 20
-0.00996352
 30
6.34617
  70
    32
  0
VERTEX
  8
ASHADE
  5
3905
 10
0.689023
 20
-0.00996352
 30
6.34367
  70
    32
  0
VERTEX
  8
ASHADE
  5
3906
 10
0.669960
 20
-0.00996352
 30
6.34100
  70
    32
  0
VERTEX
  8
ASHADE
  5
3907
 10
0.651312
 20
-0.00996352
 30
6.33816
  70
    32
  0
VERTEX
  8
ASHADE
  5
3908
 10
0.633103
 20
-0.00996352
 30
6.33516
  70
    32
  0
VERTEX
  8
ASHADE
  5
3909
 10
0.615357
 20
-0.00996352
 30
6.33200
  70
    32
  0
VERTEX
  8
ASHADE
  5
390A
 10
0.598097
 20
-0.00996352
 30
6.32870
  70
    32
  0
VERTEX
  8
ASHADE
  5
390B
 10
0.581347
 20
-0.00996352
 30
6.32524
  70
    32
  0
VERTEX
  8
ASHADE
  5
390C
 10
0.565127
 20
-0.00996352
 30
6.32164
  70
    32
  0
VERTEX
  8
ASHADE
  5
390D
 10
0.549460
 20
-0.00996352
 30
6.31790
  70
    32
  0
VERTEX
  8
ASHADE
  5
390E
 10
0.534365
 20
-0.00996352
 30
6.31402
  70
    32
  0
VERTEX
  8
ASHADE
  5
390F
 10
0.519864
 20
-0.00996352
 30
6.31002
  70
    32
  0
VERTEX
  8
ASHADE
  5
3910
 10
0.505975
 20
-0.00996352
 30
6.30589
  70
    32
  0
VERTEX
  8
ASHADE
  5
3911
 10
0.492716
 20
-0.00996352
 30
6.30164
  70
    32
  0
VERTEX
  8
ASHADE
  5
3912
 10
0.480104
 20
-0.00996352
 30
6.29728
  70
    32
  0
VERTEX
  8
ASHADE
  5
3913
 10
0.468157
 20
-0.00996352
 30
6.29281
  70
    32
  0
VERTEX
  8
ASHADE
  5
3914
 10
0.456890
 20
-0.00996352
 30
6.28824
  70
    32
  0
VERTEX
  8
ASHADE
  5
3915
 10
0.446318
 20
-0.00996352
 30
6.28358
  70
    32
  0
VERTEX
  8
ASHADE
  5
3916
 10
0.436454
 20
-0.00996352
 30
6.27882
  70
    32
  0
VERTEX
  8
ASHADE
  5
3917
 10
0.427313
 20
-0.00996352
 30
6.27399
  70
    32
  0
VERTEX
  8
ASHADE
  5
3918
 10
0.418904
 20
-0.00996352
 30
6.26907
  70
    32
  0
VERTEX
  8
ASHADE
  5
3919
 10
0.411241
 20
-0.00996352
 30
6.26409
  70
    32
  0
VERTEX
  8
ASHADE
  5
391A
 10
0.404333
 20
-0.00996352
 30
6.25904
  70
    32
  0
VERTEX
  8
ASHADE
  5
391B
 10
0.398189
 20
-0.00996352
 30
6.25394
  70
    32
  0
VERTEX
  8
ASHADE
  5
391C
 10
0.392816
 20
-0.00996352
 30
6.24878
  70
    32
  0
VERTEX
  8
ASHADE
  5
391D
 10
0.388223
 20
-0.00996352
 30
6.24359
  70
    32
  0
VERTEX
  8
ASHADE
  5
391E
 10
0.384415
 20
-0.00996352
 30
6.23835
  70
    32
  0
VERTEX
  8
ASHADE
  5
391F
 10
0.381397
 20
-0.00996352
 30
6.23309
  70
    32
  0
VERTEX
  8
ASHADE
  5
3920
 10
0.379174
 20
-0.00996352
 30
6.22780
  70
    32
  0
VERTEX
  8
ASHADE
  5
3921
 10
0.377747
 20
-0.00996352
 30
6.22250
  70
    32
  0
VERTEX
  8
ASHADE
  5
3922
 10
0.377120
 20
-0.00996352
 30
6.21718
  70
    32
  0
VERTEX
  8
ASHADE
  5
3923
 10
0.377292
 20
-0.00996352
 30
6.21187
  70
    32
  0
VERTEX
  8
ASHADE
  5
3924
 10
0.378264
 20
-0.00996352
 30
6.20656
  70
    32
  0
VERTEX
  8
ASHADE
  5
3925
 10
0.380034
 20
-0.00996352
 30
6.20126
  70
    32
  0
VERTEX
  8
ASHADE
  5
3926
 10
0.382600
 20
-0.00996352
 30
6.19599
  70
    32
  0
VERTEX
  8
ASHADE
  5
3927
 10
0.385959
 20
-0.00996352
 30
6.19074
  70
    32
  0
VERTEX
  8
ASHADE
  5
3928
 10
0.390106
 20
-0.00996352
 30
6.18552
  70
    32
  0
VERTEX
  8
ASHADE
  5
3929
 10
0.395035
 20
-0.00996352
 30
6.18034
  70
    32
  0
VERTEX
  8
ASHADE
  5
392A
 10
0.400741
 20
-0.00996352
 30
6.17521
  70
    32
  0
VERTEX
  8
ASHADE
  5
392B
 10
0.407216
 20
-0.00996352
 30
6.17013
  70
    32
  0
VERTEX
  8
ASHADE
  5
392C
 10
0.414450
 20
-0.00996352
 30
6.16511
  70
    32
  0
VERTEX
  8
ASHADE
  5
392D
 10
0.422436
 20
-0.00996352
 30
6.16015
  70
    32
  0
VERTEX
  8
ASHADE
  5
392E
 10
0.431161
 20
-0.00996352
 30
6.15528
  70
    32
  0
VERTEX
  8
ASHADE
  5
392F
 10
0.440616
 20
-0.00996352
 30
6.15048
  70
    32
  0
VERTEX
  8
ASHADE
  5
3930
 10
0.450786
 20
-0.00996352
 30
6.14576
  70
    32
  0
VERTEX
  8
ASHADE
  5
3931
 10
0.461659
 20
-0.00996352
 30
6.14114
  70
    32
  0
VERTEX
  8
ASHADE
  5
3932
 10
0.473221
 20
-0.00996352
 30
6.13662
  70
    32
  0
VERTEX
  8
ASHADE
  5
3933
 10
0.485457
 20
-0.00996352
 30
6.13220
  70
    32
  0
VERTEX
  8
ASHADE
  5
3934
 10
0.498349
 20
-0.00996352
 30
6.12789
  70
    32
  0
VERTEX
  8
ASHADE
  5
3935
 10
0.511882
 20
-0.00996352
 30
6.12369
  70
    32
  0
VERTEX
  8
ASHADE
  5
3936
 10
0.526037
 20
-0.00996352
 30
6.11962
  70
    32
  0
VERTEX
  8
ASHADE
  5
3937
 10
0.540796
 20
-0.00996352
 30
6.11567
  70
    32
  0
SEQEND
  8
ASHADE
  5
3938
  0
POLYLINE
  5
354B
  8
ASHADE
 10
1.4296191722573934
 20
-0.0021189066633157
 30
6.1718624851699273
 66
     1
 70
     8
  0
VERTEX
  8
ASHADE
  5
3939
 10
1.42962
 20
-0.00211891
 30
6.17186
  70
    32
  0
VERTEX
  8
ASHADE
  5
393A
 10
1.42949
 20
-0.00211891
 30
6.17445
  70
    32
  0
VERTEX
  8
ASHADE
  5
393B
 10
1.42908
 20
-0.00211891
 30
6.17703
  70
    32
  0
VERTEX
  8
ASHADE
  5
393C
 10
1.42842
 20
-0.00211891
 30
6.17961
  70
    32
  0
VERTEX
  8
ASHADE
  5
393D
 10
1.42748
 20
-0.00211891
 30
6.18218
  70
    32
  0
VERTEX
  8
ASHADE
  5
393E
 10
1.42628
 20
-0.00211891
 30
6.18475
  70
    32
  0
VERTEX
  8
ASHADE
  5
393F
 10
1.42481
 20
-0.00211891
 30
6.18731
  70
    32
  0
VERTEX
  8
ASHADE
  5
3940
 10
1.42308
 20
-0.00211891
 30
6.18986
  70
    32
  0
VERTEX
  8
ASHADE
  5
3941
 10
1.42108
 20
-0.00211891
 30
6.19240
  70
    32
  0
VERTEX
  8
ASHADE
  5
3942
 10
1.41882
 20
-0.00211891
 30
6.19493
  70
    32
  0
VERTEX
  8
ASHADE
  5
3943
 10
1.41630
 20
-0.00211891
 30
6.19745
  70
    32
  0
VERTEX
  8
ASHADE
  5
3944
 10
1.41352
 20
-0.00211891
 30
6.19994
  70
    32
  0
VERTEX
  8
ASHADE
  5
3945
 10
1.41048
 20
-0.00211891
 30
6.20243
  70
    32
  0
VERTEX
  8
ASHADE
  5
3946
 10
1.40719
 20
-0.00211891
 30
6.20489
  70
    32
  0
VERTEX
  8
ASHADE
  5
3947
 10
1.40364
 20
-0.00211891
 30
6.20733
  70
    32
  0
VERTEX
  8
ASHADE
  5
3948
 10
1.39984
 20
-0.00211891
 30
6.20976
  70
    32
  0
VERTEX
  8
ASHADE
  5
3949
 10
1.39579
 20
-0.00211891
 30
6.21216
  70
    32
  0
VERTEX
  8
ASHADE
  5
394A
 10
1.39150
 20
-0.00211891
 30
6.21453
  70
    32
  0
VERTEX
  8
ASHADE
  5
394B
 10
1.38695
 20
-0.00211891
 30
6.21688
  70
    32
  0
VERTEX
  8
ASHADE
  5
394C
 10
1.38217
 20
-0.00211891
 30
6.21920
  70
    32
  0
VERTEX
  8
ASHADE
  5
394D
 10
1.37715
 20
-0.00211891
 30
6.22150
  70
    32
  0
VERTEX
  8
ASHADE
  5
394E
 10
1.37189
 20
-0.00211891
 30
6.22376
  70
    32
  0
VERTEX
  8
ASHADE
  5
394F
 10
1.36640
 20
-0.00211891
 30
6.22599
  70
    32
  0
VERTEX
  8
ASHADE
  5
3950
 10
1.36068
 20
-0.00211891
 30
6.22819
  70
    32
  0
VERTEX
  8
ASHADE
  5
3951
 10
1.35473
 20
-0.00211891
 30
6.23036
  70
    32
  0
VERTEX
  8
ASHADE
  5
3952
 10
1.34856
 20
-0.00211891
 30
6.23249
  70
    32
  0
VERTEX
  8
ASHADE
  5
3953
 10
1.34217
 20
-0.00211891
 30
6.23458
  70
    32
  0
VERTEX
  8
ASHADE
  5
3954
 10
1.33557
 20
-0.00211891
 30
6.23664
  70
    32
  0
VERTEX
  8
ASHADE
  5
3955
 10
1.32875
 20
-0.00211891
 30
6.23866
  70
    32
  0
VERTEX
  8
ASHADE
  5
3956
 10
1.32173
 20
-0.00211891
 30
6.24064
  70
    32
  0
VERTEX
  8
ASHADE
  5
3957
 10
1.31450
 20
-0.00211891
 30
6.24257
  70
    32
  0
VERTEX
  8
ASHADE
  5
3958
 10
1.30708
 20
-0.00211891
 30
6.24446
  70
    32
  0
VERTEX
  8
ASHADE
  5
3959
 10
1.29947
 20
-0.00211891
 30
6.24631
  70
    32
  0
VERTEX
  8
ASHADE
  5
395A
 10
1.29166
 20
-0.00211891
 30
6.24812
  70
    32
  0
VERTEX
  8
ASHADE
  5
395B
 10
1.28367
 20
-0.00211891
 30
6.24988
  70
    32
  0
VERTEX
  8
ASHADE
  5
395C
 10
1.27550
 20
-0.00211891
 30
6.25159
  70
    32
  0
VERTEX
  8
ASHADE
  5
395D
 10
1.26715
 20
-0.00211891
 30
6.25325
  70
    32
  0
VERTEX
  8
ASHADE
  5
395E
 10
1.25864
 20
-0.00211891
 30
6.25487
  70
    32
  0
VERTEX
  8
ASHADE
  5
395F
 10
1.24996
 20
-0.00211891
 30
6.25643
  70
    32
  0
VERTEX
  8
ASHADE
  5
3960
 10
1.24112
 20
-0.00211891
 30
6.25795
  70
    32
  0
VERTEX
  8
ASHADE
  5
3961
 10
1.23213
 20
-0.00211891
 30
6.25941
  70
    32
  0
VERTEX
  8
ASHADE
  5
3962
 10
1.22298
 20
-0.00211891
 30
6.26082
  70
    32
  0
VERTEX
  8
ASHADE
  5
3963
 10
1.21370
 20
-0.00211891
 30
6.26217
  70
    32
  0
VERTEX
  8
ASHADE
  5
3964
 10
1.20428
 20
-0.00211891
 30
6.26347
  70
    32
  0
VERTEX
  8
ASHADE
  5
3965
 10
1.19472
 20
-0.00211891
 30
6.26472
  70
    32
  0
VERTEX
  8
ASHADE
  5
3966
 10
1.18504
 20
-0.00211891
 30
6.26591
  70
    32
  0
VERTEX
  8
ASHADE
  5
3967
 10
1.17524
 20
-0.00211891
 30
6.26704
  70
    32
  0
VERTEX
  8
ASHADE
  5
3968
 10
1.16532
 20
-0.00211891
 30
6.26812
  70
    32
  0
VERTEX
  8
ASHADE
  5
3969
 10
1.15530
 20
-0.00211891
 30
6.26914
  70
    32
  0
VERTEX
  8
ASHADE
  5
396A
 10
1.14517
 20
-0.00211891
 30
6.27010
  70
    32
  0
VERTEX
  8
ASHADE
  5
396B
 10
1.13495
 20
-0.00211891
 30
6.27100
  70
    32
  0
VERTEX
  8
ASHADE
  5
396C
 10
1.12464
 20
-0.00211891
 30
6.27184
  70
    32
  0
VERTEX
  8
ASHADE
  5
396D
 10
1.11424
 20
-0.00211891
 30
6.27262
  70
    32
  0
VERTEX
  8
ASHADE
  5
396E
 10
1.10377
 20
-0.00211891
 30
6.27334
  70
    32
  0
VERTEX
  8
ASHADE
  5
396F
 10
1.09322
 20
-0.00211891
 30
6.27400
  70
    32
  0
VERTEX
  8
ASHADE
  5
3970
 10
1.08261
 20
-0.00211891
 30
6.27460
  70
    32
  0
VERTEX
  8
ASHADE
  5
3971
 10
1.07194
 20
-0.00211891
 30
6.27513
  70
    32
  0
VERTEX
  8
ASHADE
  5
3972
 10
1.06122
 20
-0.00211891
 30
6.27560
  70
    32
  0
VERTEX
  8
ASHADE
  5
3973
 10
1.05045
 20
-0.00211891
 30
6.27601
  70
    32
  0
VERTEX
  8
ASHADE
  5
3974
 10
1.03964
 20
-0.00211891
 30
6.27636
  70
    32
  0
VERTEX
  8
ASHADE
  5
3975
 10
1.02880
 20
-0.00211891
 30
6.27665
  70
    32
  0
VERTEX
  8
ASHADE
  5
3976
 10
1.01794
 20
-0.00211891
 30
6.27687
  70
    32
  0
VERTEX
  8
ASHADE
  5
3977
 10
1.00705
 20
-0.00211891
 30
6.27703
  70
    32
  0
VERTEX
  8
ASHADE
  5
3978
 10
0.996151
 20
-0.00211891
 30
6.27712
  70
    32
  0
VERTEX
  8
ASHADE
  5
3979
 10
0.985245
 20
-0.00211891
 30
6.27715
  70
    32
  0
VERTEX
  8
ASHADE
  5
397A
 10
0.974340
 20
-0.00211891
 30
6.27712
  70
    32
  0
VERTEX
  8
ASHADE
  5
397B
 10
0.963441
 20
-0.00211891
 30
6.27703
  70
    32
  0
VERTEX
  8
ASHADE
  5
397C
 10
0.952555
 20
-0.00211891
 30
6.27687
  70
    32
  0
VERTEX
  8
ASHADE
  5
397D
 10
0.941689
 20
-0.00211891
 30
6.27665
  70
    32
  0
VERTEX
  8
ASHADE
  5
397E
 10
0.930849
 20
-0.00211891
 30
6.27636
  70
    32
  0
VERTEX
  8
ASHADE
  5
397F
 10
0.920042
 20
-0.00211891
 30
6.27601
  70
    32
  0
VERTEX
  8
ASHADE
  5
3980
 10
0.909274
 20
-0.00211891
 30
6.27560
  70
    32
  0
VERTEX
  8
ASHADE
  5
3981
 10
0.898552
 20
-0.00211891
 30
6.27513
  70
    32
  0
VERTEX
  8
ASHADE
  5
3982
 10
0.887882
 20
-0.00211891
 30
6.27460
  70
    32
  0
VERTEX
  8
ASHADE
  5
3983
 10
0.877271
 20
-0.00211891
 30
6.27400
  70
    32
  0
VERTEX
  8
ASHADE
  5
3984
 10
0.866725
 20
-0.00211891
 30
6.27334
  70
    32
  0
VERTEX
  8
ASHADE
  5
3985
 10
0.856250
 20
-0.00211891
 30
6.27262
  70
    32
  0
VERTEX
  8
ASHADE
  5
3986
 10
0.845853
 20
-0.00211891
 30
6.27184
  70
    32
  0
VERTEX
  8
ASHADE
  5
3987
 10
0.835540
 20
-0.00211891
 30
6.27100
  70
    32
  0
VERTEX
  8
ASHADE
  5
3988
 10
0.825317
 20
-0.00211891
 30
6.27010
  70
    32
  0
VERTEX
  8
ASHADE
  5
3989
 10
0.815191
 20
-0.00211891
 30
6.26914
  70
    32
  0
VERTEX
  8
ASHADE
  5
398A
 10
0.805166
 20
-0.00211891
 30
6.26812
  70
    32
  0
VERTEX
  8
ASHADE
  5
398B
 10
0.795251
 20
-0.00211891
 30
6.26704
  70
    32
  0
VERTEX
  8
ASHADE
  5
398C
 10
0.785450
 20
-0.00211891
 30
6.26591
  70
    32
  0
VERTEX
  8
ASHADE
  5
398D
 10
0.775769
 20
-0.00211891
 30
6.26472
  70
    32
  0
VERTEX
  8
ASHADE
  5
398E
 10
0.766214
 20
-0.00211891
 30
6.26347
  70
    32
  0
VERTEX
  8
ASHADE
  5
398F
 10
0.756791
 20
-0.00211891
 30
6.26217
  70
    32
  0
VERTEX
  8
ASHADE
  5
3990
 10
0.747506
 20
-0.00211891
 30
6.26082
  70
    32
  0
VERTEX
  8
ASHADE
  5
3991
 10
0.738364
 20
-0.00211891
 30
6.25941
  70
    32
  0
VERTEX
  8
ASHADE
  5
3992
 10
0.729371
 20
-0.00211891
 30
6.25795
  70
    32
  0
VERTEX
  8
ASHADE
  5
3993
 10
0.720532
 20
-0.00211891
 30
6.25643
  70
    32
  0
VERTEX
  8
ASHADE
  5
3994
 10
0.711852
 20
-0.00211891
 30
6.25487
  70
    32
  0
VERTEX
  8
ASHADE
  5
3995
 10
0.703337
 20
-0.00211891
 30
6.25325
  70
    32
  0
VERTEX
  8
ASHADE
  5
3996
 10
0.694992
 20
-0.00211891
 30
6.25159
  70
    32
  0
VERTEX
  8
ASHADE
  5
3997
 10
0.686822
 20
-0.00211891
 30
6.24988
  70
    32
  0
VERTEX
  8
ASHADE
  5
3998
 10
0.678831
 20
-0.00211891
 30
6.24812
  70
    32
  0
VERTEX
  8
ASHADE
  5
3999
 10
0.671025
 20
-0.00211891
 30
6.24631
  70
    32
  0
VERTEX
  8
ASHADE
  5
399A
 10
0.663409
 20
-0.00211891
 30
6.24446
  70
    32
  0
VERTEX
  8
ASHADE
  5
399B
 10
0.655986
 20
-0.00211891
 30
6.24257
  70
    32
  0
VERTEX
  8
ASHADE
  5
399C
 10
0.648761
 20
-0.00211891
 30
6.24064
  70
    32
  0
VERTEX
  8
ASHADE
  5
399D
 10
0.641739
 20
-0.00211891
 30
6.23866
  70
    32
  0
VERTEX
  8
ASHADE
  5
399E
 10
0.634924
 20
-0.00211891
 30
6.23664
  70
    32
  0
VERTEX
  8
ASHADE
  5
399F
 10
0.628321
 20
-0.00211891
 30
6.23458
  70
    32
  0
VERTEX
  8
ASHADE
  5
39A0
 10
0.621932
 20
-0.00211891
 30
6.23249
  70
    32
  0
VERTEX
  8
ASHADE
  5
39A1
 10
0.615762
 20
-0.00211891
 30
6.23036
  70
    32
  0
VERTEX
  8
ASHADE
  5
39A2
 10
0.609814
 20
-0.00211891
 30
6.22819
  70
    32
  0
VERTEX
  8
ASHADE
  5
39A3
 10
0.604093
 20
-0.00211891
 30
6.22599
  70
    32
  0
VERTEX
  8
ASHADE
  5
39A4
 10
0.598601
 20
-0.00211891
 30
6.22376
  70
    32
  0
VERTEX
  8
ASHADE
  5
39A5
 10
0.593342
 20
-0.00211891
 30
6.22150
  70
    32
  0
VERTEX
  8
ASHADE
  5
39A6
 10
0.588319
 20
-0.00211891
 30
6.21920
  70
    32
  0
VERTEX
  8
ASHADE
  5
39A7
 10
0.583536
 20
-0.00211891
 30
6.21688
  70
    32
  0
VERTEX
  8
ASHADE
  5
39A8
 10
0.578994
 20
-0.00211891
 30
6.21453
  70
    32
  0
VERTEX
  8
ASHADE
  5
39A9
 10
0.574697
 20
-0.00211891
 30
6.21216
  70
    32
  0
VERTEX
  8
ASHADE
  5
39AA
 10
0.570647
 20
-0.00211891
 30
6.20976
  70
    32
  0
VERTEX
  8
ASHADE
  5
39AB
 10
0.566847
 20
-0.00211891
 30
6.20733
  70
    32
  0
VERTEX
  8
ASHADE
  5
39AC
 10
0.563299
 20
-0.00211891
 30
6.20489
  70
    32
  0
VERTEX
  8
ASHADE
  5
39AD
 10
0.560006
 20
-0.00211891
 30
6.20243
  70
    32
  0
VERTEX
  8
ASHADE
  5
39AE
 10
0.556968
 20
-0.00211891
 30
6.19994
  70
    32
  0
VERTEX
  8
ASHADE
  5
39AF
 10
0.554188
 20
-0.00211891
 30
6.19745
  70
    32
  0
VERTEX
  8
ASHADE
  5
39B0
 10
0.551668
 20
-0.00211891
 30
6.19493
  70
    32
  0
VERTEX
  8
ASHADE
  5
39B1
 10
0.549410
 20
-0.00211891
 30
6.19240
  70
    32
  0
VERTEX
  8
ASHADE
  5
39B2
 10
0.547413
 20
-0.00211891
 30
6.18986
  70
    32
  0
VERTEX
  8
ASHADE
  5
39B3
 10
0.545681
 20
-0.00211891
 30
6.18731
  70
    32
  0
VERTEX
  8
ASHADE
  5
39B4
 10
0.544213
 20
-0.00211891
 30
6.18475
  70
    32
  0
VERTEX
  8
ASHADE
  5
39B5
 10
0.543011
 20
-0.00211891
 30
6.18218
  70
    32
  0
VERTEX
  8
ASHADE
  5
39B6
 10
0.542075
 20
-0.00211891
 30
6.17961
  70
    32
  0
VERTEX
  8
ASHADE
  5
39B7
 10
0.541406
 20
-0.00211891
 30
6.17703
  70
    32
  0
VERTEX
  8
ASHADE
  5
39B8
 10
0.541005
 20
-0.00211891
 30
6.17445
  70
    32
  0
VERTEX
  8
ASHADE
  5
39B9
 10
0.540871
 20
-0.00211891
 30
6.17186
  70
    32
  0
SEQEND
  8
ASHADE
  5
39BA
  0
POLYLINE
  5
354C
  8
ASHADE
 10
1.334807878484088
 20
-0.002158564792531
 30
6.0143863899703405
 66
     1
 70
     8
  0
VERTEX
  8
ASHADE
  5
39BB
 10
1.33481
 20
-0.00215856
 30
6.01439
  70
    32
  0
VERTEX
  8
ASHADE
  5
39BC
 10
1.33439
 20
-0.00215856
 30
6.01860
  70
    32
  0
VERTEX
  8
ASHADE
  5
39BD
 10
1.33312
 20
-0.00215856
 30
6.02280
  70
    32
  0
VERTEX
  8
ASHADE
  5
39BE
 10
1.33102
 20
-0.00215856
 30
6.02698
  70
    32
  0
VERTEX
  8
ASHADE
  5
39BF
 10
1.32809
 20
-0.00215856
 30
6.03114
  70
    32
  0
VERTEX
  8
ASHADE
  5
39C0
 10
1.32433
 20
-0.00215856
 30
6.03525
  70
    32
  0
VERTEX
  8
ASHADE
  5
39C1
 10
1.31976
 20
-0.00215856
 30
6.03931
  70
    32
  0
VERTEX
  8
ASHADE
  5
39C2
 10
1.31437
 20
-0.00215856
 30
6.04331
  70
    32
  0
VERTEX
  8
ASHADE
  5
39C3
 10
1.30820
 20
-0.00215856
 30
6.04724
  70
    32
  0
VERTEX
  8
ASHADE
  5
39C4
 10
1.30125
 20
-0.00215856
 30
6.05109
  70
    32
  0
VERTEX
  8
ASHADE
  5
39C5
 10
1.29354
 20
-0.00215856
 30
6.05485
  70
    32
  0
VERTEX
  8
ASHADE
  5
39C6
 10
1.28508
 20
-0.00215856
 30
6.05852
  70
    32
  0
VERTEX
  8
ASHADE
  5
39C7
 10
1.27590
 20
-0.00215856
 30
6.06208
  70
    32
  0
VERTEX
  8
ASHADE
  5
39C8
 10
1.26602
 20
-0.00215856
 30
6.06552
  70
    32
  0
VERTEX
  8
ASHADE
  5
39C9
 10
1.25547
 20
-0.00215856
 30
6.06884
  70
    32
  0
VERTEX
  8
ASHADE
  5
39CA
 10
1.24427
 20
-0.00215856
 30
6.07203
  70
    32
  0
VERTEX
  8
ASHADE
  5
39CB
 10
1.23244
 20
-0.00215856
 30
6.07508
  70
    32
  0
VERTEX
  8
ASHADE
  5
39CC
 10
1.22001
 20
-0.00215856
 30
6.07799
  70
    32
  0
VERTEX
  8
ASHADE
  5
39CD
 10
1.20702
 20
-0.00215856
 30
6.08074
  70
    32
  0
VERTEX
  8
ASHADE
  5
39CE
 10
1.19350
 20
-0.00215856
 30
6.08333
  70
    32
  0
VERTEX
  8
ASHADE
  5
39CF
 10
1.17947
 20
-0.00215856
 30
6.08575
  70
    32
  0
VERTEX
  8
ASHADE
  5
39D0
 10
1.16498
 20
-0.00215856
 30
6.08801
  70
    32
  0
VERTEX
  8
ASHADE
  5
39D1
 10
1.15006
 20
-0.00215856
 30
6.09008
  70
    32
  0
VERTEX
  8
ASHADE
  5
39D2
 10
1.13473
 20
-0.00215856
 30
6.09197
  70
    32
  0
VERTEX
  8
ASHADE
  5
39D3
 10
1.11905
 20
-0.00215856
 30
6.09368
  70
    32
  0
VERTEX
  8
ASHADE
  5
39D4
 10
1.10305
 20
-0.00215856
 30
6.09520
  70
    32
  0
VERTEX
  8
ASHADE
  5
39D5
 10
1.08676
 20
-0.00215856
 30
6.09652
  70
    32
  0
VERTEX
  8
ASHADE
  5
39D6
 10
1.07023
 20
-0.00215856
 30
6.09764
  70
    32
  0
VERTEX
  8
ASHADE
  5
39D7
 10
1.05349
 20
-0.00215856
 30
6.09856
  70
    32
  0
VERTEX
  8
ASHADE
  5
39D8
 10
1.03659
 20
-0.00215856
 30
6.09928
  70
    32
  0
VERTEX
  8
ASHADE
  5
39D9
 10
1.01956
 20
-0.00215856
 30
6.09979
  70
    32
  0
VERTEX
  8
ASHADE
  5
39DA
 10
1.00245
 20
-0.00215856
 30
6.10010
  70
    32
  0
VERTEX
  8
ASHADE
  5
39DB
 10
0.985305
 20
-0.00215856
 30
6.10020
  70
    32
  0
VERTEX
  8
ASHADE
  5
39DC
 10
0.968156
 20
-0.00215856
 30
6.10009
  70
    32
  0
VERTEX
  8
ASHADE
  5
39DD
 10
0.951049
 20
-0.00215856
 30
6.09978
  70
    32
  0
VERTEX
  8
ASHADE
  5
39DE
 10
0.934024
 20
-0.00215856
 30
6.09926
  70
    32
  0
VERTEX
  8
ASHADE
  5
39DF
 10
0.917122
 20
-0.00215856
 30
6.09854
  70
    32
  0
VERTEX
  8
ASHADE
  5
39E0
 10
0.900385
 20
-0.00215856
 30
6.09762
  70
    32
  0
VERTEX
  8
ASHADE
  5
39E1
 10
0.883853
 20
-0.00215856
 30
6.09649
  70
    32
  0
VERTEX
  8
ASHADE
  5
39E2
 10
0.867565
 20
-0.00215856
 30
6.09517
  70
    32
  0
VERTEX
  8
ASHADE
  5
39E3
 10
0.851561
 20
-0.00215856
 30
6.09365
  70
    32
  0
VERTEX
  8
ASHADE
  5
39E4
 10
0.835878
 20
-0.00215856
 30
6.09194
  70
    32
  0
VERTEX
  8
ASHADE
  5
39E5
 10
0.820556
 20
-0.00215856
 30
6.09004
  70
    32
  0
VERTEX
  8
ASHADE
  5
39E6
 10
0.805631
 20
-0.00215856
 30
6.08796
  70
    32
  0
VERTEX
  8
ASHADE
  5
39E7
 10
0.791139
 20
-0.00215856
 30
6.08571
  70
    32
  0
VERTEX
  8
ASHADE
  5
39E8
 10
0.777114
 20
-0.00215856
 30
6.08328
  70
    32
  0
VERTEX
  8
ASHADE
  5
39E9
 10
0.763591
 20
-0.00215856
 30
6.08069
  70
    32
  0
VERTEX
  8
ASHADE
  5
39EA
 10
0.750602
 20
-0.00215856
 30
6.07793
  70
    32
  0
VERTEX
  8
ASHADE
  5
39EB
 10
0.738179
 20
-0.00215856
 30
6.07503
  70
    32
  0
VERTEX
  8
ASHADE
  5
39EC
 10
0.726351
 20
-0.00215856
 30
6.07197
  70
    32
  0
VERTEX
  8
ASHADE
  5
39ED
 10
0.715147
 20
-0.00215856
 30
6.06878
  70
    32
  0
VERTEX
  8
ASHADE
  5
39EE
 10
0.704594
 20
-0.00215856
 30
6.06546
  70
    32
  0
VERTEX
  8
ASHADE
  5
39EF
 10
0.694717
 20
-0.00215856
 30
6.06201
  70
    32
  0
VERTEX
  8
ASHADE
  5
39F0
 10
0.685540
 20
-0.00215856
 30
6.05845
  70
    32
  0
VERTEX
  8
ASHADE
  5
39F1
 10
0.677085
 20
-0.00215856
 30
6.05478
  70
    32
  0
VERTEX
  8
ASHADE
  5
39F2
 10
0.669373
 20
-0.00215856
 30
6.05102
  70
    32
  0
VERTEX
  8
ASHADE
  5
39F3
 10
0.662422
 20
-0.00215856
 30
6.04716
  70
    32
  0
VERTEX
  8
ASHADE
  5
39F4
 10
0.656249
 20
-0.00215856
 30
6.04323
  70
    32
  0
VERTEX
  8
ASHADE
  5
39F5
 10
0.650868
 20
-0.00215856
 30
6.03923
  70
    32
  0
VERTEX
  8
ASHADE
  5
39F6
 10
0.646293
 20
-0.00215856
 30
6.03517
  70
    32
  0
VERTEX
  8
ASHADE
  5
39F7
 10
0.642535
 20
-0.00215856
 30
6.03105
  70
    32
  0
VERTEX
  8
ASHADE
  5
39F8
 10
0.639603
 20
-0.00215856
 30
6.02690
  70
    32
  0
VERTEX
  8
ASHADE
  5
39F9
 10
0.637504
 20
-0.00215856
 30
6.02272
  70
    32
  0
VERTEX
  8
ASHADE
  5
39FA
 10
0.636243
 20
-0.00215856
 30
6.01852
  70
    32
  0
VERTEX
  8
ASHADE
  5
39FB
 10
0.635822
 20
-0.00215856
 30
6.01430
  70
    32
  0
VERTEX
  8
ASHADE
  5
39FC
 10
0.636244
 20
-0.00215856
 30
6.01009
  70
    32
  0
VERTEX
  8
ASHADE
  5
39FD
 10
0.637506
 20
-0.00215856
 30
6.00589
  70
    32
  0
VERTEX
  8
ASHADE
  5
39FE
 10
0.639606
 20
-0.00215856
 30
6.00171
  70
    32
  0
VERTEX
  8
ASHADE
  5
39FF
 10
0.642539
 20
-0.00215856
 30
5.99756
  70
    32
  0
VERTEX
  8
ASHADE
  5
3A00
 10
0.646298
 20
-0.00215856
 30
5.99344
  70
    32
  0
VERTEX
  8
ASHADE
  5
3A01
 10
0.650874
 20
-0.00215856
 30
5.98938
  70
    32
  0
VERTEX
  8
ASHADE
  5
3A02
 10
0.656255
 20
-0.00215856
 30
5.98538
  70
    32
  0
VERTEX
  8
ASHADE
  5
3A03
 10
0.662429
 20
-0.00215856
 30
5.98145
  70
    32
  0
VERTEX
  8
ASHADE
  5
3A04
 10
0.669381
 20
-0.00215856
 30
5.97760
  70
    32
  0
VERTEX
  8
ASHADE
  5
3A05
 10
0.677094
 20
-0.00215856
 30
5.97384
  70
    32
  0
VERTEX
  8
ASHADE
  5
3A06
 10
0.685550
 20
-0.00215856
 30
5.97017
  70
    32
  0
VERTEX
  8
ASHADE
  5
3A07
 10
0.694728
 20
-0.00215856
 30
5.96661
  70
    32
  0
VERTEX
  8
ASHADE
  5
3A08
 10
0.704606
 20
-0.00215856
 30
5.96317
  70
    32
  0
VERTEX
  8
ASHADE
  5
3A09
 10
0.715160
 20
-0.00215856
 30
5.95985
  70
    32
  0
VERTEX
  8
ASHADE
  5
3A0A
 10
0.726365
 20
-0.00215856
 30
5.95666
  70
    32
  0
VERTEX
  8
ASHADE
  5
3A0B
 10
0.738193
 20
-0.00215856
 30
5.95361
  70
    32
  0
VERTEX
  8
ASHADE
  5
3A0C
 10
0.750617
 20
-0.00215856
 30
5.95070
  70
    32
  0
VERTEX
  8
ASHADE
  5
3A0D
 10
0.763607
 20
-0.00215856
 30
5.94795
  70
    32
  0
VERTEX
  8
ASHADE
  5
3A0E
 10
0.777130
 20
-0.00215856
 30
5.94536
  70
    32
  0
VERTEX
  8
ASHADE
  5
3A0F
 10
0.791155
 20
-0.00215856
 30
5.94294
  70
    32
  0
VERTEX
  8
ASHADE
  5
3A10
 10
0.805648
 20
-0.00215856
 30
5.94068
  70
    32
  0
VERTEX
  8
ASHADE
  5
3A11
 10
0.820574
 20
-0.00215856
 30
5.93861
  70
    32
  0
VERTEX
  8
ASHADE
  5
3A12
 10
0.835897
 20
-0.00215856
 30
5.93672
  70
    32
  0
VERTEX
  8
ASHADE
  5
3A13
 10
0.851579
 20
-0.00215856
 30
5.93501
  70
    32
  0
VERTEX
  8
ASHADE
  5
3A14
 10
0.867584
 20
-0.00215856
 30
5.93350
  70
    32
  0
VERTEX
  8
ASHADE
  5
3A15
 10
0.883872
 20
-0.00215856
 30
5.93218
  70
    32
  0
VERTEX
  8
ASHADE
  5
3A16
 10
0.900405
 20
-0.00215856
 30
5.93105
  70
    32
  0
VERTEX
  8
ASHADE
  5
3A17
 10
0.917142
 20
-0.00215856
 30
5.93013
  70
    32
  0
VERTEX
  8
ASHADE
  5
3A18
 10
0.934044
 20
-0.00215856
 30
5.92941
  70
    32
  0
VERTEX
  8
ASHADE
  5
3A19
 10
0.951069
 20
-0.00215856
 30
5.92890
  70
    32
  0
VERTEX
  8
ASHADE
  5
3A1A
 10
0.968176
 20
-0.00215856
 30
5.92859
  70
    32
  0
VERTEX
  8
ASHADE
  5
3A1B
 10
0.985325
 20
-0.00215856
 30
5.92849
  70
    32
  0
VERTEX
  8
ASHADE
  5
3A1C
 10
1.00247
 20
-0.00215856
 30
5.92860
  70
    32
  0
VERTEX
  8
ASHADE
  5
3A1D
 10
1.01958
 20
-0.00215856
 30
5.92891
  70
    32
  0
VERTEX
  8
ASHADE
  5
3A1E
 10
1.03661
 20
-0.00215856
 30
5.92943
  70
    32
  0
VERTEX
  8
ASHADE
  5
3A1F
 10
1.05351
 20
-0.00215856
 30
5.93015
  70
    32
  0
VERTEX
  8
ASHADE
  5
3A20
 10
1.07024
 20
-0.00215856
 30
5.93107
  70
    32
  0
VERTEX
  8
ASHADE
  5
3A21
 10
1.08678
 20
-0.00215856
 30
5.93220
  70
    32
  0
VERTEX
  8
ASHADE
  5
3A22
 10
1.10307
 20
-0.00215856
 30
5.93352
  70
    32
  0
VERTEX
  8
ASHADE
  5
3A23
 10
1.11907
 20
-0.00215856
 30
5.93504
  70
    32
  0
VERTEX
  8
ASHADE
  5
3A24
 10
1.13475
 20
-0.00215856
 30
5.93675
  70
    32
  0
VERTEX
  8
ASHADE
  5
3A25
 10
1.15007
 20
-0.00215856
 30
5.93865
  70
    32
  0
VERTEX
  8
ASHADE
  5
3A26
 10
1.16500
 20
-0.00215856
 30
5.94073
  70
    32
  0
VERTEX
  8
ASHADE
  5
3A27
 10
1.17949
 20
-0.00215856
 30
5.94298
  70
    32
  0
VERTEX
  8
ASHADE
  5
3A28
 10
1.19352
 20
-0.00215856
 30
5.94541
  70
    32
  0
VERTEX
  8
ASHADE
  5
3A29
 10
1.20704
 20
-0.00215856
 30
5.94800
  70
    32
  0
VERTEX
  8
ASHADE
  5
3A2A
 10
1.22003
 20
-0.00215856
 30
5.95076
  70
    32
  0
VERTEX
  8
ASHADE
  5
3A2B
 10
1.23245
 20
-0.00215856
 30
5.95367
  70
    32
  0
VERTEX
  8
ASHADE
  5
3A2C
 10
1.24428
 20
-0.00215856
 30
5.95672
  70
    32
  0
VERTEX
  8
ASHADE
  5
3A2D
 10
1.25548
 20
-0.00215856
 30
5.95991
  70
    32
  0
VERTEX
  8
ASHADE
  5
3A2E
 10
1.26604
 20
-0.00215856
 30
5.96323
  70
    32
  0
VERTEX
  8
ASHADE
  5
3A2F
 10
1.27591
 20
-0.00215856
 30
5.96668
  70
    32
  0
VERTEX
  8
ASHADE
  5
3A30
 10
1.28509
 20
-0.00215856
 30
5.97024
  70
    32
  0
VERTEX
  8
ASHADE
  5
3A31
 10
1.29354
 20
-0.00215856
 30
5.97391
  70
    32
  0
VERTEX
  8
ASHADE
  5
3A32
 10
1.30126
 20
-0.00215856
 30
5.97767
  70
    32
  0
VERTEX
  8
ASHADE
  5
3A33
 10
1.30821
 20
-0.00215856
 30
5.98153
  70
    32
  0
VERTEX
  8
ASHADE
  5
3A34
 10
1.31438
 20
-0.00215856
 30
5.98546
  70
    32
  0
VERTEX
  8
ASHADE
  5
3A35
 10
1.31976
 20
-0.00215856
 30
5.98946
  70
    32
  0
VERTEX
  8
ASHADE
  5
3A36
 10
1.32434
 20
-0.00215856
 30
5.99352
  70
    32
  0
VERTEX
  8
ASHADE
  5
3A37
 10
1.32809
 20
-0.00215856
 30
5.99764
  70
    32
  0
VERTEX
  8
ASHADE
  5
3A38
 10
1.33103
 20
-0.00215856
 30
6.00179
  70
    32
  0
VERTEX
  8
ASHADE
  5
3A39
 10
1.33313
 20
-0.00215856
 30
6.00597
  70
    32
  0
VERTEX
  8
ASHADE
  5
3A3A
 10
1.33439
 20
-0.00215856
 30
6.01017
  70
    32
  0
VERTEX
  8
ASHADE
  5
3A3B
 10
1.33481
 20
-0.00215856
 30
6.01439
  70
    32
  0
SEQEND
  8
ASHADE
  5
3A3C
  0
POLYLINE
  5
3573
  8
ASHADE
 66
     1
 10
0.0
 20
0.0
 30
0.000215433792728
210
0.0
220
-1.0
230
0.0
  0
VERTEX
  5
3617
  8
ASHADE
 10
0.6683754941001326
 20
7.7141183546253638
 30
0.000215433792728
 42
0.1693506625046797
  0
VERTEX
  5
3618
  8
ASHADE
 10
0.5586394559219344
 20
8.3443775466152612
 30
0.000215433792728
  0
VERTEX
  5
3619
  8
ASHADE
 10
0.5590441917702549
 20
8.8034046698280761
 30
0.000215433792728
 42
-0.2646364764061404
  0
VERTEX
  5
361A
  8
ASHADE
 10
0.6450602687373529
 20
8.8585233681866118
 30
0.000215433792728
 42
0.0961127537696377
  0
VERTEX
  5
361B
  8
ASHADE
 10
0.984601003151965
 20
8.792717832038905
 30
0.000215433792728
 42
0.0961127537696377
  0
VERTEX
  5
361C
  8
ASHADE
 10
1.32414173756662
 20
8.8585233681866118
 30
0.000215433792728
 42
-0.264636476406141
  0
VERTEX
  5
361D
  8
ASHADE
 10
1.410157814533775
 20
8.8034046698280761
 30
0.000215433792728
  0
VERTEX
  5
361E
  8
ASHADE
 10
1.4105625503820529
 20
8.3443775466152612
 30
0.000215433792728
 42
0.1693506625046798
  0
VERTEX
  5
361F
  8
ASHADE
 10
1.3008265122038549
 20
7.7141183546253638
 30
0.000215433792728
  0
SEQEND
  5
3620
  8
ASHADE
  0
POLYLINE
  5
357B
  8
ASHADE
 66
     1
 10
0.0
 20
0.0
 30
0.0009842373281718
210
0.0
220
-1.0
230
0.0
  0
VERTEX
  5
3621
  8
ASHADE
 10
0.3009082019670473
 20
5.9869681622682984
 30
0.0009842373281718
 42
0.0042407159606036
  0
VERTEX
  5
3622
  8
ASHADE
 10
0.1737831594465717
 20
4.8031415602861873
 30
0.0009842373281718
 42
0.0467294718721998
  0
VERTEX
  5
3623
  8
ASHADE
 10
0.0003509444861436
 20
2.7885660887061579
 30
0.0009842373281718
  0
SEQEND
  5
3624
  8
ASHADE
  0
POLYLINE
  5
357D
  8
ASHADE
 66
     1
 10
0.0
 20
0.0
 30
0.0009842373281718
210
0.0
220
-1.0
230
0.0
  0
VERTEX
  5
3625
  8
ASHADE
 10
1.9717075008112059
 20
2.7885660887061561
 30
0.0009842373281718
 42
0.0467294718721996
  0
VERTEX
  5
3626
  8
ASHADE
 10
1.7982752858507489
 20
4.8031415602861847
 30
0.0009842373281718
 42
0.0042407159606037
  0
VERTEX
  5
3627
  8
ASHADE
 10
1.6711502433302741
 20
5.9869681622683011
 30
0.0009842373281718
  0
SEQEND
  5
3628
  8
ASHADE
  0
POLYLINE
  5
357F
  8
ASHADE
 66
     1
 10
0.0
 20
0.0
 30
0.009963518306613
210
0.0
220
-1.0
230
0.0
  0
VERTEX
  5
3629
  8
ASHADE
 10
0.3770875711068129
 20
6.2157383099495362
 30
0.009963518306613
  0
VERTEX
  5
362A
  8
ASHADE
 10
0.304670891739292
 20
6.2157383099495389
 30
0.009963518306613
  0
SEQEND
  5
362B
  8
ASHADE
  0
POLYLINE
  5
3580
  8
ASHADE
 66
     1
 10
0.0
 20
0.0
 30
0.009963518306613
210
0.0
220
-1.0
230
0.0
  0
VERTEX
  5
362C
  8
ASHADE
 10
1.664531114564795
 20
6.2157383099495362
 30
0.009963518306613
  0
VERTEX
  5
362D
  8
ASHADE
 10
1.592827812196119
 20
6.2157383099495362
 30
0.009963518306613
  0
SEQEND
  5
362E
  8
ASHADE
  0
POLYLINE
  5
3581
  8
ASHADE
 66
     1
 10
0.0
 20
0.0
 30
0.0000001173317432
210
0.0
220
-1.0
230
0.0
  0
VERTEX
  5
362F
  8
ASHADE
 10
0.1275026851731127
 20
4.5275508844553451
 30
0.0000001173317432
  0
VERTEX
  5
3630
  8
ASHADE
 10
0.0557122796475937
 20
4.5275508844553451
 30
0.0000001173317432
  0
VERTEX
  5
3631
  8
ASHADE
 10
0.0551179999999788
 20
4.5275508844553451
 30
0.0000001173317432
 42
-0.4142135623730959
  0
VERTEX
  5
3632
  8
ASHADE
 10
0.0
 20
4.5826688844553454
 30
0.0000001173317432
  0
VERTEX
  5
3633
  8
ASHADE
 10
0.0
 20
4.8031410909592109
 30
0.0000001173317432
  0
VERTEX
  5
3634
  8
ASHADE
 10
0.1066270403117215
 20
4.8031415602861864
 30
0.0000001173317432
  0
VERTEX
  5
3635
  8
ASHADE
 10
0.1737831594465717
 20
4.8031415602861864
 30
0.0000001173317432
  0
SEQEND
  5
3636
  8
ASHADE
  0
POLYLINE
  5
3582
  8
ASHADE
 66
     1
 10
0.0
 20
0.0
 30
0.0000002933293581
210
0.0
220
-1.0
230
0.0
  0
VERTEX
  5
3637
  8
ASHADE
 10
1.7982752858507489
 20
4.8031415602861864
 30
0.0000002933293581
  0
VERTEX
  5
3638
  8
ASHADE
 10
1.8625749659923081
 20
4.8031415602861864
 30
0.0000002933293581
  0
VERTEX
  5
3639
  8
ASHADE
 10
1.9692020063040161
 20
4.8031410909592109
 30
0.0000002933293581
  0
VERTEX
  5
363A
  8
ASHADE
 10
1.969202006304023
 20
4.5826688844553454
 30
0.0000002933293581
 42
-0.4142135623730959
  0
VERTEX
  5
363B
  8
ASHADE
 10
1.9140840063040221
 20
4.5275508844553451
 30
0.0000002933293581
  0
VERTEX
  5
363C
  8
ASHADE
 10
1.9134897266564499
 20
4.5275508844553451
 30
0.0000002933293581
  0
VERTEX
  5
363D
  8
ASHADE
 10
1.844555760124251
 20
4.5275508844553451
 30
0.0000002933293581
  0
SEQEND
  5
363E
  8
ASHADE
  0
POLYLINE
  5
3583
  8
ASHADE
 66
     1
 10
0.0
 20
0.0
 30
0.000215433792728
210
0.0
220
-1.0
230
0.0
  0
VERTEX
  5
363F
  8
ASHADE
 10
0.177527189786872
 20
4.8409270748793087
 30
0.000215433792728
  0
VERTEX
  5
3640
  8
ASHADE
 10
0.1066270402860141
 20
4.8409270748793087
 30
0.000215433792728
  0
VERTEX
  5
3641
  8
ASHADE
 10
-0.0000097972006046
 20
4.8409270748793087
 30
0.000215433792728
  0
VERTEX
  5
3642
  8
ASHADE
 10
-0.0000162907913157
 20
5.3251459214949577
 30
0.000215433792728
 42
-0.0976835855136595
  0
VERTEX
  5
3643
  8
ASHADE
 10
0.0088295976650663
 20
5.369995315058393
 30
0.000215433792728
 42
-0.0210587577042768
  0
VERTEX
  5
3644
  8
ASHADE
 10
0.2980517629737136
 20
5.9979818583427607
 30
0.000215433792728
  0
VERTEX
  5
3645
  8
ASHADE
 10
0.3355083598196327
 20
7.230230981654783
 30
0.000215433792728
 42
-0.412999682131177
  0
VERTEX
  5
3646
  8
ASHADE
 10
0.9846010031520046
 20
7.7732675987477711
 30
0.000215433792728
 42
-0.4129996821311721
  0
VERTEX
  5
3647
  8
ASHADE
 10
1.6336936464843741
 20
7.2302309816547812
 30
0.000215433792728
  0
VERTEX
  5
3648
  8
ASHADE
 10
1.6711502433302761
 20
5.9979818583427571
 30
0.000215433792728
 42
-0.021058757704277
  0
VERTEX
  5
3649
  8
ASHADE
 10
1.9603724086389229
 20
5.3699953150583788
 30
0.000215433792728
 42
-0.0976835855136603
  0
VERTEX
  5
364A
  8
ASHADE
 10
1.969218297095324
 20
5.325145921494963
 30
0.000215433792728
  0
VERTEX
  5
364B
  8
ASHADE
 10
1.969211803504592
 20
4.8409270748793087
 30
0.000215433792728
  0
VERTEX
  5
364C
  8
ASHADE
 10
1.8625749660179729
 20
4.8409270748793087
 30
0.000215433792728
  0
VERTEX
  5
364D
  8
ASHADE
 10
1.7945312555104911
 20
4.8409270748793087
 30
0.000215433792728
  0
SEQEND
  5
364E
  8
ASHADE
  0
POLYLINE
  5
3584
  8
ASHADE
 66
     1
 10
0.0
 20
0.0
 30
1.429620438482019
210
0.999999999999979
220
0.0
230
0.0000002051574102
  0
VERTEX
  5
364F
  8
ASHADE
 10
-0.0021550448402333
 20
6.0289882667829913
 30
1.429620438482019
  0
VERTEX
  5
3650
  8
ASHADE
 10
-0.0021192586585453
 20
6.171965913133854
 30
1.429620438482019
  0
SEQEND
  5
3651
  8
ASHADE
  0
POLYLINE
  5
3585
  8
ASHADE
 66
     1
 10
0.0
 20
0.0
 30
0.5326458641056863
210
0.9999991120576328
220
0.0
230
-0.0013326229571946
  0
VERTEX
  5
3652
  8
ASHADE
 10
-0.0100090430229905
 20
6.0354345410298782
 30
0.5326458641056863
  0
VERTEX
  5
3653
  8
ASHADE
 10
-0.0021189066633157
 20
6.1725777821698156
 30
0.5326458641056863
  0
SEQEND
  5
3654
  8
ASHADE
  0
POLYLINE
  5
3588
  8
ASHADE
 66
     1
 10
0.0
 20
0.0
 30
0.0
210
0.0
220
-1.0
230
0.0
  0
VERTEX
  5
3655
  8
ASHADE
 10
-0.0000000000000211
 20
0.8425180513999672
 30
0.0
 42
0.4142135623730959
  0
VERTEX
  5
3656
  8
ASHADE
 10
0.0551179999999789
 20
0.7874000513999669
 30
0.0
  0
VERTEX
  5
3657
  8
ASHADE
 10
0.0557122796475937
 20
0.7874000513999669
 30
0.0
  0
VERTEX
  5
3658
  8
ASHADE
 10
1.9140840063040221
 20
0.7874000513999669
 30
0.0
  0
VERTEX
  5
3659
  8
ASHADE
 10
1.9134897266564499
 20
0.7874000513999669
 30
0.0
  0
SEQEND
  5
365A
  8
ASHADE
  0
POLYLINE
  5
358A
  8
ASHADE
 66
     1
 10
0.0
 20
0.0
 30
0.0010310526937245
 70
     1
210
0.0
220
-1.0
230
0.0
  0
VERTEX
  5
365B
  8
ASHADE
 10
5.2156288011019276
 20
1.0915640195876111
 30
0.0010310526937245
  0
VERTEX
  5
365C
  8
ASHADE
 10
5.2156288011019276
 20
0.4929708464562644
 30
0.0010310526937245
  0
VERTEX
  5
365D
  8
ASHADE
 10
6.1968924735730289
 20
0.4929707877903926
 30
0.0010310526937245
  0
VERTEX
  5
365E
  8
ASHADE
 10
6.1968924735730289
 20
1.0915640195876111
 30
0.0010310526937245
  0
SEQEND
  5
365F
  8
ASHADE
  0
POLYLINE
  5
358C
  8
ASHADE
 66
     1
 10
0.0
 20
0.0
 30
0.0012162021845578
 70
     1
210
0.0
220
-1.0
230
0.0
  0
VERTEX
  5
3660
  8
ASHADE
 10
6.6633240394512541
 20
0.1184666892162691
 30
0.0012162021845578
  0
VERTEX
  5
3661
  8
ASHADE
 10
6.658842095846409
 20
0.1184666877787284
 30
0.0012162021845578
  0
VERTEX
  5
3662
  8
ASHADE
 10
6.3728829020989082
 20
0.1184666877787186
 30
0.0012162021845578
  0
VERTEX
  5
3663
  8
ASHADE
 10
5.0396383725760501
 20
0.118466687778731
 30
0.0012162021845578
  0
VERTEX
  5
3664
  8
ASHADE
 10
4.7536791788284907
 20
0.118466687778731
 30
0.0012162021845578
  0
VERTEX
  5
3665
  8
ASHADE
 10
4.7491972352236989
 20
0.1184666892162703
 30
0.0012162021845578
 42
0.4142136563156864
  0
VERTEX
  5
3666
  8
ASHADE
 10
4.7216382263843988
 20
0.0909076892162717
 30
0.0012162021845578
  0
VERTEX
  5
3667
  8
ASHADE
 10
4.7216382263843988
 20
0.0870414556570101
 30
0.0012162021845578
  0
VERTEX
  5
3668
  8
ASHADE
 10
4.7216382263843988
 20
0.0
 30
0.0012162021845578
  0
VERTEX
  5
3669
  8
ASHADE
 10
6.6908830482904866
 20
0.0
 30
0.0012162021845578
  0
VERTEX
  5
366A
  8
ASHADE
 10
6.6908830482904866
 20
0.0870414556570118
 30
0.0012162021845578
  0
VERTEX
  5
366B
  8
ASHADE
 10
6.690883048290476
 20
0.0909076892162705
 30
0.0012162021845578
 42
0.4142136563156863
  0
SEQEND
  5
366C
  8
ASHADE
  0
POLYLINE
  5
358F
  8
ASHADE
 66
     1
 10
0.0
 20
0.0
 30
0.0
210
0.0
220
-1.0
230
0.0
  0
VERTEX
  5
366D
  8
ASHADE
 10
1.969202006304023
 20
0.8425180513999672
 30
0.0
 42
-0.4142135623730959
  0
VERTEX
  5
366E
  8
ASHADE
 10
1.9140840063040221
 20
0.7874000513999667
 30
0.0
 42
-0.4142135623730953
  0
VERTEX
  5
366F
  8
ASHADE
 10
1.9692020063040161
 20
0.7322820513999666
 30
0.0
  0
VERTEX
  5
3670
  8
ASHADE
 10
1.9692020063040161
 20
0.7282479570358014
 30
0.0
  0
VERTEX
  5
3671
  8
ASHADE
 10
1.9692020063040161
 20
0.0
 30
0.0
  0
VERTEX
  5
3672
  8
ASHADE
 10
0.0
 20
0.0
 30
0.0
  0
VERTEX
  5
3673
  8
ASHADE
 10
0.0
 20
0.7282479570358014
 30
0.0
  0
VERTEX
  5
3674
  8
ASHADE
 10
-0.0000000000000211
 20
0.7322820513999666
 30
0.0
 42
-0.4142135623730951
  0
VERTEX
  5
3675
  8
ASHADE
 10
0.0551179999999788
 20
0.7874000513999667
 30
0.0
  0
SEQEND
  5
3676
  8
ASHADE
  0
POLYLINE
  5
3595
  8
ASHADE
 66
     1
 10
0.0
 20
0.0
 30
1.862574962729902
210
1.0
220
0.0
230
-0.0000000006792233
  0
VERTEX
  5
3677
  8
ASHADE
 10
-0.0000002933293581
 20
4.80314156155129
 30
1.862574962729902
  0
VERTEX
  5
3678
  8
ASHADE
 10
-0.000215433792728
 20
4.8409270761444141
 30
1.862574962729902
  0
SEQEND
  5
3679
  8
ASHADE
  0
POLYLINE
  5
359A
  8
ASHADE
 66
     1
 10
0.0
 20
0.0
 30
0.0000001173317432
210
0.0
220
-1.0
230
0.0
  0
VERTEX
  5
367A
  8
ASHADE
 10
1.9692020063040161
 20
0.8465521457641337
 30
0.0000001173317432
  0
VERTEX
  5
367B
  8
ASHADE
 10
1.9692020063040161
 20
4.4683987900911788
 30
0.0000001173317432
  0
VERTEX
  5
367C
  8
ASHADE
 10
1.969202006304023
 20
4.472432884455344
 30
0.0000001173317432
 42
0.4142135623730953
  0
VERTEX
  5
367D
  8
ASHADE
 10
1.9140840063040221
 20
4.5275508844553451
 30
0.0000001173317432
  0
SEQEND
  5
367E
  8
ASHADE
  0
POLYLINE
  5
35A2
  8
ASHADE
 66
     1
 10
0.0
 20
0.0
 30
0.0
210
0.0
220
-1.0
230
0.0
  0
VERTEX
  5
367F
  8
ASHADE
 10
1.9692020063040161
 20
0.0
 30
0.0
  0
VERTEX
  5
3680
  8
ASHADE
 10
1.9692020063040161
 20
0.7282479570358014
 30
0.0
  0
SEQEND
  5
3681
  8
ASHADE
  0
POLYLINE
  5
35A8
  8
ASHADE
 66
     1
 10
0.0
 20
0.0
 30
0.1066270435795467
210
1.0
220
0.0
230
0.0000000006803516
  0
VERTEX
  5
3682
  8
ASHADE
 10
-0.0000002933293581
 20
4.8031415602136418
 30
0.1066270435795467
  0
VERTEX
  5
3683
  8
ASHADE
 10
-0.000215433792728
 20
4.840927074806765
 30
0.1066270435795467
  0
SEQEND
  5
3684
  8
ASHADE
  0
POLYLINE
  5
35AD
  8
ASHADE
 66
     1
 10
0.0
 20
0.0
 30
0.0000001173317432
210
0.0
220
-1.0
230
0.0
  0
VERTEX
  5
3685
  8
ASHADE
 10
0.0551179999999788
 20
4.5275508844553451
 30
0.0000001173317432
 42
0.4142135623730951
  0
VERTEX
  5
3686
  8
ASHADE
 10
0.0
 20
4.472432884455344
 30
0.0000001173317432
  0
VERTEX
  5
3687
  8
ASHADE
 10
0.0
 20
4.4683987900911788
 30
0.0000001173317432
  0
VERTEX
  5
3688
  8
ASHADE
 10
0.0
 20
0.8465521457641337
 30
0.0000001173317432
  0
SEQEND
  5
3689
  8
ASHADE
  0
POLYLINE
  5
35B5
  8
ASHADE
 66
     1
 10
0.0
 20
0.0
 30
0.0
210
0.0
220
-1.0
230
0.0
  0
VERTEX
  5
368A
  8
ASHADE
 10
0.0
 20
0.0
 30
0.0
  0
VERTEX
  5
368B
  8
ASHADE
 10
0.0
 20
0.7282479570358014
 30
0.0
  0
SEQEND
  5
368C
  8
ASHADE
  0
POLYLINE
  5
35B6
  8
ASHADE
 66
     1
 10
0.0
 20
0.0
 30
0.0012471207007904
210
0.0
220
-1.0
230
0.0
  0
VERTEX
  5
368D
  8
ASHADE
 10
6.2886774742338751
 20
1.0915425478785969
 30
0.0012471207007904
 42
0.414213656315684
  0
VERTEX
  5
368E
  8
ASHADE
 10
6.3319844881241352
 20
1.134849547878594
 30
0.0012471207007904
  0
VERTEX
  5
368F
  8
ASHADE
 10
6.3319844881241352
 20
4.9493382672650528
 30
0.0012471207007904
  0
SEQEND
  5
3690
  8
ASHADE
  0
POLYLINE
  5
35B7
  8
ASHADE
 66
     1
 10
0.0
 20
0.0
 30
0.0012471778267438
210
0.0
220
-1.0
230
0.0
  0
VERTEX
  5
3691
  8
ASHADE
 10
5.0863174868767382
 20
1.134849561754796
 30
0.0012471778267438
 42
0.4142136563156832
  0
VERTEX
  5
3692
  8
ASHADE
 10
5.129624486876736
 20
1.0915425478645071
 30
0.0012471778267438
  0
SEQEND
  5
3693
  8
ASHADE
  0
POLYLINE
  5
35BA
  8
ASHADE
 66
     1
 10
0.0
 20
0.0
 30
0.0012162021845578
210
0.0
220
-1.0
230
0.0
  0
VERTEX
  5
3694
  8
ASHADE
 10
6.2826704257672068
 20
0.4928944048255453
 30
0.0012162021845578
  0
VERTEX
  5
3695
  8
ASHADE
 10
6.286268888208606
 20
0.4928944059797167
 30
0.0012162021845578
 42
-0.4142136563156832
  0
VERTEX
  5
3696
  8
ASHADE
 10
6.3295759020988953
 20
0.4495874059797212
 30
0.0012162021845578
  0
VERTEX
  5
3697
  8
ASHADE
 10
6.3295759020989069
 20
0.1617736877787175
 30
0.0012162021845578
 42
0.4142135623730955
  0
VERTEX
  5
3698
  8
ASHADE
 10
6.3728829020989091
 20
0.118466687778719
 30
0.0012162021845578
  0
SEQEND
  5
3699
  8
ASHADE
  0
POLYLINE
  5
35C0
  8
ASHADE
 66
     1
 10
0.0
 20
0.0
 30
0.0012162021845578
210
0.0
220
-1.0
230
0.0
  0
VERTEX
  5
369A
  8
ASHADE
 10
5.0396383725760501
 20
0.1184666877787319
 30
0.0012162021845578
 42
0.4142135623730959
  0
VERTEX
  5
369B
  8
ASHADE
 10
5.0829453725760478
 20
0.1617736877787319
 30
0.0012162021845578
  0
VERTEX
  5
369C
  8
ASHADE
 10
5.0829453725759608
 20
0.4495874646455884
 30
0.0012162021845578
 42
-0.4142136563156834
  0
VERTEX
  5
369D
  8
ASHADE
 10
5.1262523864663327
 20
0.4928944646455871
 30
0.0012162021845578
  0
VERTEX
  5
369E
  8
ASHADE
 10
5.129850848907707
 20
0.4928944634914152
 30
0.0012162021845578
  0
SEQEND
  5
369F
  8
ASHADE
  0
POLYLINE
  5
35C2
  8
ASHADE
 66
     1
 10
0.0
 20
0.0
 30
-0.0123447506468079
210
-0.0021584691029802
220
-0.9999976705028526
230
0.0
  0
VERTEX
  5
36A0
  8
ASHADE
 10
6.2826584154392107
 20
0.4928944048255454
 30
-0.0123447506468079
  0
VERTEX
  5
36A1
  8
ASHADE
 10
6.1968802634250721
 20
0.4929707877903927
 30
-0.0123447506468079
  0
SEQEND
  5
36A2
  8
ASHADE
  0
POLYLINE
  5
35C8
  8
ASHADE
 66
     1
 10
0.0
 20
0.0
 30
-0.0135568075162658
210
-0.0023540601059897
220
-0.9999972291966699
230
0.0
  0
VERTEX
  5
36A3
  8
ASHADE
 10
6.2886629853424667
 20
1.0915425478785981
 30
-0.0135568075162658
  0
VERTEX
  5
36A4
  8
ASHADE
 10
6.1968777303627434
 20
1.0915640195876111
 30
-0.0135568075162658
  0
SEQEND
  5
36A5
  8
ASHADE
  0
POLYLINE
  5
35C9
  8
ASHADE
 66
     1
 10
0.0
 20
0.0
 30
0.0012471778267438
210
0.0
220
-1.0
230
0.0
  0
VERTEX
  5
36A6
  8
ASHADE
 10
5.0863174868767373
 20
1.1348495478645071
 30
0.0012471778267438
  0
VERTEX
  5
36A7
  8
ASHADE
 10
5.0863174868767373
 20
4.9493382672650528
 30
0.0012471778267438
  0
SEQEND
  5
36A8
  8
ASHADE
  0
POLYLINE
  5
35CA
  8
ASHADE
 66
     1
 10
0.0
 20
0.0
 30
0.0141341593058037
210
0.0025122668233917
220
-0.9999968442527247
230
0.0
  0
VERTEX
  5
36A9
  8
ASHADE
 10
5.2156097514686897
 20
1.0915640195876111
 30
0.0141341593058037
  0
VERTEX
  5
36AA
  8
ASHADE
 10
5.1296051658347608
 20
1.091542547864506
 30
0.0141341593058037
  0
SEQEND
  5
36AB
  8
ASHADE
  0
POLYLINE
  5
35CC
  8
ASHADE
 66
     1
 10
0.0
 20
0.0
 30
-0.0122888239116769
210
-0.0021584691029792
220
0.9999976705028524
230
0.0
  0
VERTEX
  5
36AC
  8
ASHADE
 10
-5.129836273799949
 20
0.4928944634914152
 30
-0.0122888239116769
  0
VERTEX
  5
36AD
  8
ASHADE
 10
-5.215614425814131
 20
0.4929708464562644
 30
-0.0122888239116769
  0
SEQEND
  5
36AE
  8
ASHADE
  0
ATTDEF
  5
35D3
  8
0
 10
0.0
 20
0.0
 30
0.0
 40
0.001
  1
K-10416
210
0.0
220
-1.0
230
0.0
  3

  2
PRODUCTNUMBER
 70
     8
  0
ATTDEF
  5
35D4
  8
0
 10
0.0
 20
-0.0016666666666667
 30
0.0
 40
0.001
  1
FORTE
210
0.0
220
-1.0
230
0.0
  3

  2
TRADENAME
 70
     8
  0
ATTDEF
  5
35D5
  8
0
 10
0.0
 20
-0.0033333333333333
 30
0.0
 40
0.001
  1
FAUCETS
210
0.0
220
-1.0
230
0.0
  3

  2
PRODUCT
 70
     8
  0
ATTDEF
  5
35D6
  8
0
 10
0.0
 20
-0.005
 30
0.0
 40
0.001
  1
BRASS
210
0.0
220
-1.0
230
0.0
  3

  2
MATERIAL
 70
     8
  0
ENDSEC
  0
EOF
