  0
SECTION
  2
HEADER
  9
$ACADVER
  1
AC1009
  9
$INSBASE
 10
335.27633896394673
 20
33.334638991658977
 30
0.0
  9
$EXTMIN
 10
332.5214319202438
 20
28.723335186911221
 30
0.0
  9
$EXTMAX
 10
338.03124600764937
 20
33.98871276256132
 30
0.0
  9
$LIMMIN
 10
0.0
 20
0.0
  9
$LIMMAX
 10
11.692913385800001
 20
8.2677165353999982
  9
$ORTHOMODE
 70
     0
  9
$REGENMODE
 70
     1
  9
$FILLMODE
 70
     1
  9
$QTEXTMODE
 70
     0
  9
$MIRRTEXT
 70
     0
  9
$DRAGMODE
 70
     2
  9
$LTSCALE
 40
0.6431102362
  9
$OSMODE
 70
  3071
  9
$ATTMODE
 70
     1
  9
$TEXTSIZE
 40
0.2
  9
$TRACEWID
 40
0.05
  9
$TEXTSTYLE
  7
STANDARD
  9
$CLAYER
  8
0
  9
$CELTYPE
  6
BYLAYER
  9
$CECOLOR
 62
   256
  9
$DIMSCALE
 40
1.0
  9
$DIMASZ
 40
0.1875
  9
$DIMEXO
 40
0.0625
  9
$DIMDLI
 40
0.4443307087
  9
$DIMRND
 40
0.0
  9
$DIMDLE
 40
0.0
  9
$DIMEXE
 40
0.125
  9
$DIMTP
 40
0.01
  9
$DIMTM
 40
0.01
  9
$DIMTXT
 40
1.0
  9
$DIMCEN
 40
0.1052362205
  9
$DIMTSZ
 40
0.0
  9
$DIMTOL
 70
     1
  9
$DIMLIM
 70
     0
  9
$DIMTIH
 70
     0
  9
$DIMTOH
 70
     1
  9
$DIMSE1
 70
     0
  9
$DIMSE2
 70
     0
  9
$DIMTAD
 70
     0
  9
$DIMZIN
 70
     0
  9
$DIMBLK
  1

  9
$DIMASO
 70
     1
  9
$DIMSHO
 70
     1
  9
$DIMPOST
  1
\X
  9
$DIMAPOST
  1

  9
$DIMALT
 70
     1
  9
$DIMALTD
 70
     2
  9
$DIMALTF
 40
25.399999999999999
  9
$DIMLFAC
 40
1.0
  9
$DIMTOFL
 70
     0
  9
$DIMTVP
 40
0.0
  9
$DIMTIX
 70
     0
  9
$DIMSOXD
 70
     0
  9
$DIMSAH
 70
     0
  9
$DIMBLK1
  1

  9
$DIMBLK2
  1

  9
$DIMSTYLE
  2
STANDARD
  9
$DIMCLRD
 70
     0
  9
$DIMCLRE
 70
     0
  9
$DIMCLRT
 70
     0
  9
$DIMTFAC
 40
1.0
  9
$DIMGAP
 40
0.09
  9
$LUNITS
 70
     2
  9
$LUPREC
 70
     4
  9
$SKETCHINC
 40
0.1
  9
$FILLETRAD
 40
0.0
  9
$AUNITS
 70
     0
  9
$AUPREC
 70
     0
  9
$MENU
  1
.
  9
$ELEVATION
 40
0.0
  9
$PELEVATION
 40
0.0
  9
$THICKNESS
 40
0.0
  9
$LIMCHECK
 70
     0
  9
$BLIPMODE
 70
     0
  9
$CHAMFERA
 40
0.0
  9
$CHAMFERB
 40
0.0
  9
$SKPOLY
 70
     0
  9
$TDCREATE
 40
2458172.5207663891
  9
$TDUPDATE
 40
2458453.65202309
  9
$TDINDWG
 40
0.1041206481
  9
$TDUSRTIMER
 40
0.1041206481
  9
$USRTIMER
 70
     1
  9
$ANGBASE
 50
0.0
  9
$ANGDIR
 70
     0
  9
$PDMODE
 70
     0
  9
$PDSIZE
 40
0.3125
  9
$PLINEWID
 40
0.0
  9
$COORDS
 70
     1
  9
$SPLFRAME
 70
     0
  9
$SPLINETYPE
 70
     6
  9
$SPLINESEGS
 70
     8
  9
$ATTDIA
 70
     1
  9
$ATTREQ
 70
     1
  9
$HANDLING
 70
     1
  9
$HANDSEED
  5
4F54
  9
$SURFTAB1
 70
     6
  9
$SURFTAB2
 70
     6
  9
$SURFTYPE
 70
     6
  9
$SURFU
 70
     6
  9
$SURFV
 70
     6
  9
$UCSNAME
  2

  9
$UCSORG
 10
0.0
 20
0.0
 30
0.0
  9
$UCSXDIR
 10
1.0
 20
0.0
 30
0.0
  9
$UCSYDIR
 10
0.0
 20
1.0
 30
0.0
  9
$PUCSNAME
  2

  9
$PUCSORG
 10
0.0
 20
0.0
 30
0.0
  9
$PUCSXDIR
 10
1.0
 20
0.0
 30
0.0
  9
$PUCSYDIR
 10
0.0
 20
1.0
 30
0.0
  9
$USERI1
 70
     0
  9
$USERI2
 70
     0
  9
$USERI3
 70
     0
  9
$USERI4
 70
     0
  9
$USERI5
 70
     0
  9
$USERR1
 40
0.0
  9
$USERR2
 40
0.0
  9
$USERR3
 40
0.0
  9
$USERR4
 40
0.0
  9
$USERR5
 40
0.0
  9
$WORLDVIEW
 70
     1
  9
$SHADEDGE
 70
     3
  9
$SHADEDIF
 70
    70
  9
$TILEMODE
 70
     1
  9
$MAXACTVP
 70
    64
  9
$PLIMCHECK
 70
     0
  9
$PEXTMIN
 10
1.0000000000000000E+020
 20
1.0000000000000000E+020
 30
1.0000000000000000E+020
  9
$PEXTMAX
 10
-1.0000000000000000E+020
 20
-1.0000000000000000E+020
 30
-1.0000000000000000E+020
  9
$PLIMMIN
 10
0.0
 20
0.0
  9
$PLIMMAX
 10
12.0
 20
9.0
  9
$UNITMODE
 70
     0
  9
$VISRETAIN
 70
     1
  9
$PLINEGEN
 70
     0
  9
$PSLTSCALE
 70
     1
  0
ENDSEC
  0
SECTION
  2
TABLES
  0
TABLE
  2
VPORT
 70
     1
  0
VPORT
  2
*ACTIVE
 70
     0
 10
0.0
 20
0.0
 11
1.0
 21
1.0
 12
0.0
 22
0.0
 13
0.0
 23
0.0
 14
1.0
 24
1.0
 15
0.0
 25
0.0
 16
0.0
 26
0.0
 36
21.960147430278781
 17
335.27633666992187
 27
31.356023788452148
 37
0.0
 40
7.6219585790237199
 41
2.1638418079096038
 42
50.0
 43
0.0
 44
0.0
 50
0.0
 51
0.0
 71
     0
 72
   100
 73
     1
 74
     1
 75
     0
 76
     0
 77
     0
 78
     0
  0
ENDTAB
  0
TABLE
  2
LTYPE
 70
     2
  0
LTYPE
  2
CONTINUOUS
 70
     0
  3
Solid line
 72
    65
 73
     0
 40
0.0
  0
LTYPE
  2
PHANTOM2
 70
     0
  3
___ _ _ ___ _ _ ___ _ _ ___ _ _
 72
    65
 73
     6
 40
1.25
 49
0.625
 49
-0.125
 49
0.125
 49
-0.125
 49
0.125
 49
-0.125
  0
ENDTAB
  0
TABLE
  2
LAYER
 70
     2
  0
LAYER
  2
0
 70
     0
 62
   255
  6
CONTINUOUS
  0
LAYER
  2
DEFPOINTS
 70
     0
 62
     7
  6
CONTINUOUS
  0
ENDTAB
  0
TABLE
  2
STYLE
 70
     1
  0
STYLE
  2
STANDARD
 70
     0
 40
0.0
 41
0.8
 50
0.0
 71
     0
 42
0.2
  3
txt
  4

  0
ENDTAB
  0
TABLE
  2
VIEW
 70
     0
  0
ENDTAB
  0
TABLE
  2
UCS
 70
     0
  0
ENDTAB
  0
TABLE
  2
APPID
 70
    10
  0
APPID
  2
ACAD
 70
     0
  0
APPID
  2
ACAD_MLEADERVER
 70
     0
  0
APPID
  2
ACAD_EXEMPT_FROM_CAD_STANDARDS
 70
     0
  0
APPID
  2
ACAD_DSTYLE_DIMJAG
 70
     0
  0
APPID
  2
ACAD_DSTYLE_DIMTALN
 70
     0
  0
APPID
  2
ACAD_NAV_VCDISPLAY
 70
     0
  0
APPID
  2
ACAECLAYERSTANDARD
 70
     0
  0
APPID
  2
ACCMTRANSPARENCY
 70
     0
  0
APPID
  2
DCO15
 70
     0
  0
APPID
  2
ACDBATTR
 70
     0
  0
ENDTAB
  0
TABLE
  2
DIMSTYLE
 70
     2
  0
DIMSTYLE
  2
STANDARD
 70
     0
  3

  4

  5

  6

  7

 40
1.0
 41
0.1875
 42
0.0625
 43
0.38
 44
0.125
 45
0.0
 46
0.0
 47
0.01
 48
0.01
140
0.15625
141
0.09
142
0.0
143
25.399999999999999
144
1.0
145
0.0
146
1.0
147
0.09
 71
     1
 72
     0
 73
     1
 74
     1
 75
     0
 76
     0
 77
     0
 78
     4
170
     0
171
     2
172
     0
173
     0
174
     0
175
     0
176
     0
177
     0
178
     0
  0
ENDTAB
  0
ENDSEC
  0
SECTION
  2
BLOCKS
  0
BLOCK
  8
0
  2
$MODEL_SPACE
 70
     0
 10
0.0
 20
0.0
 30
0.0
  3
$MODEL_SPACE
  1

  0
ENDBLK
  5
21
  8
0
  0
BLOCK
 67
     1
  8
0
  2
$PAPER_SPACE
 70
     0
 10
0.0
 20
0.0
 30
0.0
  3
$PAPER_SPACE
  1

  0
ENDBLK
  5
1D
 67
     1
  8
0
  0
ENDSEC
  0
SECTION
  2
ENTITIES
  0
ATTDEF
  5
829
  8
DEFPOINTS
 10
335.27122388989523
 20
33.330273894770592
 30
0.0
 40
0.001
  1
K-10282-AK
  3

  2
MODELNUMBER
 70
     0
1001
ACDBATTR
1070
     0
1070
     1
  0
ATTDEF
  5
82A
  8
DEFPOINTS
 10
335.27122388989523
 20
33.328607228103927
 30
0.0
 40
0.001
  1
FORTE
  3

  2
TRADENAME
 70
     0
1001
ACDBATTR
1070
     0
1070
     1
  0
ATTDEF
  5
82B
  8
DEFPOINTS
 10
335.27122388989523
 20
33.326940561437262
 30
0.0
 40
0.001
  1
SHOWERHEAD
  3

  2
PRODUCT
 70
     0
1001
ACDBATTR
1070
     0
1070
     1
  0
ATTDEF
  5
82C
  8
DEFPOINTS
 10
335.27122388989523
 20
33.325273894770604
 30
0.0
 40
0.001
  1
PREMIUM MATERIALS
  3

  2
MATERIAL
 70
     0
1001
ACDBATTR
1070
     0
1070
     1
  0
LINE
  5
4D00
  8
0
 10
334.82133335652969
 20
32.951999405411819
 30
0.0
 11
334.82133335652992
 21
33.387687816708961
 31
0.0
  0
LINE
  5
4D01
  8
0
 10
335.73133335652977
 20
32.951999374108979
 30
0.0
 11
335.73133335652977
 21
33.387634753806019
 31
0.0
  0
LINE
  5
4D02
  8
0
 10
334.78133896907991
 20
33.556551408571181
 30
0.0
 11
334.78133896907991
 21
33.632837043258981
 31
0.0
  0
ARC
  5
4D03
  8
0
 10
335.06827438128039
 20
33.627718268446039
 30
0.0
 40
0.2869810666755583
 50
139.6215124059859
 51
178.97798224165089
  0
ARC
  5
4D04
  8
0
 10
335.19486288115348
 20
33.518409162054652
 30
0.0
 40
0.4542297553434576
 50
111.5472390178944
 51
139.46240877893959
  0
ARC
  5
4D05
  8
0
 10
335.29246130462082
 20
33.140788366018882
 30
0.0
 40
0.8480776568927336
 50
91.08928435702019
 51
100.2319374481374
  0
ARC
  5
4D06
  8
0
 10
335.26180968854089
 20
33.374528187358003
 30
0.0
 40
0.6127155523402053
 50
101.2938952293017
 51
112.42864763598929
  0
ARC
  5
4D07
  8
0
 10
335.20228032850099
 20
33.14673890848578
 30
0.0
 40
0.4289567424862151
 50
207.6848802266357
 51
237.01236944991891
  0
ARC
  5
4D08
  8
0
 10
335.27131135021853
 20
33.259792377330911
 30
0.0
 40
0.5613810085826853
 50
237.38494603322471
 51
270.51313616618421
  0
ARC
  5
4D09
  8
0
 10
335.25767050045249
 20
33.007371674135413
 30
0.0
 40
0.3634254883201861
 50
217.34063176839641
 51
272.94446911675112
  0
ARC
  5
4D0A
  8
0
 10
335.09513702458872
 20
33.649846654451657
 30
0.0
 40
0.3142587254380957
 50
183.10271551023331
 51
239.09892001700581
  0
ARC
  5
4D0B
  8
0
 10
335.24712633461002
 20
33.855819674691247
 30
0.0
 40
0.569583237237864
 50
236.6199258658535
 51
258.74033341741517
  0
ARC
  5
4D0C
  8
0
 10
335.27579667869873
 20
33.970361466985182
 30
0.0
 40
0.6875424943184627
 50
258.26085977700058
 51
270.04519089290869
  0
ARC
  5
4D0D
  8
0
 10
335.27410697421237
 20
33.359246524159197
 30
0.0
 40
0.5776507472435356
 50
89.778613789517763
 51
110.2262578299792
  0
ARC
  5
4D0E
  8
0
 10
335.20354232318618
 20
33.531927038149831
 30
0.0
 40
0.3912766438127948
 50
109.27253641819379
 51
143.95511888092059
  0
ARC
  5
4D0F
  8
0
 10
335.07493921416079
 20
33.63176557990198
 30
0.0
 40
0.2286027561807788
 50
145.22157822357121
 51
234.31048021767799
  0
ARC
  5
4D10
  8
0
 10
335.27780707138311
 20
33.897513292119598
 30
0.0
 40
0.5628762150406389
 50
233.3197968538189
 51
269.8505595846878
  0
ARC
  5
4D11
  8
0
 10
335.15096751200542
 20
33.546924315504057
 30
0.0
 40
0.3095850040579189
 50
115.0910257866494
 51
168.55501469787009
  0
ARC
  5
4D12
  8
0
 10
335.27149470759321
 20
33.330022230166939
 30
0.0
 40
0.5573943051554373
 50
89.502042027461684
 51
116.8567303701432
  0
LINE
  5
4D13
  8
0
 10
335.77133895881383
 20
33.551764743285297
 30
0.0
 11
335.77133895881383
 21
33.632837043258981
 31
0.0
  0
ARC
  5
4D14
  8
0
 10
335.48440354661329
 20
33.627718268446039
 30
0.0
 40
0.2869810666755583
 50
1.022017758349032
 51
40.378487594013983
  0
ARC
  5
4D15
  8
0
 10
335.35781504674009
 20
33.518409162054652
 30
0.0
 40
0.4542297553434576
 50
40.537591221060367
 51
68.452760982105602
  0
ARC
  5
4D16
  8
0
 10
335.26021662327281
 20
33.140788366018882
 30
0.0
 40
0.8480776568927336
 50
79.768062551862613
 51
88.910715642976555
  0
ARC
  5
4D17
  8
0
 10
335.29086823935279
 20
33.374528187358003
 30
0.0
 40
0.6127155523402053
 50
67.571352364010679
 51
78.706104770698332
  0
ARC
  5
4D18
  8
0
 10
335.43035227550172
 20
33.095725244968129
 30
0.0
 40
0.3345401554282835
 50
324.69085490677111
 51
333.69091418074822
  0
ARC
  5
4D19
  8
0
 10
335.34464752712751
 20
33.153950285393677
 30
0.0
 40
0.4381371502777469
 50
303.10490646495282
 51
324.95527976138482
  0
ARC
  5
4D1A
  8
0
 10
335.28136657767521
 20
33.259792377330911
 30
0.0
 40
0.5613810085826853
 50
269.48686383381579
 51
302.61505396677512
  0
ARC
  5
4D1B
  8
0
 10
335.29500742744119
 20
33.007371674135413
 30
0.0
 40
0.3634254883201861
 50
267.05553088324888
 51
322.65936823161348
  0
ARC
  5
4D1C
  8
0
 10
335.45754090330502
 20
33.649846654451657
 30
0.0
 40
0.3142587254380957
 50
300.90107998299419
 51
356.89728448976661
  0
ARC
  5
4D1D
  8
0
 10
335.3055515932835
 20
33.855819674691247
 30
0.0
 40
0.569583237237864
 50
281.25966658258159
 51
303.38007413414653
  0
ARC
  5
4D1E
  8
0
 10
335.2768812491949
 20
33.970361466985182
 30
0.0
 40
0.6875424943184627
 50
269.95480910709131
 51
281.73914022299942
  0
ARC
  5
4D1F
  8
0
 10
335.27857095368131
 20
33.359246524159197
 30
0.0
 40
0.5776507472435356
 50
69.773742170020753
 51
90.221386210482223
  0
ARC
  5
4D20
  8
0
 10
335.34913560470739
 20
33.531927038149831
 30
0.0
 40
0.3912766438127948
 50
36.044881119079193
 51
70.72746358180612
  0
ARC
  5
4D21
  8
0
 10
335.47773871373278
 20
33.63176557990198
 30
0.0
 40
0.2286027561807788
 50
305.6895197823219
 51
34.778421776428559
  0
ARC
  5
4D22
  8
0
 10
335.2766962919647
 20
33.892030566544548
 30
0.0
 40
0.5573916894220165
 50
269.96326929675791
 51
306.86637426472601
  0
ARC
  5
4D23
  8
0
 10
335.40171041588792
 20
33.546924315504022
 30
0.0
 40
0.3095850040581137
 50
11.44498530213054
 51
64.90897421329727
  0
ARC
  5
4D24
  8
0
 10
335.28118322030048
 20
33.330022230166939
 30
0.0
 40
0.5573943051554373
 50
63.143269629856817
 51
90.497957972535033
  0
ARC
  5
4D25
  8
0
 10
335.26822776318312
 20
33.587454232971332
 30
0.0
 40
0.5043754701044049
 50
336.66090623259078
 51
355.9423732440282
  0
ARC
  5
4D26
  8
0
 10
335.26908614383052
 20
33.582903552295477
 30
0.0
 40
0.4884585365781638
 50
183.0925859422814
 51
203.5567200160479
  0
ARC
  5
4D27
  8
0
 10
334.83133470593242
 20
32.951999598996593
 30
0.0
 40
0.0100013494045305
 50
180.00110900941789
 51
207.1098162310318
  0
ARC
  5
4D28
  8
0
 10
335.72097910027668
 20
32.952085450839327
 30
0.0
 40
0.0103546140323173
 50
333.42168449254513
 51
359.5237012068398
  0
ARC
  5
4D29
  8
0
 10
335.269999533072
 20
33.148386917348702
 30
0.0
 40
0.2759261379766456
 50
88.683507844384238
 51
128.56515836624709
  0
ARC
  5
4D2A
  8
0
 10
335.27287909362661
 20
33.112546638515262
 30
0.0
 40
0.2787680106670094
 50
89.288867268567472
 51
120.1449746431138
  0
ARC
  5
4D2B
  8
0
 10
335.2826783948255
 20
33.148386917348702
 30
0.0
 40
0.2759261379766456
 50
51.362235512403437
 51
91.316492155619017
  0
ARC
  5
4D2C
  8
0
 10
335.27979883427111
 20
33.112546638515262
 30
0.0
 40
0.2787680106670094
 50
59.77281790061771
 51
90.711132731432514
  0
ARC
  5
4D2D
  8
0
 10
335.0293866100825
 20
32.835369132074007
 30
0.0
 40
0.270684141522734
 50
140.2301301574384
 51
197.35565349109959
  0
ARC
  5
4D2E
  8
0
 10
335.1221035033065
 20
32.88416000862734
 30
0.0
 40
0.3742123826641293
 50
200.25248768991071
 51
243.09340803276751
  0
ARC
  5
4D2F
  8
0
 10
335.03893506248153
 20
32.802535892830562
 30
0.0
 40
0.2721593250061882
 50
143.08600145929799
 51
190.13950370323849
  0
ARC
  5
4D30
  8
0
 10
335.0804245797533
 20
33.556582221255653
 30
0.0
 40
0.1945721501976326
 50
147.06386501456581
 51
201.46225367232179
  0
ARC
  5
4D31
  8
0
 10
335.18684013112079
 20
33.481533511131779
 30
0.0
 40
0.3247290570500549
 50
110.40749112011061
 51
146.1590128219247
  0
ARC
  5
4D32
  8
0
 10
335.254977178503
 20
33.33388389609344
 30
0.0
 40
0.4870279393554548
 50
97.154602388850748
 51
111.8635947564096
  0
ARC
  5
4D33
  8
0
 10
335.26131194753248
 20
33.292423643460083
 30
0.0
 40
0.5289555363185626
 50
88.372073995474565
 51
97.276102509610567
  0
ARC
  5
4D34
  8
0
 10
335.1012841051284
 20
33.528180725260867
 30
0.0
 40
0.1843355296598296
 50
130.74986446394411
 51
204.2891287996828
  0
ARC
  5
4D35
  8
0
 10
335.22354157162113
 20
33.40686493403544
 30
0.0
 40
0.3562979830244671
 50
103.51271597044391
 51
132.90976468628961
  0
ARC
  5
4D36
  8
0
 10
335.2639511124338
 20
33.278545275690277
 30
0.0
 40
0.4905959480496194
 50
88.553092299595434
 51
104.5997991324693
  0
ARC
  5
4D37
  8
0
 10
335.13736575442027
 20
33.460171178328487
 30
0.0
 40
0.2206774563642133
 50
121.7923686691157
 51
170.53058704078239
  0
ARC
  5
4D38
  8
0
 10
335.2407697454621
 20
33.318950941723628
 30
0.0
 40
0.3954171756248896
 50
100.3011036434952
 51
123.7472573521821
  0
ARC
  5
4D39
  8
0
 10
335.26432945489807
 20
33.223026667253073
 30
0.0
 40
0.494045038347411
 50
88.607086573923453
 51
101.00005112657961
  0
ARC
  5
4D3A
  8
0
 10
335.15294552166267
 20
33.398228015025843
 30
0.0
 40
0.2374819405713244
 50
118.9899815306767
 51
162.4859428373486
  0
ARC
  5
4D3B
  8
0
 10
335.24682731554492
 20
33.253507711494613
 30
0.0
 40
0.409745021650613
 50
98.840093119247797
 51
120.665299642055
  0
ARC
  5
4D3C
  8
0
 10
335.26448787209762
 20
33.170956219848321
 30
0.0
 40
0.4940528922720477
 50
88.625485872132245
 51
99.392642509305958
  0
ARC
  5
4D3D
  8
0
 10
335.15922476542443
 20
33.340208299319187
 30
0.0
 40
0.2450648625346993
 50
121.5896144974312
 51
153.93053323447779
  0
ARC
  5
4D3E
  8
0
 10
335.24200356923939
 20
33.216234572054731
 30
0.0
 40
0.3940699314620138
 50
101.480564055019
 51
122.3997026070203
  0
ARC
  5
4D3F
  8
0
 10
335.26430894027152
 20
33.126098320784664
 30
0.0
 40
0.4868580942135584
 50
88.584105406337358
 51
101.94174931672551
  0
ARC
  5
4D40
  8
0
 10
335.18751192043362
 20
33.260274263293368
 30
0.0
 40
0.2835333890915003
 50
116.2529665914282
 51
142.7825296828604
  0
ARC
  5
4D41
  8
0
 10
335.24862910820588
 20
33.147114440122408
 30
0.0
 40
0.4120825111397112
 50
101.01468923547731
 51
116.9145838072622
  0
ARC
  5
4D42
  8
0
 10
335.26437068452668
 20
33.075906676463852
 30
0.0
 40
0.4849896132293604
 50
88.585945970644516
 51
101.23284211913681
  0
ARC
  5
4D43
  8
0
 10
335.25446192408208
 20
33.104552108053788
 30
0.0
 40
0.4047294573586163
 50
86.901452998388393
 51
130.4335353785373
  0
ARC
  5
4D44
  8
0
 10
335.47225334814431
 20
33.556582221255653
 30
0.0
 40
0.1945721501976326
 50
338.53774632767818
 51
32.936134985434173
  0
ARC
  5
4D45
  8
0
 10
335.36583779677682
 20
33.481533511131779
 30
0.0
 40
0.3247290570500549
 50
33.840987178075217
 51
69.592508879889394
  0
ARC
  5
4D46
  8
0
 10
335.29770074939461
 20
33.33388389609344
 30
0.0
 40
0.4870279393554548
 50
68.136405243590374
 51
82.845397611149266
  0
ARC
  5
4D47
  8
0
 10
335.29136598036501
 20
33.292423643460083
 30
0.0
 40
0.5289555363185626
 50
82.723897490389433
 51
91.627926004522124
  0
ARC
  5
4D48
  8
0
 10
335.45139382276921
 20
33.528180725260867
 30
0.0
 40
0.1843355296598296
 50
335.71087120357708
 51
49.250135536055893
  0
ARC
  5
4D49
  8
0
 10
335.32913635627648
 20
33.40686493403544
 30
0.0
 40
0.3562979830244671
 50
47.09023531371043
 51
76.487284029552896
  0
ARC
  5
4D4A
  8
0
 10
335.2887268154638
 20
33.278545275690277
 30
0.0
 40
0.4905959480496194
 50
75.400200867530714
 51
91.44690770040458
  0
ARC
  5
4D4B
  8
0
 10
335.41531217347722
 20
33.460171178328487
 30
0.0
 40
0.2206774563642133
 50
9.4694129592283982
 51
58.207631330884247
  0
ARC
  5
4D4C
  8
0
 10
335.31190818243539
 20
33.318950941723628
 30
0.0
 40
0.3954171756248896
 50
56.252742647817911
 51
79.698896356501535
  0
ARC
  5
4D4D
  8
0
 10
335.28834847299947
 20
33.223026667253073
 30
0.0
 40
0.494045038347411
 50
78.999948873423577
 51
91.392913426073264
  0
ARC
  5
4D4E
  8
0
 10
335.39973240623488
 20
33.398228015025843
 30
0.0
 40
0.2374819405713244
 50
17.514057162656972
 51
61.010018469323292
  0
ARC
  5
4D4F
  8
0
 10
335.30585061235269
 20
33.253507711494613
 30
0.0
 40
0.409745021650613
 50
59.334700357944882
 51
81.159906880752203
  0
ARC
  5
4D50
  8
0
 10
335.28819005579999
 20
33.170956219848321
 30
0.0
 40
0.4940528922720477
 50
80.607357490694042
 51
91.374514127867769
  0
ARC
  5
4D51
  8
0
 10
335.39345316247318
 20
33.340208299319187
 30
0.0
 40
0.2450648625346993
 50
26.06946676608235
 51
58.410385502568822
  0
ARC
  5
4D52
  8
0
 10
335.31067435865822
 20
33.216234572054731
 30
0.0
 40
0.3940699314620138
 50
57.600297392979648
 51
78.519435944980984
  0
ARC
  5
4D53
  8
0
 10
335.28836898762609
 20
33.126098320784664
 30
0.0
 40
0.4868580942135584
 50
78.058250683274423
 51
91.415894593659374
  0
ARC
  5
4D54
  8
0
 10
335.36516600746398
 20
33.260274263293368
 30
0.0
 40
0.2835333890915003
 50
37.202300526264871
 51
63.747033408571752
  0
ARC
  5
4D55
  8
0
 10
335.30404881969162
 20
33.147114440122408
 30
0.0
 40
0.4120825111397112
 50
63.085416192737732
 51
78.98531076452268
  0
ARC
  5
4D56
  8
0
 10
335.28830724337092
 20
33.075906676463852
 30
0.0
 40
0.4849896132293604
 50
78.767157880863152
 51
91.414054029355498
  0
ARC
  5
4D57
  8
0
 10
335.29821600381541
 20
33.104552108053788
 30
0.0
 40
0.4047294573586163
 50
49.54187593365581
 51
93.098547001608353
  0
ARC
  5
4D58
  8
0
 10
335.27633978135498
 20
33.048646637557297
 30
0.0
 40
0.3154895055593046
 50
70.001022381748143
 51
109.9120282529562
  0
ARC
  5
4D59
  8
0
 10
335.27633870492463
 20
33.063594746495681
 30
0.0
 40
0.2782678546008247
 50
79.285864132092186
 51
100.60642387239849
  0
ARC
  5
4D5A
  8
0
 10
335.26860195770308
 20
33.103170195819999
 30
0.0
 40
0.6365910055813139
 50
240.25450363538579
 51
270.69688390087339
  0
ARC
  5
4D5B
  8
0
 10
335.0683741612566
 20
32.749476583203403
 30
0.0
 40
0.501131209786304
 50
119.5357358834251
 51
150.3929407583712
  0
ARC
  5
4D5C
  8
0
 10
334.96355542296908
 20
32.809038997300767
 30
0.0
 40
0.3805714774155778
 50
150.3929407583712
 51
179.3101052408484
  0
ARC
  5
4D5D
  8
0
 10
335.01515298139299
 20
32.83395585726872
 30
0.0
 40
0.4326196067659763
 50
182.6940813699255
 51
238.02830545116089
  0
ARC
  5
4D5E
  8
0
 10
335.26195330111148
 20
33.18298325575644
 30
0.0
 40
0.8597344685059752
 50
236.3917809808907
 51
270.95875675924282
  0
ARC
  5
4D5F
  8
0
 10
332.58654229946609
 20
33.488709528355109
 30
0.0
 40
2.0917482635402971
 50
335.0317860505283
 51
343.89581878546687
  0
ARC
  5
4D60
  8
0
 10
335.2278979123198
 20
29.18652471625537
 30
0.0
 40
3.4994677726293308
 50
102.2933770620743
 51
118.9671221122299
  0
ARC
  5
4D61
  8
0
 10
334.41727358669033
 20
30.52246532461584
 30
0.0
 40
1.93906284806257
 50
117.12869893541
 51
161.67061707547151
  0
ARC
  5
4D62
  8
0
 10
334.09542364538532
 20
30.719228376933032
 30
0.0
 40
1.573991725141531
 50
164.7868540750612
 51
211.8858592376867
  0
ARC
  5
4D63
  8
0
 10
334.89998571274651
 20
31.422763189327039
 30
0.0
 40
2.634420180821782
 50
215.6376182086764
 51
251.66271896220491
  0
ARC
  5
4D64
  8
0
 10
335.27773335304983
 20
32.484524252980378
 30
0.0
 40
3.761189251695467
 50
251.2891141574419
 51
269.98199907571581
  0
ARC
  5
4D65
  8
0
 10
334.21915611821288
 20
30.799226284558792
 30
0.0
 40
1.694123395250952
 50
178.9736050946444
 51
234.32970714847559
  0
ARC
  5
4D66
  8
0
 10
335.23752845541821
 20
32.173440808416501
 30
0.0
 40
3.4044484851600711
 50
233.89247915973601
 51
270.61353435298582
  0
ARC
  5
4D67
  8
0
 10
335.52329131781067
 20
32.835369132074007
 30
0.0
 40
0.270684141522734
 50
342.64434650890041
 51
39.773580540528357
  0
ARC
  5
4D68
  8
0
 10
335.43057442458661
 20
32.88416000862734
 30
0.0
 40
0.3742123826641293
 50
296.90659196722959
 51
339.74751231008929
  0
ARC
  5
4D69
  8
0
 10
335.51374286541159
 20
32.802535892830562
 30
0.0
 40
0.2721593250061882
 50
349.86049629676148
 51
36.917929294257831
  0
ARC
  5
4D6A
  8
0
 10
335.28407670874219
 20
33.103168380181813
 30
0.0
 40
0.6365890627442363
 50
269.30405695261032
 51
299.74551972855153
  0
ARC
  5
4D6B
  8
0
 10
335.48430376663651
 20
32.749476583203403
 30
0.0
 40
0.501131209786304
 50
29.607059241628729
 51
60.46573784491278
  0
ARC
  5
4D6C
  8
0
 10
335.58912250492409
 20
32.809038997300803
 30
0.0
 40
0.3805714774155282
 50
0.6898947591493944
 51
29.607059241631411
  0
ARC
  5
4D6D
  8
0
 10
335.53752494650013
 20
32.83395585726872
 30
0.0
 40
0.4326196067659763
 50
301.97169454883908
 51
357.3059186300743
  0
ARC
  5
4D6E
  8
0
 10
335.29072462678158
 20
33.18298325575644
 30
0.0
 40
0.8597344685059752
 50
269.0412432407573
 51
303.6082190191093
  0
ARC
  5
4D6F
  8
0
 10
337.74710272055199
 20
33.406658720959442
 30
0.0
 40
1.85863868785456
 50
195.54698973692669
 51
205.52540542707899
  0
ARC
  5
4D70
  8
0
 10
335.32478001557342
 20
29.18652471625537
 30
0.0
 40
3.4994677726293308
 50
61.03287788777007
 51
77.706622937925658
  0
ARC
  5
4D71
  8
0
 10
336.1354043412029
 20
30.52246532461584
 30
0.0
 40
1.93906284806257
 50
18.329382924528481
 51
62.871301064589979
  0
ARC
  5
4D72
  8
0
 10
336.4572542825079
 20
30.719228376933032
 30
0.0
 40
1.573991725141531
 50
328.1141407623133
 51
15.213145924938569
  0
ARC
  5
4D73
  8
0
 10
335.65269221514671
 20
31.422763189327039
 30
0.0
 40
2.634420180821782
 50
288.33728103779509
 51
324.36238179132363
  0
ARC
  5
4D74
  8
0
 10
335.27494312811291
 20
32.484530038382012
 30
0.0
 40
3.7611951954357918
 50
270.0245037093211
 51
288.7108784445158
  0
ARC
  5
4D75
  8
0
 10
336.33352180968029
 20
30.799226284558792
 30
0.0
 40
1.694123395250952
 50
305.67029285152438
 51
1.0263949053555961
  0
ARC
  5
4D76
  8
0
 10
335.31490887655337
 20
32.173914604602622
 30
0.0
 40
3.4049730558522668
 50
269.31132440969583
 51
306.10609341906411
  0
ENDSEC
  0
EOF
