  0
SECTION
  2
HEADER
  9
$ACADVER
  1
AC1009
  9
$DWGCODEPAGE
  3
ansi_1252
  9
$INSBASE
 10
0.0
 20
0.0
 30
0.0
  9
$EXTMIN
 10
1.000000000000000E+20
 20
1.000000000000000E+20
 30
1.000000000000000E+20
  9
$EXTMAX
 10
0.0
 20
0.0
 30
0.0
  9
$LIMMIN
 10
0.0
 20
0.0
  9
$LIMMAX
 10
144.0
 20
108.0
  9
$ORTHOMODE
 70
     1
  9
$REGENMODE
 70
     1
  9
$FILLMODE
 70
     1
  9
$QTEXTMODE
 70
     0
  9
$MIRRTEXT
 70
     1
  9
$DRAGMODE
 70
     2
  9
$LTSCALE
 40
4.0
  9
$OSMODE
 70
    37
  9
$ATTMODE
 70
     1
  9
$TEXTSIZE
 40
0.003
  9
$TRACEWID
 40
0.05
  9
$TEXTSTYLE
  7
STANDARD
  9
$CLAYER
  8
0
  9
$CELTYPE
  6
CONTINUOUS
  9
$CECOLOR
 62
   256
  9
$DIMSCALE
 40
1.0
  9
$DIMASZ
 40
0.18
  9
$DIMEXO
 40
0.0625
  9
$DIMDLI
 40
0.38
  9
$DIMRND
 40
0.0
  9
$DIMDLE
 40
0.0
  9
$DIMEXE
 40
0.18
  9
$DIMTP
 40
0.0
  9
$DIMTM
 40
0.0
  9
$DIMTXT
 40
0.18
  9
$DIMCEN
 40
0.09
  9
$DIMTSZ
 40
0.0
  9
$DIMTOL
 70
     0
  9
$DIMLIM
 70
     0
  9
$DIMTIH
 70
     1
  9
$DIMTOH
 70
     1
  9
$DIMSE1
 70
     0
  9
$DIMSE2
 70
     0
  9
$DIMTAD
 70
     0
  9
$DIMZIN
 70
     0
  9
$DIMBLK
  1

  9
$DIMASO
 70
     1
  9
$DIMSHO
 70
     1
  9
$DIMPOST
  1

  9
$DIMAPOST
  1

  9
$DIMALT
 70
     0
  9
$DIMALTD
 70
     2
  9
$DIMALTF
 40
25.4
  9
$DIMLFAC
 40
1.0
  9
$DIMTOFL
 70
     0
  9
$DIMTVP
 40
0.0
  9
$DIMTIX
 70
     0
  9
$DIMSOXD
 70
     0
  9
$DIMSAH
 70
     0
  9
$DIMBLK1
  1

  9
$DIMBLK2
  1

  9
$DIMSTYLE
  2
STANDARD
  9
$DIMCLRD
 70
     0
  9
$DIMCLRE
 70
     0
  9
$DIMCLRT
 70
     0
  9
$DIMTFAC
 40
1.0
  9
$DIMGAP
 40
0.09
  9
$LUNITS
 70
     2
  9
$LUPREC
 70
     4
  9
$SKETCHINC
 40
0.1
  9
$FILLETRAD
 40
0.0
  9
$AUNITS
 70
     0
  9
$AUPREC
 70
     0
  9
$MENU
  1
acad
  9
$ELEVATION
 40
0.0
  9
$PELEVATION
 40
0.0
  9
$THICKNESS
 40
0.0
  9
$LIMCHECK
 70
     0
  9
$CHAMFERA
 40
0.0
  9
$CHAMFERB
 40
0.0
  9
$SKPOLY
 70
     0
  9
$TDCREATE
 40
2453711.383964294
  9
$TDUPDATE
 40
2453711.389763241
  9
$TDINDWG
 40
0.0057991319
  9
$TDUSRTIMER
 40
0.0057991319
  9
$USRTIMER
 70
     1
  9
$ANGBASE
 50
0.0
  9
$ANGDIR
 70
     0
  9
$PDMODE
 70
     3
  9
$PDSIZE
 40
-2.0
  9
$PLINEWID
 40
0.0
  9
$COORDS
 70
     1
  9
$SPLFRAME
 70
     0
  9
$SPLINETYPE
 70
     6
  9
$SPLINESEGS
 70
     8
  9
$ATTDIA
 70
     0
  9
$ATTREQ
 70
     1
  9
$HANDLING
 70
     1
  9
$HANDSEED
  5
D0
  9
$SURFTAB1
 70
     6
  9
$SURFTAB2
 70
     6
  9
$SURFTYPE
 70
     6
  9
$SURFU
 70
     6
  9
$SURFV
 70
     6
  9
$UCSNAME
  2

  9
$UCSORG
 10
0.0
 20
0.0
 30
0.0
  9
$UCSXDIR
 10
1.0
 20
0.0
 30
0.0
  9
$UCSYDIR
 10
0.0
 20
1.0
 30
0.0
  9
$PUCSNAME
  2

  9
$PUCSORG
 10
0.0
 20
0.0
 30
0.0
  9
$PUCSXDIR
 10
1.0
 20
0.0
 30
0.0
  9
$PUCSYDIR
 10
0.0
 20
1.0
 30
0.0
  9
$USERI1
 70
     0
  9
$USERI2
 70
     0
  9
$USERI3
 70
     0
  9
$USERI4
 70
     0
  9
$USERI5
 70
     0
  9
$USERR1
 40
0.0
  9
$USERR2
 40
0.0
  9
$USERR3
 40
0.0
  9
$USERR4
 40
0.0
  9
$USERR5
 40
0.0
  9
$WORLDVIEW
 70
     1
  9
$SHADEDGE
 70
     3
  9
$SHADEDIF
 70
    70
  9
$TILEMODE
 70
     1
  9
$MAXACTVP
 70
    16
  9
$PLIMCHECK
 70
     0
  9
$PEXTMIN
 10
1.000000000000000E+20
 20
1.000000000000000E+20
 30
1.000000000000000E+20
  9
$PEXTMAX
 10
-1.000000000000000E+20
 20
-1.000000000000000E+20
 30
-1.000000000000000E+20
  9
$PLIMMIN
 10
0.0
 20
0.0
  9
$PLIMMAX
 10
12.0
 20
9.0
  9
$UNITMODE
 70
     0
  9
$VISRETAIN
 70
     0
  9
$PLINEGEN
 70
     1
  9
$PSLTSCALE
 70
     0
  0
ENDSEC
  0
SECTION
  2
TABLES
  0
TABLE
  2
VPORT
 70
     1
  0
VPORT
  2
*ACTIVE
 70
     0
 10
0.0
 20
0.0
 11
1.0
 21
1.0
 12
-3.209270303663233
 22
1.96334628483265
 13
0.0
 23
0.0
 14
1.0
 24
1.0
 15
0.0
 25
0.0
 16
0.0
 26
0.0
 36
1.0
 17
0.0
 27
0.0
 37
0.0
 40
7.513852733014117
 41
1.501231527093596
 42
50.0
 43
0.0
 44
0.0
 50
0.0
 51
0.0
 71
     0
 72
   100
 73
     1
 74
     1
 75
     0
 76
     0
 77
     0
 78
     0
  0
ENDTAB
  0
TABLE
  2
LTYPE
 70
     1
  0
LTYPE
  2
CONTINUOUS
 70
     0
  3
Solid line
 72
    65
 73
     0
 40
0.0
  0
ENDTAB
  0
TABLE
  2
LAYER
 70
     1
  0
LAYER
  2
0
 70
     0
 62
     7
  6
CONTINUOUS
  0
ENDTAB
  0
TABLE
  2
STYLE
 70
     1
  0
STYLE
  2
STANDARD
 70
     0
 40
0.0
 41
1.0
 50
0.0
 71
     0
 42
0.003
  3
txt
  4

  0
ENDTAB
  0
TABLE
  2
VIEW
 70
     0
  0
ENDTAB
  0
TABLE
  2
UCS
 70
     0
  0
ENDTAB
  0
TABLE
  2
APPID
 70
     1
  0
APPID
  2
ACAD
 70
     0
  0
ENDTAB
  0
TABLE
  2
DIMSTYLE
 70
     1
  0
DIMSTYLE
  2
STANDARD
 70
     0
  3

  4

  5

  6

  7

 40
1.0
 41
0.18
 42
0.0625
 43
0.38
 44
0.18
 45
0.0
 46
0.0
 47
0.0
 48
0.0
140
0.18
141
0.09
142
0.0
143
25.4
144
1.0
145
0.0
146
1.0
147
0.09
 71
     0
 72
     0
 73
     1
 74
     1
 75
     0
 76
     0
 77
     0
 78
     0
170
     0
171
     2
172
     0
173
     0
174
     0
175
     0
176
     0
177
     0
178
     0
  0
ENDTAB
  0
ENDSEC
  0
SECTION
  2
BLOCKS
  0
BLOCK
  8
0
  2
$MODEL_SPACE
 70
     2
 10
0.0
 20
0.0
 30
0.0
  3
$MODEL_SPACE
  1

  0
ENDBLK
  5
9
  8
0
  0
BLOCK
 67
     1
  8
0
  2
$PAPER_SPACE
 70
     0
 10
0.0
 20
0.0
 30
0.0
  3
$PAPER_SPACE
  1

  0
ENDBLK
  5
E
 67
     1
  8
0
  0
ENDSEC
  0
SECTION
  2
ENTITIES
  0
POLYLINE
  5
24
  8
0
 66
     1
 10
0.0
 20
0.0
 30
0.0
  0
VERTEX
  5
3A
  8
0
 10
-0.5408020086661622
 20
2.351837783094254
 30
0.0
  0
VERTEX
  5
3B
  8
0
 10
-0.6396352545555715
 20
2.233236514770823
 30
0.0
  0
VERTEX
  5
3C
  8
0
 10
-0.6071646126345627
 20
2.167229240834024
 30
0.0
  0
VERTEX
  5
3D
  8
0
 10
-0.5746939707135539
 20
2.060982128246764
 30
0.0
  0
VERTEX
  5
3E
  8
0
 10
0.5717826676527125
 20
2.060982128246764
 30
0.0
  0
SEQEND
  5
3F
  8
0
  0
POLYLINE
  5
25
  8
0
 66
     1
 10
0.0
 20
0.0
 30
0.0
  0
VERTEX
  5
40
  8
0
 10
-0.5746939707135539
 20
2.060982128246764
 30
0.0
  0
VERTEX
  5
41
  8
0
 10
-0.5834927340638492
 20
1.893096640866079
 30
0.0
  0
VERTEX
  5
42
  8
0
 10
-0.6099553266387456
 20
1.70062394067644
 30
0.0
  0
VERTEX
  5
43
  8
0
 10
-0.6541812022242592
 20
1.490890215188418
 30
0.0
  0
VERTEX
  5
44
  8
0
 10
-0.7162698146064059
 20
1.271221651912583
 30
0.0
  0
VERTEX
  5
45
  8
0
 10
-0.7963206175712017
 20
1.048944438359506
 30
0.0
  0
VERTEX
  5
46
  8
0
 10
-0.8944330649046623
 20
0.8313847620397574
 30
0.0
  0
VERTEX
  5
47
  8
0
 10
-1.010706610392804
 20
0.6258688104639076
 30
0.0
  0
VERTEX
  5
48
  8
0
 10
-1.145240707821642
 20
0.4397227711425273
 30
0.0
  0
VERTEX
  5
49
  8
0
 10
-1.145240707821642
 20
0.3623809841689081
 30
0.0
  0
VERTEX
  5
4A
  8
0
 10
-1.076248318305403
 20
0.2876758490239499
 30
0.0
  0
VERTEX
  5
4B
  8
0
 10
-0.9940726696459592
 20
0.1022313370758639
 30
0.0
  0
VERTEX
  5
4C
  8
0
 10
0.9968466470905923
 20
0.1022313370758639
 30
0.0
  0
VERTEX
  5
4D
  8
0
 10
1.079022295750058
 20
0.2876758490239499
 30
0.0
  0
VERTEX
  5
4E
  8
0
 10
1.148014685266276
 20
0.3623809841689081
 30
0.0
  0
VERTEX
  5
4F
  8
0
 10
1.148014685266276
 20
0.4397227711425273
 30
0.0
  0
VERTEX
  5
50
  8
0
 10
1.013480587849978
 20
0.6258688104442021
 30
0.0
  0
VERTEX
  5
51
  8
0
 10
0.8972070423707401
 20
0.8313847619972048
 30
0.0
  0
VERTEX
  5
52
  8
0
 10
0.7990945950425729
 20
1.048944438293163
 30
0.0
  0
VERTEX
  5
53
  8
0
 10
0.7190437920794888
 20
1.271221651823706
 30
0.0
  0
VERTEX
  5
54
  8
0
 10
0.6569551796955013
 20
1.490890215080458
 30
0.0
  0
VERTEX
  5
55
  8
0
 10
0.6127293041046232
 20
1.700623940555046
 30
0.0
  0
VERTEX
  5
56
  8
0
 10
0.5862667115208666
 20
1.893096640739099
 30
0.0
  0
VERTEX
  5
57
  8
0
 10
0.5774679481582439
 20
2.060982128124244
 30
0.0
  0
SEQEND
  5
58
  8
0
  0
POLYLINE
  5
26
  8
0
 66
     1
 10
0.0
 20
0.0
 30
0.0
  0
VERTEX
  5
59
  8
0
 10
-1.344019537090617
 20
2.516230278097993
 30
0.0
  0
VERTEX
  5
5A
  8
0
 10
-1.238844422603527
 20
2.101324424724269
 30
0.0
  0
VERTEX
  5
5B
  8
0
 10
-1.153006471425457
 20
1.647308450473017
 30
0.0
  0
VERTEX
  5
5C
  8
0
 10
-1.119535605505664
 20
1.400552650850393
 30
0.0
  0
VERTEX
  5
5D
  8
0
 10
-1.093535038527159
 20
1.137921500406878
 30
0.0
  0
VERTEX
  5
5E
  8
0
 10
-1.075883439861284
 20
0.8573823922753008
 30
0.0
  0
VERTEX
  5
5F
  8
0
 10
-1.067459478879385
 20
0.5569027195884916
 30
0.0
  0
SEQEND
  5
60
  8
0
  0
POLYLINE
  5
27
  8
0
 66
     1
 10
0.0
 20
0.0
 30
0.0
  0
VERTEX
  5
61
  8
0
 10
0.5469953939511356
 20
2.362240198511955
 30
0.0
  0
VERTEX
  5
62
  8
0
 10
0.6407767737391481
 20
2.471735920204498
 30
0.0
  0
VERTEX
  5
63
  8
0
 10
0.7472985375585495
 20
2.535394067821301
 30
0.0
  0
VERTEX
  5
64
  8
0
 10
1.032482644462164
 20
2.661012675126187
 30
0.0
  0
VERTEX
  5
65
  8
0
 10
1.144524898047763
 20
2.639789859446852
 30
0.0
  0
VERTEX
  5
66
  8
0
 10
1.173809371104541
 20
2.593213194613973
 30
0.0
  0
VERTEX
  5
67
  8
0
 10
1.154716175330748
 20
2.531995258823443
 30
0.0
  0
VERTEX
  5
68
  8
0
 10
0.9679808025915691
 20
2.335084057933059
 30
0.0
  0
VERTEX
  5
69
  8
0
 10
0.9002404364656611
 20
2.222883558032025
 30
0.0
  0
VERTEX
  5
6A
  8
0
 10
0.8716520326253558
 20
2.058797792666063
 30
0.0
  0
VERTEX
  5
6B
  8
0
 10
0.8768019577994446
 20
1.834237688263488
 30
0.0
  0
VERTEX
  5
6C
  8
0
 10
0.9102765787167186
 20
1.540614171252614
 30
0.0
  0
VERTEX
  5
6D
  8
0
 10
0.9653814861647847
 20
1.239681498326129
 30
0.0
  0
VERTEX
  5
6E
  8
0
 10
1.045058237754226
 20
0.9899272930843353
 30
0.0
  0
VERTEX
  5
6F
  8
0
 10
1.158347150448299
 20
0.7778625323169615
 30
0.0
  0
VERTEX
  5
70
  8
0
 10
1.31428854121026
 20
0.5899981928137379
 30
0.0
  0
VERTEX
  5
71
  8
0
 10
1.373278476165631
 20
0.4792056023343765
 30
0.0
  0
VERTEX
  5
72
  8
0
 10
1.348235433504101
 20
0.3353415703636813
 30
0.0
  0
VERTEX
  5
73
  8
0
 10
1.276935973637819
 20
0.0999105341641808
 30
0.0
  0
VERTEX
  5
74
  8
0
 10
0.9490298675731879
 20
0.0999105341641808
 30
0.0
  0
SEQEND
  5
75
  8
0
  0
POLYLINE
  5
28
  8
0
 66
     1
 10
0.0
 20
0.0
 30
0.0
  0
VERTEX
  5
76
  8
0
 10
-0.3357611313041389
 20
3.162704348334103
 30
0.0
  0
VERTEX
  5
77
  8
0
 10
-0.5021872725052806
 20
3.422973426134156
 30
0.0
  0
VERTEX
  5
78
  8
0
 10
-0.6779372463776339
 20
3.658562324767634
 30
0.0
  0
VERTEX
  5
79
  8
0
 10
-0.8612221319684285
 20
3.870559534139123
 30
0.0
  0
VERTEX
  5
7A
  8
0
 10
-1.050253008324894
 20
4.060053544153209
 30
0.0
  0
VERTEX
  5
7B
  8
0
 10
-1.438397049523759
 20
4.375885925727518
 30
0.0
  0
VERTEX
  5
7C
  8
0
 10
-1.828058002352066
 20
4.614767388727252
 30
0.0
  0
VERTEX
  5
7D
  8
0
 10
-2.204924499187654
 20
4.785405852389101
 30
0.0
  0
VERTEX
  5
7E
  8
0
 10
-2.554685172408362
 20
4.896509235949758
 30
0.0
  0
VERTEX
  5
7F
  8
0
 10
-2.863028654392029
 20
4.956785458645912
 30
0.0
  0
VERTEX
  5
80
  8
0
 10
-3.115643577516494
 20
4.974942439714255
 30
0.0
  0
VERTEX
  5
81
  8
0
 10
-3.38880603369612
 20
4.95291921953591
 30
0.0
  0
VERTEX
  5
82
  8
0
 10
-3.695814480027433
 20
4.88936712377183
 30
0.0
  0
VERTEX
  5
83
  8
0
 10
-4.022764215097441
 20
4.788062499578449
 30
0.0
  0
VERTEX
  5
84
  8
0
 10
-4.355750537493151
 20
4.652781694112198
 30
0.0
  0
VERTEX
  5
85
  8
0
 10
-4.68086874580157
 20
4.487301054529512
 30
0.0
  0
VERTEX
  5
86
  8
0
 10
-4.984214138609705
 20
4.295396927986823
 30
0.0
  0
VERTEX
  5
87
  8
0
 10
-5.251882014504563
 20
4.080845661640564
 30
0.0
  0
VERTEX
  5
88
  8
0
 10
-5.469967672073153
 20
3.847423602647169
 30
0.0
  0
VERTEX
  5
89
  8
0
 10
-5.477699104258193
 20
3.836423820799539
 30
0.0
  0
VERTEX
  5
8A
  8
0
 10
-5.456029122041514
 20
3.651164698433149
 30
0.0
  0
VERTEX
  5
8B
  8
0
 10
-5.408006354099939
 20
3.425998752035284
 30
0.0
  0
VERTEX
  5
8C
  8
0
 10
-4.721282145792202
 20
3.113287725389398
 30
0.0
  0
VERTEX
  5
8D
  8
0
 10
-4.520896606815086
 20
3.218753798535232
 30
0.0
  0
VERTEX
  5
8E
  8
0
 10
-4.355666425553295
 20
3.304884424937669
 30
0.0
  0
VERTEX
  5
8F
  8
0
 10
-4.172939458804573
 20
3.491502507653604
 30
0.0
  0
VERTEX
  5
90
  8
0
 10
-3.988949525530509
 20
3.642320285044077
 30
0.0
  0
VERTEX
  5
91
  8
0
 10
-3.801554346120327
 20
3.759438678106583
 30
0.0
  0
VERTEX
  5
92
  8
0
 10
-3.608611640963254
 20
3.844958607838619
 30
0.0
  0
VERTEX
  5
93
  8
0
 10
-3.407979130448513
 20
3.90098099523768
 30
0.0
  0
VERTEX
  5
94
  8
0
 10
-3.197514534965332
 20
3.929606761301261
 30
0.0
  0
VERTEX
  5
95
  8
0
 10
-2.975075574902933
 20
3.93293682702686
 30
0.0
  0
VERTEX
  5
96
  8
0
 10
-2.738519970650543
 20
3.913072113411971
 30
0.0
  0
VERTEX
  5
97
  8
0
 10
-2.50222834273256
 20
3.857105849820607
 30
0.0
  0
VERTEX
  5
98
  8
0
 10
-2.275933912376813
 20
3.745715423555203
 30
0.0
  0
VERTEX
  5
99
  8
0
 10
-2.063701410532277
 20
3.589831980473482
 30
0.0
  0
VERTEX
  5
9A
  8
0
 10
-1.869595568147921
 20
3.400386666433168
 30
0.0
  0
VERTEX
  5
9B
  8
0
 10
-1.697681116172719
 20
3.188310627291986
 30
0.0
  0
VERTEX
  5
9C
  8
0
 10
-1.552022785555643
 20
2.964535008907659
 30
0.0
  0
VERTEX
  5
9D
  8
0
 10
-1.436685307245663
 20
2.739990957137909
 30
0.0
  0
VERTEX
  5
9E
  8
0
 10
-1.355733412191754
 20
2.525609617840464
 30
0.0
  0
SEQEND
  5
9F
  8
0
  0
POLYLINE
  5
29
  8
0
 66
     1
 10
0.0
 20
0.0
 30
0.0
  0
VERTEX
  5
A0
  8
0
 10
-5.477699104258193
 20
3.836423820799539
 30
0.0
  0
VERTEX
  5
A1
  8
0
 10
-5.415125829016315
 20
3.790501061932172
 30
0.0
  0
VERTEX
  5
A2
  8
0
 10
-5.312400260214142
 20
3.747630794023124
 30
0.0
  0
VERTEX
  5
A3
  8
0
 10
-5.240091993512298
 20
3.730135269142586
 30
0.0
  0
VERTEX
  5
A4
  8
0
 10
-5.1506796067616
 20
3.716756776959167
 30
0.0
  0
VERTEX
  5
A5
  8
0
 10
-5.041807751075792
 20
3.708613287458713
 30
0.0
  0
VERTEX
  5
A6
  8
0
 10
-4.911121077568613
 20
3.70682277062707
 30
0.0
  0
SEQEND
  5
A7
  8
0
  0
POLYLINE
  5
2A
  8
0
 66
     1
 10
0.0
 20
0.0
 30
0.0
 70
     1
  0
VERTEX
  5
A8
  8
0
 10
-0.3971731468130315
 20
3.877916755696688
 30
0.0
  0
VERTEX
  5
A9
  8
0
 10
-0.4238143163316333
 20
3.825980207697009
 30
0.0
  0
VERTEX
  5
AA
  8
0
 10
-0.4376018081855886
 20
3.759047702421907
 30
0.0
  0
VERTEX
  5
AB
  8
0
 10
-0.4342510631533478
 20
3.683875660182286
 30
0.0
  0
VERTEX
  5
AC
  8
0
 10
-0.4094775220133613
 20
3.607220501289053
 30
0.0
  0
VERTEX
  5
AD
  8
0
 10
-0.3589966255440793
 20
3.535838646053111
 30
0.0
  0
VERTEX
  5
AE
  8
0
 10
-0.2785238145239521
 20
3.476486514785365
 30
0.0
  0
VERTEX
  5
AF
  8
0
 10
-0.1637745297314301
 20
3.435920527796721
 30
0.0
  0
VERTEX
  5
B0
  8
0
 10
-0.0104642119449636
 20
3.420897105398083
 30
0.0
  0
VERTEX
  5
B1
  8
0
 10
0.1145570289299978
 20
3.43276203862699
 30
0.0
  0
VERTEX
  5
B2
  8
0
 10
0.2198033810901112
 20
3.465720186485062
 30
0.0
  0
VERTEX
  5
B3
  8
0
 10
0.3039565186210556
 20
3.515816571229333
 30
0.0
  0
VERTEX
  5
B4
  8
0
 10
0.3656981156085095
 20
3.579096215116833
 30
0.0
  0
VERTEX
  5
B5
  8
0
 10
0.4037098461381519
 20
3.651604140404592
 30
0.0
  0
VERTEX
  5
B6
  8
0
 10
0.4166733842956614
 20
3.729385369349643
 30
0.0
  0
VERTEX
  5
B7
  8
0
 10
0.4032704041667168
 20
3.808484924209016
 30
0.0
  0
VERTEX
  5
B8
  8
0
 10
0.3621825798369969
 20
3.884947827239742
 30
0.0
  0
SEQEND
  5
B9
  8
0
  0
POLYLINE
  5
2B
  8
0
 66
     1
 10
0.0
 20
0.0
 30
0.0
  0
VERTEX
  5
BA
  8
0
 10
0.5408020086661054
 20
2.351837783094254
 30
0.0
  0
VERTEX
  5
BB
  8
0
 10
0.6396352545555146
 20
2.233236514770823
 30
0.0
  0
VERTEX
  5
BC
  8
0
 10
0.6071646126393764
 20
2.167229240844931
 30
0.0
  0
VERTEX
  5
BD
  8
0
 10
0.5848410463192917
 20
2.11053178539883
 30
0.0
  0
VERTEX
  5
BE
  8
0
 10
0.574693970713497
 20
2.06098212826286
 30
0.0
  0
SEQEND
  5
BF
  8
0
  0
POLYLINE
  5
2C
  8
0
 66
     1
 10
0.0
 20
0.0
 30
0.0
  0
VERTEX
  5
C0
  8
0
 10
-0.3198313598393838
 20
3.505269963914742
 30
0.0
  0
VERTEX
  5
C1
  8
0
 10
-0.3285594755958055
 20
3.255407292923994
 30
0.0
  0
VERTEX
  5
C2
  8
0
 10
-0.3570998154631929
 20
2.921668710497935
 30
0.0
  0
VERTEX
  5
C3
  8
0
 10
-0.3843262549486388
 20
2.750183991152143
 30
0.0
  0
VERTEX
  5
C4
  8
0
 10
-0.4231377730739942
 20
2.589935940334097
 30
0.0
  0
VERTEX
  5
C5
  8
0
 10
-0.4757450440433149
 20
2.45165977350599
 30
0.0
  0
VERTEX
  5
C6
  8
0
 10
-0.544358742060657
 20
2.346090706130012
 30
0.0
  0
SEQEND
  5
C7
  8
0
  0
POLYLINE
  5
2D
  8
0
 66
     1
 10
0.0
 20
0.0
 30
0.0
  0
VERTEX
  5
C8
  8
0
 10
0.297818063582497
 20
3.505269963914742
 30
0.0
  0
VERTEX
  5
C9
  8
0
 10
0.3102769300986843
 20
3.258340374968832
 30
0.0
  0
VERTEX
  5
CA
  8
0
 10
0.3466819509119669
 20
2.92844315479525
 30
0.0
  0
VERTEX
  5
CB
  8
0
 10
0.377792532798056
 20
2.758459938179301
 30
0.0
  0
VERTEX
  5
CC
  8
0
 10
0.4196035696000634
 20
2.599028719973897
 30
0.0
  0
VERTEX
  5
CD
  8
0
 10
0.473686366765204
 20
2.460580802251526
 30
0.0
  0
VERTEX
  5
CE
  8
0
 10
0.5416122297406925
 20
2.353547487084676
 30
0.0
  0
SEQEND
  5
CF
  8
0
  0
ATTDEF
  5
2E
  8
0
  6
CONTINUOUS
 10
-0.0018
 20
-0.0165
 30
0.0
 40
0.003
  1
BRASS
  3

  2
MATERIAL
 70
     2
  0
ATTDEF
  5
2F
  8
0
  6
CONTINUOUS
 10
-0.0018
 20
-0.0132
 30
0.0
 40
0.003
  1
FAUCET
  3

  2
PRODUCT
 70
     2
  0
ATTDEF
  5
30
  8
0
  6
CONTINUOUS
 10
-0.0018
 20
-0.0098
 30
0.0
 40
0.003
  1
FORTE
  3

  2
TRADENAME
 70
     2
  0
ATTDEF
  5
31
  8
0
  6
CONTINUOUS
 10
-0.0018
 20
-0.0065
 30
0.0
 40
0.003
  1
K-10272-4
  3

  2
MODELNUMBER
 70
     2
  0
LINE
  5
32
  8
0
 10
1.171497365615153
 20
0.399870877357472
 30
0.0
 11
-1.158121850609518
 21
0.399870877357472
 31
0.0
  0
LINE
  5
33
  8
0
 10
-0.6396352545555715
 20
2.233236514770809
 30
0.0
 11
0.6396352545555146
 21
2.233236514770809
 31
0.0
  0
LINE
  5
34
  8
0
 10
0.8623911363912953
 20
1.845573166871034
 30
0.0
 11
0.5975312206668377
 21
1.845573166871034
 31
0.0
  0
ENDSEC
  0
EOF
