  0
SECTION
  2
HEADER
  9
$ACADVER
  1
AC1009
  9
$DWGCODEPAGE
  3
ansi_1252
  9
$INSBASE
 10
0.0
 20
0.0
 30
0.0
  9
$EXTMIN
 10
1.000000000000000E+20
 20
1.000000000000000E+20
 30
1.000000000000000E+20
  9
$EXTMAX
 10
0.0
 20
0.0
 30
0.0
  9
$LIMMIN
 10
0.0
 20
0.0
  9
$LIMMAX
 10
144.0
 20
108.0
  9
$ORTHOMODE
 70
     1
  9
$REGENMODE
 70
     1
  9
$FILLMODE
 70
     1
  9
$QTEXTMODE
 70
     0
  9
$MIRRTEXT
 70
     1
  9
$DRAGMODE
 70
     2
  9
$LTSCALE
 40
4.0
  9
$OSMODE
 70
    37
  9
$ATTMODE
 70
     1
  9
$TEXTSIZE
 40
0.003
  9
$TRACEWID
 40
0.05
  9
$TEXTSTYLE
  7
STANDARD
  9
$CLAYER
  8
0
  9
$CELTYPE
  6
CONTINUOUS
  9
$CECOLOR
 62
   256
  9
$DIMSCALE
 40
1.0
  9
$DIMASZ
 40
0.18
  9
$DIMEXO
 40
0.0625
  9
$DIMDLI
 40
0.38
  9
$DIMRND
 40
0.0
  9
$DIMDLE
 40
0.0
  9
$DIMEXE
 40
0.18
  9
$DIMTP
 40
0.0
  9
$DIMTM
 40
0.0
  9
$DIMTXT
 40
0.18
  9
$DIMCEN
 40
0.09
  9
$DIMTSZ
 40
0.0
  9
$DIMTOL
 70
     0
  9
$DIMLIM
 70
     0
  9
$DIMTIH
 70
     1
  9
$DIMTOH
 70
     1
  9
$DIMSE1
 70
     0
  9
$DIMSE2
 70
     0
  9
$DIMTAD
 70
     0
  9
$DIMZIN
 70
     0
  9
$DIMBLK
  1

  9
$DIMASO
 70
     1
  9
$DIMSHO
 70
     1
  9
$DIMPOST
  1

  9
$DIMAPOST
  1

  9
$DIMALT
 70
     0
  9
$DIMALTD
 70
     2
  9
$DIMALTF
 40
25.4
  9
$DIMLFAC
 40
1.0
  9
$DIMTOFL
 70
     0
  9
$DIMTVP
 40
0.0
  9
$DIMTIX
 70
     0
  9
$DIMSOXD
 70
     0
  9
$DIMSAH
 70
     0
  9
$DIMBLK1
  1

  9
$DIMBLK2
  1

  9
$DIMSTYLE
  2
STANDARD
  9
$DIMCLRD
 70
     0
  9
$DIMCLRE
 70
     0
  9
$DIMCLRT
 70
     0
  9
$DIMTFAC
 40
1.0
  9
$DIMGAP
 40
0.09
  9
$LUNITS
 70
     2
  9
$LUPREC
 70
     4
  9
$SKETCHINC
 40
0.1
  9
$FILLETRAD
 40
0.0
  9
$AUNITS
 70
     0
  9
$AUPREC
 70
     0
  9
$MENU
  1
acad
  9
$ELEVATION
 40
0.0
  9
$PELEVATION
 40
0.0
  9
$THICKNESS
 40
0.0
  9
$LIMCHECK
 70
     0
  9
$CHAMFERA
 40
0.0
  9
$CHAMFERB
 40
0.0
  9
$SKPOLY
 70
     0
  9
$TDCREATE
 40
2453711.363592025
  9
$TDUPDATE
 40
2453711.368199514
  9
$TDINDWG
 40
0.0046074884
  9
$TDUSRTIMER
 40
0.0046074884
  9
$USRTIMER
 70
     1
  9
$ANGBASE
 50
0.0
  9
$ANGDIR
 70
     0
  9
$PDMODE
 70
     3
  9
$PDSIZE
 40
-2.0
  9
$PLINEWID
 40
0.0
  9
$COORDS
 70
     1
  9
$SPLFRAME
 70
     0
  9
$SPLINETYPE
 70
     6
  9
$SPLINESEGS
 70
     8
  9
$ATTDIA
 70
     0
  9
$ATTREQ
 70
     1
  9
$HANDLING
 70
     1
  9
$HANDSEED
  5
166
  9
$SURFTAB1
 70
     6
  9
$SURFTAB2
 70
     6
  9
$SURFTYPE
 70
     6
  9
$SURFU
 70
     6
  9
$SURFV
 70
     6
  9
$UCSNAME
  2

  9
$UCSORG
 10
0.0
 20
0.0
 30
0.0
  9
$UCSXDIR
 10
1.0
 20
0.0
 30
0.0
  9
$UCSYDIR
 10
0.0
 20
1.0
 30
0.0
  9
$PUCSNAME
  2

  9
$PUCSORG
 10
0.0
 20
0.0
 30
0.0
  9
$PUCSXDIR
 10
1.0
 20
0.0
 30
0.0
  9
$PUCSYDIR
 10
0.0
 20
1.0
 30
0.0
  9
$USERI1
 70
     0
  9
$USERI2
 70
     0
  9
$USERI3
 70
     0
  9
$USERI4
 70
     0
  9
$USERI5
 70
     0
  9
$USERR1
 40
0.0
  9
$USERR2
 40
0.0
  9
$USERR3
 40
0.0
  9
$USERR4
 40
0.0
  9
$USERR5
 40
0.0
  9
$WORLDVIEW
 70
     1
  9
$SHADEDGE
 70
     3
  9
$SHADEDIF
 70
    70
  9
$TILEMODE
 70
     1
  9
$MAXACTVP
 70
    16
  9
$PLIMCHECK
 70
     0
  9
$PEXTMIN
 10
1.000000000000000E+20
 20
1.000000000000000E+20
 30
1.000000000000000E+20
  9
$PEXTMAX
 10
-1.000000000000000E+20
 20
-1.000000000000000E+20
 30
-1.000000000000000E+20
  9
$PLIMMIN
 10
0.0
 20
0.0
  9
$PLIMMAX
 10
12.0
 20
9.0
  9
$UNITMODE
 70
     0
  9
$VISRETAIN
 70
     0
  9
$PLINEGEN
 70
     1
  9
$PSLTSCALE
 70
     0
  0
ENDSEC
  0
SECTION
  2
TABLES
  0
TABLE
  2
VPORT
 70
     1
  0
VPORT
  2
*ACTIVE
 70
     0
 10
0.0
 20
0.0
 11
1.0
 21
1.0
 12
-2.088616836242257
 22
1.611172315694629
 13
0.0
 23
0.0
 14
1.0
 24
1.0
 15
0.0
 25
0.0
 16
0.0
 26
0.0
 36
1.0
 17
0.0
 27
0.0
 37
0.0
 40
12.79421681661861
 41
1.501231527093596
 42
50.0
 43
0.0
 44
0.0
 50
0.0
 51
0.0
 71
     0
 72
   100
 73
     1
 74
     1
 75
     0
 76
     0
 77
     0
 78
     0
  0
ENDTAB
  0
TABLE
  2
LTYPE
 70
     1
  0
LTYPE
  2
CONTINUOUS
 70
     0
  3
Solid line
 72
    65
 73
     0
 40
0.0
  0
ENDTAB
  0
TABLE
  2
LAYER
 70
     1
  0
LAYER
  2
0
 70
     0
 62
     7
  6
CONTINUOUS
  0
ENDTAB
  0
TABLE
  2
STYLE
 70
     1
  0
STYLE
  2
STANDARD
 70
     0
 40
0.0
 41
1.0
 50
0.0
 71
     0
 42
0.003
  3
txt
  4

  0
ENDTAB
  0
TABLE
  2
VIEW
 70
     0
  0
ENDTAB
  0
TABLE
  2
UCS
 70
     0
  0
ENDTAB
  0
TABLE
  2
APPID
 70
     1
  0
APPID
  2
ACAD
 70
     0
  0
ENDTAB
  0
TABLE
  2
DIMSTYLE
 70
     1
  0
DIMSTYLE
  2
STANDARD
 70
     0
  3

  4

  5

  6

  7

 40
1.0
 41
0.18
 42
0.0625
 43
0.38
 44
0.18
 45
0.0
 46
0.0
 47
0.0
 48
0.0
140
0.18
141
0.09
142
0.0
143
25.4
144
1.0
145
0.0
146
1.0
147
0.09
 71
     0
 72
     0
 73
     1
 74
     1
 75
     0
 76
     0
 77
     0
 78
     0
170
     0
171
     2
172
     0
173
     0
174
     0
175
     0
176
     0
177
     0
178
     0
  0
ENDTAB
  0
ENDSEC
  0
SECTION
  2
BLOCKS
  0
BLOCK
  8
0
  2
$MODEL_SPACE
 70
     2
 10
0.0
 20
0.0
 30
0.0
  3
$MODEL_SPACE
  1

  0
ENDBLK
  5
9
  8
0
  0
BLOCK
 67
     1
  8
0
  2
$PAPER_SPACE
 70
     0
 10
0.0
 20
0.0
 30
0.0
  3
$PAPER_SPACE
  1

  0
ENDBLK
  5
E
 67
     1
  8
0
  0
ENDSEC
  0
SECTION
  2
ENTITIES
  0
POLYLINE
  5
24
  8
0
 66
     1
 10
0.0
 20
0.0
 30
0.0
  0
VERTEX
  5
43
  8
0
 10
-0.6965939754467954
 20
3.585407097121816
 30
0.0
  0
VERTEX
  5
44
  8
0
 10
-0.7402530992772829
 20
3.144827230679342
 30
0.0
  0
VERTEX
  5
45
  8
0
 10
-0.8056714221397162
 20
2.688124049568109
 30
0.0
  0
VERTEX
  5
46
  8
0
 10
-0.8855596774553067
 20
2.235593580610157
 30
0.0
  0
VERTEX
  5
47
  8
0
 10
-0.9726285986452661
 20
1.807531850627527
 30
0.0
  0
VERTEX
  5
48
  8
0
 10
-1.139151372333137
 20
1.105998714876383
 30
0.0
  0
VERTEX
  5
49
  8
0
 10
-1.246925610573022
 20
0.7458928568909897
 30
0.0
  0
VERTEX
  5
4A
  8
0
 10
-1.246925610573022
 20
0.1400795987350989
 30
0.0
  0
VERTEX
  5
4B
  8
0
 10
1.123210034239094
 20
0.1465016474081295
 30
0.0
  0
VERTEX
  5
4C
  8
0
 10
1.123210034239094
 20
0.7544013939514542
 30
0.0
  0
VERTEX
  5
4D
  8
0
 10
0.9969019108817631
 20
1.167247329000382
 30
0.0
  0
VERTEX
  5
4E
  8
0
 10
0.8902651221328819
 20
1.561094094765518
 30
0.0
  0
VERTEX
  5
4F
  8
0
 10
0.8013499360481969
 20
1.937925321217995
 30
0.0
  0
VERTEX
  5
50
  8
0
 10
0.7282066206834541
 20
2.299724638328951
 30
0.0
  0
VERTEX
  5
51
  8
0
 10
0.621436674336784
 20
2.986162064410825
 30
0.0
  0
VERTEX
  5
52
  8
0
 10
0.5543574275388445
 20
3.636275412780212
 30
0.0
  0
SEQEND
  5
53
  8
0
  0
POLYLINE
  5
25
  8
0
 66
     1
 10
0.0
 20
0.0
 30
0.0
  0
VERTEX
  5
54
  8
0
 10
-0.4653663516529676
 20
3.258214556131634
 30
0.0
  0
VERTEX
  5
55
  8
0
 10
-0.4987501658520097
 20
3.308940611473037
 30
0.0
  0
VERTEX
  5
56
  8
0
 10
-0.5139246268515763
 20
3.37267334767121
 30
0.0
  0
VERTEX
  5
57
  8
0
 10
-0.5139246268515763
 20
3.532221966155954
 30
0.0
  0
SEQEND
  5
58
  8
0
  0
POLYLINE
  5
26
  8
0
 66
     1
 10
0.0
 20
0.0
 30
0.0
  0
VERTEX
  5
59
  8
0
 10
-0.064760581264423
 20
3.896409030170517
 30
0.0
  0
VERTEX
  5
5A
  8
0
 10
-0.2866176366753779
 20
3.885493918435897
 30
0.0
  0
VERTEX
  5
5B
  8
0
 10
-0.4316194766194598
 20
3.867374536580233
 30
0.0
  0
VERTEX
  5
5C
  8
0
 10
-0.5753676452739285
 20
3.835101498007091
 30
0.0
  0
VERTEX
  5
5D
  8
0
 10
-0.7037273269791839
 20
3.821480048250448
 30
0.0
  0
VERTEX
  5
5E
  8
0
 10
-0.7518114002715581
 20
3.866673818584855
 30
0.0
  0
VERTEX
  5
5F
  8
0
 10
-0.7652245399051054
 20
3.983682503856855
 30
0.0
  0
VERTEX
  5
60
  8
0
 10
-0.7324864024147626
 20
4.250824465247811
 30
0.0
  0
VERTEX
  5
61
  8
0
 10
-0.6931922648004967
 20
4.425362640393725
 30
0.0
  0
VERTEX
  5
62
  8
0
 10
-0.632339617181041
 20
4.605489068018693
 30
0.0
  0
VERTEX
  5
63
  8
0
 10
-0.5452221114870507
 20
4.774911340256789
 30
0.0
  0
VERTEX
  5
64
  8
0
 10
-0.4271333996491797
 20
4.917337049242088
 30
0.0
  0
VERTEX
  5
65
  8
0
 10
-0.3550041076546187
 20
4.973334815056835
 30
0.0
  0
VERTEX
  5
66
  8
0
 10
-0.2733671335980836
 20
5.016473787108659
 30
0.0
  0
VERTEX
  5
67
  8
0
 10
-0.181634183970906
 20
5.044717414414321
 30
0.0
  0
VERTEX
  5
68
  8
0
 10
-0.0792169652644177
 20
5.056029145990579
 30
0.0
  0
SEQEND
  5
69
  8
0
  0
POLYLINE
  5
27
  8
0
 66
     1
 10
0.0
 20
0.0
 30
0.0
  0
VERTEX
  5
6A
  8
0
 10
0.4366130941993589
 20
3.407290086826478
 30
0.0
  0
VERTEX
  5
6B
  8
0
 10
0.4440648384402195
 20
3.442496191208051
 30
0.0
  0
VERTEX
  5
6C
  8
0
 10
0.4036120286817788
 20
3.522871085645054
 30
0.0
  0
VERTEX
  5
6D
  8
0
 10
0.2932940359305825
 20
3.588508038872961
 30
0.0
  0
VERTEX
  5
6E
  8
0
 10
0.1296715149728189
 20
3.632762720075195
 30
0.0
  0
VERTEX
  5
6F
  8
0
 10
-0.0706948794053233
 20
3.648990798435179
 30
0.0
  0
VERTEX
  5
70
  8
0
 10
-0.2710612737834666
 20
3.632762720075195
 30
0.0
  0
VERTEX
  5
71
  8
0
 10
-0.4346837947412325
 20
3.588508038872961
 30
0.0
  0
VERTEX
  5
72
  8
0
 10
-0.5450017874924313
 20
3.522871085645054
 30
0.0
  0
VERTEX
  5
73
  8
0
 10
-0.5854545972508731
 20
3.442496191208051
 30
0.0
  0
VERTEX
  5
74
  8
0
 10
-0.553676295220086
 20
3.370912026305192
 30
0.0
  0
VERTEX
  5
75
  8
0
 10
-0.512190402737339
 20
3.336254641272248
 30
0.0
  0
SEQEND
  5
76
  8
0
  0
POLYLINE
  5
28
  8
0
 66
     1
 10
0.0
 20
0.0
 30
0.0
  0
VERTEX
  5
77
  8
0
 10
-3.514823324400567
 20
2.079531523677403
 30
0.0
  0
VERTEX
  5
78
  8
0
 10
-3.506142412830206
 20
1.913894716335608
 30
0.0
  0
VERTEX
  5
79
  8
0
 10
-3.480034263659736
 20
1.724000020508945
 30
0.0
  0
VERTEX
  5
7A
  8
0
 10
-3.436400755200078
 20
1.517075495800248
 30
0.0
  0
VERTEX
  5
7B
  8
0
 10
-3.375143765762149
 20
1.300349201812349
 30
0.0
  0
VERTEX
  5
7C
  8
0
 10
-3.296165173656871
 20
1.08104919814808
 30
0.0
  0
VERTEX
  5
7D
  8
0
 10
-3.199366857195162
 20
0.8664035444102742
 30
0.0
  0
VERTEX
  5
7E
  8
0
 10
-3.084650694687943
 20
0.6636403002017637
 30
0.0
  0
VERTEX
  5
7F
  8
0
 10
-2.951918564446132
 20
0.4799875251253809
 30
0.0
  0
VERTEX
  5
80
  8
0
 10
-2.951918564446132
 20
0.4036816640989969
 30
0.0
  0
VERTEX
  5
81
  8
0
 10
-3.019986860929897
 20
0.3299771392439546
 30
0.0
  0
VERTEX
  5
82
  8
0
 10
-3.101061838270432
 20
0.1470164951920481
 30
0.0
  0
VERTEX
  5
83
  8
0
 10
-5.065314522908892
 20
0.1470164951920481
 30
0.0
  0
VERTEX
  5
84
  8
0
 10
-5.146389500249433
 20
0.3299771392439546
 30
0.0
  0
VERTEX
  5
85
  8
0
 10
-5.2144577967332
 20
0.4036816640989969
 30
0.0
  0
VERTEX
  5
86
  8
0
 10
-5.2144577967332
 20
0.4799875251253809
 30
0.0
  0
VERTEX
  5
87
  8
0
 10
-5.081725666503759
 20
0.6636403001823221
 30
0.0
  0
VERTEX
  5
88
  8
0
 10
-4.967009504005315
 20
0.8664035443682917
 30
0.0
  0
VERTEX
  5
89
  8
0
 10
-4.870211187548819
 20
1.081049198082626
 30
0.0
  0
VERTEX
  5
8A
  8
0
 10
-4.79123259544522
 20
1.300349201724662
 30
0.0
  0
VERTEX
  5
8B
  8
0
 10
-4.729975606005466
 20
1.517075495693734
 30
0.0
  0
VERTEX
  5
8C
  8
0
 10
-4.686342097540506
 20
1.724000020389177
 30
0.0
  0
VERTEX
  5
8D
  8
0
 10
-4.66023394836129
 20
1.913894716210328
 30
0.0
  0
VERTEX
  5
8E
  8
0
 10
-4.651553036778765
 20
2.079531523556524
 30
0.0
  0
SEQEND
  5
8F
  8
0
  0
POLYLINE
  5
29
  8
0
 66
     1
 10
0.0
 20
0.0
 30
0.0
  0
VERTEX
  5
90
  8
0
 10
-3.548261333103177
 20
2.366491420079896
 30
0.0
  0
VERTEX
  5
91
  8
0
 10
-3.450751872555074
 20
2.249478712559593
 30
0.0
  0
VERTEX
  5
92
  8
0
 10
-3.48278759847782
 20
2.184355548629201
 30
0.0
  0
VERTEX
  5
93
  8
0
 10
-3.514823324400567
 20
2.079531523677403
 30
0.0
  0
VERTEX
  5
94
  8
0
 10
-4.64594390565928
 20
2.079531523677403
 30
0.0
  0
SEQEND
  5
95
  8
0
  0
POLYLINE
  5
2A
  8
0
 66
     1
 10
0.0
 20
0.0
 30
0.0
  0
VERTEX
  5
96
  8
0
 10
-4.633140454190901
 20
2.36648464576696
 30
0.0
  0
VERTEX
  5
97
  8
0
 10
-4.595388901719769
 20
2.549729810962612
 30
0.0
  0
VERTEX
  5
98
  8
0
 10
-4.505336266147232
 20
2.817965506381725
 30
0.0
  0
VERTEX
  5
99
  8
0
 10
-4.473465029010714
 20
2.969695403416453
 30
0.0
  0
VERTEX
  5
9A
  8
0
 10
-4.492260148582763
 20
3.103447755772832
 30
0.0
  0
VERTEX
  5
9B
  8
0
 10
-4.57643162203157
 20
3.227393019955859
 30
0.0
  0
VERTEX
  5
9C
  8
0
 10
-4.740689446525323
 20
3.349701652470529
 30
0.0
  0
VERTEX
  5
9D
  8
0
 10
-4.993989263778946
 20
3.458857321308247
 30
0.0
  0
VERTEX
  5
9E
  8
0
 10
-5.349512193207575
 20
3.526571342394657
 30
0.0
  0
VERTEX
  5
9F
  8
0
 10
-5.572184891774551
 20
3.539578962658108
 30
0.0
  0
VERTEX
  5
A0
  8
0
 10
-5.828306448529721
 20
3.535855644136115
 30
0.0
  0
VERTEX
  5
A1
  8
0
 10
-6.120507890187896
 20
3.513277877879474
 30
0.0
  0
VERTEX
  5
A2
  8
0
 10
-6.451420243463893
 20
3.469722154938978
 30
0.0
  0
VERTEX
  5
A3
  8
0
 10
-6.560066674495609
 20
3.50593763194955
 30
0.0
  0
VERTEX
  5
A4
  8
0
 10
-6.69937364592198
 20
3.809616532703359
 30
0.0
  0
VERTEX
  5
A5
  8
0
 10
-6.649216632868054
 20
3.898766491075804
 30
0.0
  0
VERTEX
  5
A6
  8
0
 10
-6.251899923725708
 20
3.967847441496393
 30
0.0
  0
VERTEX
  5
A7
  8
0
 10
-5.861145777325708
 20
3.990143081434769
 30
0.0
  0
VERTEX
  5
A8
  8
0
 10
-5.481427304261045
 20
3.967187792773253
 30
0.0
  0
VERTEX
  5
A9
  8
0
 10
-5.117217615124709
 20
3.900515957394168
 30
0.0
  0
VERTEX
  5
AA
  8
0
 10
-4.77298982050969
 20
3.791661957179836
 30
0.0
  0
VERTEX
  5
AB
  8
0
 10
-4.453217031008979
 20
3.642160174012579
 30
0.0
  0
VERTEX
  5
AC
  8
0
 10
-4.162372357215566
 20
3.45354498977472
 30
0.0
  0
VERTEX
  5
AD
  8
0
 10
-3.904928909722443
 20
3.22735078634858
 30
0.0
  0
VERTEX
  5
AE
  8
0
 10
-3.777324563910691
 20
3.058874470164843
 30
0.0
  0
VERTEX
  5
AF
  8
0
 10
-3.704287308880858
 20
2.893045216764847
 30
0.0
  0
VERTEX
  5
B0
  8
0
 10
-3.614432821962002
 20
2.650662839915913
 30
0.0
  0
VERTEX
  5
B1
  8
0
 10
-3.528764860443914
 20
2.366491420079896
 30
0.0
  0
VERTEX
  5
B2
  8
0
 10
-4.620892496384109
 20
2.36648464576696
 30
0.0
  0
SEQEND
  5
B3
  8
0
  0
POLYLINE
  5
2B
  8
0
 66
     1
 10
0.0
 20
0.0
 30
0.0
  0
VERTEX
  5
B4
  8
0
 10
-4.615378205645868
 20
2.366491420079896
 30
0.0
  0
VERTEX
  5
B5
  8
0
 10
-4.712887666193979
 20
2.249478712559593
 30
0.0
  0
VERTEX
  5
B6
  8
0
 10
-4.680851940276037
 20
2.184355548639962
 30
0.0
  0
VERTEX
  5
B7
  8
0
 10
-4.65882737870475
 20
2.128417506281358
 30
0.0
  0
VERTEX
  5
B8
  8
0
 10
-4.648816214348486
 20
2.079531523693284
 30
0.0
  0
SEQEND
  5
B9
  8
0
  0
POLYLINE
  5
2C
  8
0
 66
     1
 10
0.0
 20
0.0
 30
0.0
  0
VERTEX
  5
BA
  8
0
 10
-0.7532475546161592
 20
3.865192996114274
 30
0.0
  0
VERTEX
  5
BB
  8
0
 10
-0.7283180829773969
 20
3.734042297490252
 30
0.0
  0
VERTEX
  5
BC
  8
0
 10
-0.6864799262279537
 20
3.578178905238888
 30
0.0
  0
VERTEX
  5
BD
  8
0
 10
-0.6600330084900313
 20
3.504799547409125
 30
0.0
  0
VERTEX
  5
BE
  8
0
 10
-0.6303344205384036
 20
3.441825534259934
 30
0.0
  0
VERTEX
  5
BF
  8
0
 10
-0.5977093293943926
 20
3.394784705153783
 30
0.0
  0
VERTEX
  5
C0
  8
0
 10
-0.56248290207932
 20
3.36920489945314
 30
0.0
  0
SEQEND
  5
C1
  8
0
  0
POLYLINE
  5
2D
  8
0
 66
     1
 10
0.0
 20
0.0
 30
0.0
  0
VERTEX
  5
C2
  8
0
 10
3.349764116155768
 20
2.079531523677403
 30
0.0
  0
VERTEX
  5
C3
  8
0
 10
3.341083204585408
 20
1.913894716335608
 30
0.0
  0
VERTEX
  5
C4
  8
0
 10
3.314975055414939
 20
1.724000020508945
 30
0.0
  0
VERTEX
  5
C5
  8
0
 10
3.271341546955281
 20
1.517075495800248
 30
0.0
  0
VERTEX
  5
C6
  8
0
 10
3.210084557517353
 20
1.300349201812349
 30
0.0
  0
VERTEX
  5
C7
  8
0
 10
3.131105965412075
 20
1.08104919814808
 30
0.0
  0
VERTEX
  5
C8
  8
0
 10
3.034307648950366
 20
0.8664035444102742
 30
0.0
  0
VERTEX
  5
C9
  8
0
 10
2.919591486443146
 20
0.6636403002017637
 30
0.0
  0
VERTEX
  5
CA
  8
0
 10
2.786859356201333
 20
0.4799875251253809
 30
0.0
  0
VERTEX
  5
CB
  8
0
 10
2.786859356201333
 20
0.4036816640989969
 30
0.0
  0
VERTEX
  5
CC
  8
0
 10
2.854927652685102
 20
0.3299771392439546
 30
0.0
  0
VERTEX
  5
CD
  8
0
 10
2.936002630025641
 20
0.1470164951920481
 30
0.0
  0
VERTEX
  5
CE
  8
0
 10
4.900255314664101
 20
0.1470164951920481
 30
0.0
  0
VERTEX
  5
CF
  8
0
 10
4.981330292004639
 20
0.3299771392439546
 30
0.0
  0
VERTEX
  5
D0
  8
0
 10
5.049398588488408
 20
0.4036816640989969
 30
0.0
  0
VERTEX
  5
D1
  8
0
 10
5.049398588488408
 20
0.4799875251253809
 30
0.0
  0
VERTEX
  5
D2
  8
0
 10
4.916666458258967
 20
0.6636403001823221
 30
0.0
  0
VERTEX
  5
D3
  8
0
 10
4.801950295760523
 20
0.8664035443682917
 30
0.0
  0
VERTEX
  5
D4
  8
0
 10
4.705151979304028
 20
1.081049198082626
 30
0.0
  0
VERTEX
  5
D5
  8
0
 10
4.626173387200429
 20
1.300349201724662
 30
0.0
  0
VERTEX
  5
D6
  8
0
 10
4.564916397760674
 20
1.517075495693734
 30
0.0
  0
VERTEX
  5
D7
  8
0
 10
4.521282889295715
 20
1.724000020389177
 30
0.0
  0
VERTEX
  5
D8
  8
0
 10
4.495174740116498
 20
1.913894716210328
 30
0.0
  0
VERTEX
  5
D9
  8
0
 10
4.486493828533973
 20
2.079531523556524
 30
0.0
  0
SEQEND
  5
DA
  8
0
  0
POLYLINE
  5
2E
  8
0
 66
     1
 10
0.0
 20
0.0
 30
0.0
  0
VERTEX
  5
DB
  8
0
 10
4.468081245946102
 20
2.36648464576696
 30
0.0
  0
VERTEX
  5
DC
  8
0
 10
4.430329693474974
 20
2.549729810962612
 30
0.0
  0
VERTEX
  5
DD
  8
0
 10
4.340277057902441
 20
2.817965506381725
 30
0.0
  0
VERTEX
  5
DE
  8
0
 10
4.30840582076592
 20
2.969695403416453
 30
0.0
  0
VERTEX
  5
DF
  8
0
 10
4.327200940337969
 20
3.103447755772832
 30
0.0
  0
VERTEX
  5
E0
  8
0
 10
4.411372413786777
 20
3.227393019955859
 30
0.0
  0
VERTEX
  5
E1
  8
0
 10
4.575630238280532
 20
3.349701652470529
 30
0.0
  0
VERTEX
  5
E2
  8
0
 10
4.828930055534151
 20
3.458857321308247
 30
0.0
  0
VERTEX
  5
E3
  8
0
 10
5.184452984962777
 20
3.526571342394657
 30
0.0
  0
VERTEX
  5
E4
  8
0
 10
5.407125683529753
 20
3.539578962658108
 30
0.0
  0
VERTEX
  5
E5
  8
0
 10
5.663247240284922
 20
3.535855644136115
 30
0.0
  0
VERTEX
  5
E6
  8
0
 10
5.955448681943097
 20
3.513277877879474
 30
0.0
  0
VERTEX
  5
E7
  8
0
 10
6.286361035219095
 20
3.469722154938978
 30
0.0
  0
VERTEX
  5
E8
  8
0
 10
6.39500746625081
 20
3.50593763194955
 30
0.0
  0
VERTEX
  5
E9
  8
0
 10
6.534314437677182
 20
3.809616532703359
 30
0.0
  0
VERTEX
  5
EA
  8
0
 10
6.484157424623263
 20
3.898766491075804
 30
0.0
  0
VERTEX
  5
EB
  8
0
 10
6.086840715480917
 20
3.967847441496393
 30
0.0
  0
VERTEX
  5
EC
  8
0
 10
5.696086569080917
 20
3.990143081434769
 30
0.0
  0
VERTEX
  5
ED
  8
0
 10
5.316368096016252
 20
3.967187792773253
 30
0.0
  0
VERTEX
  5
EE
  8
0
 10
4.952158406879914
 20
3.900515957394168
 30
0.0
  0
VERTEX
  5
EF
  8
0
 10
4.607930612264893
 20
3.791661957179836
 30
0.0
  0
VERTEX
  5
F0
  8
0
 10
4.28815782276418
 20
3.642160174012579
 30
0.0
  0
VERTEX
  5
F1
  8
0
 10
3.997313148970768
 20
3.45354498977472
 30
0.0
  0
VERTEX
  5
F2
  8
0
 10
3.739869701477645
 20
3.22735078634858
 30
0.0
  0
VERTEX
  5
F3
  8
0
 10
3.612265355665893
 20
3.058874470164843
 30
0.0
  0
VERTEX
  5
F4
  8
0
 10
3.539228100636066
 20
2.893045216764847
 30
0.0
  0
VERTEX
  5
F5
  8
0
 10
3.449373613717206
 20
2.650662839915913
 30
0.0
  0
VERTEX
  5
F6
  8
0
 10
3.363705652199123
 20
2.366491420079896
 30
0.0
  0
VERTEX
  5
F7
  8
0
 10
4.45583328813931
 20
2.36648464576696
 30
0.0
  0
SEQEND
  5
F8
  8
0
  0
POLYLINE
  5
2F
  8
0
 66
     1
 10
0.0
 20
0.0
 30
0.0
  0
VERTEX
  5
F9
  8
0
 10
3.383202124858386
 20
2.366491420079896
 30
0.0
  0
VERTEX
  5
FA
  8
0
 10
3.285692664310282
 20
2.249478712559593
 30
0.0
  0
VERTEX
  5
FB
  8
0
 10
3.317728390233025
 20
2.184355548629201
 30
0.0
  0
VERTEX
  5
FC
  8
0
 10
3.349764116155768
 20
2.079531523677403
 30
0.0
  0
VERTEX
  5
FD
  8
0
 10
4.480884697414489
 20
2.079531523677403
 30
0.0
  0
SEQEND
  5
FE
  8
0
  0
POLYLINE
  5
30
  8
0
 66
     1
 10
0.0
 20
0.0
 30
0.0
  0
VERTEX
  5
FF
  8
0
 10
-0.0682290294928976
 20
3.896409030170517
 30
0.0
  0
VERTEX
  5
100
  8
0
 10
0.1536280259180574
 20
3.885493918435897
 30
0.0
  0
VERTEX
  5
101
  8
0
 10
0.2986298658621392
 20
3.867374536580233
 30
0.0
  0
VERTEX
  5
102
  8
0
 10
0.442378034516608
 20
3.835101498007091
 30
0.0
  0
VERTEX
  5
103
  8
0
 10
0.5707377162218661
 20
3.821480048250448
 30
0.0
  0
VERTEX
  5
104
  8
0
 10
0.6188217895142406
 20
3.866673818584855
 30
0.0
  0
VERTEX
  5
105
  8
0
 10
0.6322349291477849
 20
3.983682503856855
 30
0.0
  0
VERTEX
  5
106
  8
0
 10
0.5994967916574451
 20
4.250824465247811
 30
0.0
  0
VERTEX
  5
107
  8
0
 10
0.5602026540431793
 20
4.425362640393725
 30
0.0
  0
VERTEX
  5
108
  8
0
 10
0.4993500064237232
 20
4.605489068018693
 30
0.0
  0
VERTEX
  5
109
  8
0
 10
0.412232500729732
 20
4.774911340256789
 30
0.0
  0
VERTEX
  5
10A
  8
0
 10
0.2941437888918603
 20
4.917337049242088
 30
0.0
  0
VERTEX
  5
10B
  8
0
 10
0.2220144968972987
 20
4.973334815056835
 30
0.0
  0
VERTEX
  5
10C
  8
0
 10
0.1403775228407634
 20
5.016473787108659
 30
0.0
  0
VERTEX
  5
10D
  8
0
 10
0.0486445732135856
 20
5.044717414414321
 30
0.0
  0
VERTEX
  5
10E
  8
0
 10
-0.0537726454929028
 20
5.056029145990579
 30
0.0
  0
SEQEND
  5
10F
  8
0
  0
POLYLINE
  5
31
  8
0
 66
     1
 10
0.0
 20
0.0
 30
0.0
  0
VERTEX
  5
110
  8
0
 10
0.6063841509449546
 20
3.837445410286492
 30
0.0
  0
VERTEX
  5
111
  8
0
 10
0.57375641358328
 20
3.700165440325661
 30
0.0
  0
VERTEX
  5
112
  8
0
 10
0.534462117193248
 20
3.567746463296286
 30
0.0
  0
VERTEX
  5
113
  8
0
 10
0.5084367813574412
 20
3.506651607516419
 30
0.0
  0
VERTEX
  5
114
  8
0
 10
0.4760909321583573
 20
3.450722112432043
 30
0.0
  0
VERTEX
  5
115
  8
0
 10
0.4358732783939336
 20
3.401274682197369
 30
0.0
  0
VERTEX
  5
116
  8
0
 10
0.3862325288621076
 20
3.359626020966607
 30
0.0
  0
SEQEND
  5
117
  8
0
  0
POLYLINE
  5
32
  8
0
 66
     1
 10
0.0
 20
0.0
 30
0.0
  0
VERTEX
  5
118
  8
0
 10
0.3254398444386979
 20
3.268619900817043
 30
0.0
  0
VERTEX
  5
119
  8
0
 10
0.3549216543807141
 20
3.303304383101768
 30
0.0
  0
VERTEX
  5
11A
  8
0
 10
0.3751903987158503
 20
3.344708983829157
 30
0.0
  0
VERTEX
  5
11B
  8
0
 10
0.3844034643227303
 20
3.400420933498992
 30
0.0
  0
VERTEX
  5
11C
  8
0
 10
0.3844034643227303
 20
3.556501103780235
 30
0.0
  0
SEQEND
  5
11D
  8
0
  0
POLYLINE
  5
33
  8
0
 66
     1
 10
0.0
 20
0.0
 30
0.0
 70
     1
  0
VERTEX
  5
11E
  8
0
 10
0.2047215877367942
 20
3.303304383101761
 30
0.0
  0
VERTEX
  5
11F
  8
0
 10
0.1994435955328875
 20
3.325314357700418
 30
0.0
  0
VERTEX
  5
120
  8
0
 10
0.1838124492016313
 20
3.346478501318585
 30
0.0
  0
VERTEX
  5
121
  8
0
 10
0.158428844930488
 20
3.365983487786004
 30
0.0
  0
VERTEX
  5
122
  8
0
 10
0.1242682603963083
 20
3.383079751411254
 30
0.0
  0
VERTEX
  5
123
  8
0
 10
0.0826434677052643
 20
3.397110292370912
 30
0.0
  0
VERTEX
  5
124
  8
0
 10
0.03515408429702
 20
3.407535924844317
 30
0.0
  0
VERTEX
  5
125
  8
0
 10
-0.0163748994563986
 20
3.413955997622278
 30
0.0
  0
VERTEX
  5
126
  8
0
 10
-0.0699632536071348
 20
3.416123790908355
 30
0.0
  0
VERTEX
  5
127
  8
0
 10
-0.123551607757871
 20
3.413955997622278
 30
0.0
  0
VERTEX
  5
128
  8
0
 10
-0.1750805915112897
 20
3.407535924844317
 30
0.0
  0
VERTEX
  5
129
  8
0
 10
-0.2225699749195339
 20
3.397110292370912
 30
0.0
  0
VERTEX
  5
12A
  8
0
 10
-0.2641947676105779
 20
3.383079751411254
 30
0.0
  0
VERTEX
  5
12B
  8
0
 10
-0.2983553521447576
 20
3.365983487786004
 30
0.0
  0
VERTEX
  5
12C
  8
0
 10
-0.3237389564159009
 20
3.346478501318585
 30
0.0
  0
VERTEX
  5
12D
  8
0
 10
-0.339370102747157
 20
3.325314357700418
 30
0.0
  0
VERTEX
  5
12E
  8
0
 10
-0.3446480949510637
 20
3.303304383101761
 30
0.0
  0
VERTEX
  5
12F
  8
0
 10
-0.339370102747157
 20
3.281294408503103
 30
0.0
  0
VERTEX
  5
130
  8
0
 10
-0.3237389564159008
 20
3.260130264884936
 30
0.0
  0
VERTEX
  5
131
  8
0
 10
-0.2983553521447575
 20
3.240625278417518
 30
0.0
  0
VERTEX
  5
132
  8
0
 10
-0.2641947676105779
 20
3.223529014792268
 30
0.0
  0
VERTEX
  5
133
  8
0
 10
-0.2225699749195339
 20
3.209498473832609
 30
0.0
  0
VERTEX
  5
134
  8
0
 10
-0.1750805915112897
 20
3.199072841359204
 30
0.0
  0
VERTEX
  5
135
  8
0
 10
-0.1235516077578711
 20
3.192652768581244
 30
0.0
  0
VERTEX
  5
136
  8
0
 10
-0.0699632536071349
 20
3.190484975295167
 30
0.0
  0
VERTEX
  5
137
  8
0
 10
-0.0163748994563987
 20
3.192652768581244
 30
0.0
  0
VERTEX
  5
138
  8
0
 10
0.0351540842970199
 20
3.199072841359204
 30
0.0
  0
VERTEX
  5
139
  8
0
 10
0.0826434677052641
 20
3.209498473832609
 30
0.0
  0
VERTEX
  5
13A
  8
0
 10
0.1242682603963081
 20
3.223529014792268
 30
0.0
  0
VERTEX
  5
13B
  8
0
 10
0.1584288449304877
 20
3.240625278417518
 30
0.0
  0
VERTEX
  5
13C
  8
0
 10
0.183812449201631
 20
3.260130264884936
 30
0.0
  0
VERTEX
  5
13D
  8
0
 10
0.1994435955328871
 20
3.281294408503103
 30
0.0
  0
SEQEND
  5
13E
  8
0
  0
POLYLINE
  5
34
  8
0
 66
     1
 10
0.0
 20
0.0
 30
0.0
 70
     1
  0
VERTEX
  5
13F
  8
0
 10
0.3371594058356847
 20
3.296367486644826
 30
0.0
  0
VERTEX
  5
140
  8
0
 10
0.3293366580929998
 20
3.328904028295141
 30
0.0
  0
VERTEX
  5
141
  8
0
 10
0.306169038673649
 20
3.360190208896537
 30
0.0
  0
VERTEX
  5
142
  8
0
 10
0.2685468661993675
 20
3.389023718073995
 30
0.0
  0
VERTEX
  5
143
  8
0
 10
0.2179159396595842
 20
3.414296500239843
 30
0.0
  0
VERTEX
  5
144
  8
0
 10
0.1562219771670725
 20
3.435037336548588
 30
0.0
  0
VERTEX
  5
145
  8
0
 10
0.0858358431020468
 20
3.450449168292479
 30
0.0
  0
VERTEX
  5
146
  8
0
 10
0.0094624371236273
 20
3.459939727420652
 30
0.0
  0
VERTEX
  5
147
  8
0
 10
-0.0699632536071348
 20
3.463144297068181
 30
0.0
  0
VERTEX
  5
148
  8
0
 10
-0.149388944337897
 20
3.459939727420652
 30
0.0
  0
VERTEX
  5
149
  8
0
 10
-0.2257623503163165
 20
3.450449168292478
 30
0.0
  0
VERTEX
  5
14A
  8
0
 10
-0.2961484843813421
 20
3.435037336548588
 30
0.0
  0
VERTEX
  5
14B
  8
0
 10
-0.3578424468738538
 20
3.414296500239843
 30
0.0
  0
VERTEX
  5
14C
  8
0
 10
-0.408473373413637
 20
3.389023718073995
 30
0.0
  0
VERTEX
  5
14D
  8
0
 10
-0.4460955458879186
 20
3.360190208896537
 30
0.0
  0
VERTEX
  5
14E
  8
0
 10
-0.4692631653072693
 20
3.328904028295141
 30
0.0
  0
VERTEX
  5
14F
  8
0
 10
-0.4770859130499541
 20
3.296367486644826
 30
0.0
  0
VERTEX
  5
150
  8
0
 10
-0.4692631653072693
 20
3.263830944994511
 30
0.0
  0
VERTEX
  5
151
  8
0
 10
-0.4460955458879185
 20
3.232544764393114
 30
0.0
  0
VERTEX
  5
152
  8
0
 10
-0.4084733734136369
 20
3.203711255215657
 30
0.0
  0
VERTEX
  5
153
  8
0
 10
-0.3578424468738537
 20
3.178438473049809
 30
0.0
  0
VERTEX
  5
154
  8
0
 10
-0.2961484843813421
 20
3.157697636741064
 30
0.0
  0
VERTEX
  5
155
  8
0
 10
-0.2257623503163165
 20
3.142285804997174
 30
0.0
  0
VERTEX
  5
156
  8
0
 10
-0.149388944337897
 20
3.132795245869
 30
0.0
  0
VERTEX
  5
157
  8
0
 10
-0.0699632536071349
 20
3.129590676221471
 30
0.0
  0
VERTEX
  5
158
  8
0
 10
0.0094624371236272
 20
3.132795245869
 30
0.0
  0
VERTEX
  5
159
  8
0
 10
0.0858358431020466
 20
3.142285804997174
 30
0.0
  0
VERTEX
  5
15A
  8
0
 10
0.1562219771670722
 20
3.157697636741064
 30
0.0
  0
VERTEX
  5
15B
  8
0
 10
0.2179159396595838
 20
3.178438473049809
 30
0.0
  0
VERTEX
  5
15C
  8
0
 10
0.268546866199367
 20
3.203711255215657
 30
0.0
  0
VERTEX
  5
15D
  8
0
 10
0.3061690386736485
 20
3.232544764393114
 30
0.0
  0
VERTEX
  5
15E
  8
0
 10
0.3293366580929992
 20
3.263830944994511
 30
0.0
  0
SEQEND
  5
15F
  8
0
  0
POLYLINE
  5
35
  8
0
 66
     1
 10
0.0
 20
0.0
 30
0.0
  0
VERTEX
  5
160
  8
0
 10
4.450318997401077
 20
2.366491420079896
 30
0.0
  0
VERTEX
  5
161
  8
0
 10
4.54782845794918
 20
2.249478712559593
 30
0.0
  0
VERTEX
  5
162
  8
0
 10
4.515792732031242
 20
2.184355548639962
 30
0.0
  0
VERTEX
  5
163
  8
0
 10
4.493768170459958
 20
2.128417506281358
 30
0.0
  0
VERTEX
  5
164
  8
0
 10
4.483757006103694
 20
2.079531523693284
 30
0.0
  0
SEQEND
  5
165
  8
0
  0
LINE
  5
36
  8
0
 10
-3.450751872555074
 20
2.249478712559593
 30
0.0
 11
-4.712887666193971
 21
2.249478712559593
 31
0.0
  0
LINE
  5
37
  8
0
 10
-5.23762594700932
 20
0.4406694127854394
 30
0.0
 11
-2.93920995335899
 21
0.4406694127854394
 31
0.0
  0
ATTDEF
  5
38
  8
0
  6
CONTINUOUS
 10
-0.0018
 20
-0.0165
 30
0.0
 40
0.003
  1
BRASS
  3

  2
MATERIAL
 70
     2
  0
ATTDEF
  5
39
  8
0
  6
CONTINUOUS
 10
-0.0018
 20
-0.0132
 30
0.0
 40
0.003
  1
FAUCET
  3

  2
PRODUCT
 70
     2
  0
ATTDEF
  5
3A
  8
0
  6
CONTINUOUS
 10
-0.0018
 20
-0.0098
 30
0.0
 40
0.003
  1
FORTE
  3

  2
TRADENAME
 70
     2
  0
ATTDEF
  5
3B
  8
0
  6
CONTINUOUS
 10
-0.0018
 20
-0.0065
 30
0.0
 40
0.003
  1
K-10272-4
  3

  2
MODELNUMBER
 70
     2
  0
LINE
  5
3C
  8
0
 10
3.285692664310282
 20
2.249478712559593
 30
0.0
 11
4.54782845794918
 21
2.249478712559593
 31
0.0
  0
LINE
  5
3D
  8
0
 10
5.072566738764529
 20
0.4406694127854394
 30
0.0
 11
2.774150745114199
 21
0.4406694127854394
 31
0.0
  0
ENDSEC
  0
EOF
