999
DXF file: 8670in-frnt.dxf
999
Pro/ENGINEER 2013150 by Parametric Technology Corporation
  0
SECTION
  2
HEADER
  9
$ACADVER
  1
AC1021
  9
$DWGCODEPAGE
  3
ANSI_1252
  9
$EXTMAX
 10
841.0
 20
594.0
 30
0.0
  9
$EXTMIN
 10
0.0
 20
0.0
 30
0.0
  9
$LIMMIN
 10
0.0
 20
0.0
  9
$LIMMAX
 10
841.0
 20
594.0
  9
$VIEWCTR
 10
420.5
 20
297.0
  9
$VIEWSIZE
 40
594.0
  9
$CLAYER
  8
0
  9
$LTSCALE
 40
46.255
  9
$CELTYPE
  6
BYLAYER
  9
$DIMSCALE
 40
1.0
  9
$DIMASZ
 40
4.7625
  9
$DIMEXO
 40
1.0
  9
$DIMDLI
 40
31.958
  9
$DIMEXE
 40
1.5
  9
$DIMCEN
 40
7.569
  9
$DIMLFAC
 40
1.0
  9
$DIMBLK
  1
_FILLED
  9
$DIMTXT
 40
3.96875
  9
$DIMTOL
 70
1
  9
$DIMLIM
 70
0
  9
$DIMTFAC
 40
1.0
  9
$DIMTP
 40
0.01
  9
$DIMTM
 40
0.01
  9
$DIMGAP
 40
0.625
  9
$DIMDSEP
 70
46
  9
$PDMODE
 70
3
  9
$PDSIZE
 40
7.9375
  9
$HANDSEED
  5
79A
  9
$TILEMODE
 70
1
  9
$MEASUREMENT
 70
1
  9
$INSUNITS
 70
4
  0
ENDSEC
  0
SECTION
  2
CLASSES
  0
CLASS
  1
ACDBDICTIONARYWDFLT
  2
AcDbDictionaryWithDefault
  3
AutoCAD 2000
 90
0
 91
1
280
0
281
0
  0
CLASS
  1
ACDBPLACEHOLDER
  2
AcDbPlaceHolder
  3
AutoCAD 2000
 90
0
 91
1
280
0
281
0
  0
CLASS
  1
LAYOUT
  2
AcDbLayout
  3
AutoCAD 2000
 90
0
 91
0
280
0
281
0
  0
ENDSEC
  0
SECTION
  2
TABLES
  0
TABLE
  2
VPORT
  5
8
100
AcDbSymbolTable
 70
2
  0
VPORT
  5
1F4
100
AcDbSymbolTableRecord
100
AcDbViewportTableRecord
  2
*ACTIVE
 70
0
 10
0.0
 20
0.0
 11
1.0
 21
1.0
 12
420.5
 22
297.0
 13
0.0
 23
0.0
 14
1.0
 24
1.0
 15
0.0
 25
0.0
 16
0.0
 26
0.0
 36
1.0
 17
0.0
 27
0.0
 37
0.0
 40
594.0
 41
1.4158249158
 42
50.0
 43
0.0
 44
0.0
 50
0.0
 51
0.0
 71
0
 72
100
 73
1
 74
1
 75
0
 76
0
 77
0
 78
0
  0
ENDTAB
  0
TABLE
  2
LTYPE
  5
5
100
AcDbSymbolTable
 70
6
  0
LTYPE
  5
14
100
AcDbSymbolTableRecord
100
AcDbLinetypeTableRecord
  2
BYBLOCK
 70
0
  3

 72
65
 73
0
 40
0.0
  0
LTYPE
  5
15
100
AcDbSymbolTableRecord
100
AcDbLinetypeTableRecord
  2
BYLAYER
 70
0
  3

 72
65
 73
0
 40
0.0
  0
LTYPE
  5
16
100
AcDbSymbolTableRecord
100
AcDbLinetypeTableRecord
  2
CONTINUOUS
 70
64
  3
Solid line
 72
65
 73
0
 40
0.0
  0
LTYPE
  5
1F5
100
AcDbSymbolTableRecord
100
AcDbLinetypeTableRecord
  2
CENTER
 70
64
  3
____ _ ____ _ ____ _ ____ _ ____ _ ____ _ ____
 72
65
 73
4
 40
0.6
 49
0.375
 74
0
 49
-0.075
 74
0
 49
0.075
 74
0
 49
-0.075
 74
0
  0
LTYPE
  5
1F6
100
AcDbSymbolTableRecord
100
AcDbLinetypeTableRecord
  2
HIDDEN
 70
64
  3
- - - - - - - - - - - - - - - - - - - -
 72
65
 73
2
 40
0.2
 49
0.1
 74
0
 49
-0.1
 74
0
  0
LTYPE
  5
1F7
100
AcDbSymbolTableRecord
100
AcDbLinetypeTableRecord
  2
PHANTOM
 70
64
  3
_____ _ _ _____ _ _ _____ _ _ _____
 72
65
 73
6
 40
0.8
 49
0.45
 74
0
 49
-0.05
 74
0
 49
0.1
 74
0
 49
-0.05
 74
0
 49
0.1
 74
0
 49
-0.05
 74
0
  0
LTYPE
  5
1F8
100
AcDbSymbolTableRecord
100
AcDbLinetypeTableRecord
  2
DOT
 70
64
  3
. . . . . . . . . . . . . . . . . . . .
 72
65
 73
2
 40
0.2
 49
0.1
 74
0
 49
-0.1
 74
0
  0
LTYPE
  5
1F9
100
AcDbSymbolTableRecord
100
AcDbLinetypeTableRecord
  2
DASHED
 70
64
  3
- - - - - - - - - - - - - - - - - - - -
 72
65
 73
2
 40
0.2
 49
0.1
 74
0
 49
-0.1
 74
0
  0
LTYPE
  5
1FA
100
AcDbSymbolTableRecord
100
AcDbLinetypeTableRecord
  2
SOLIDFONT
 70
64
  3
Solid line
 72
65
 73
0
 40
0.0
  0
ENDTAB
  0
TABLE
  2
LAYER
  5
2
100
AcDbSymbolTable
 70
36
  0
LAYER
  5
10
100
AcDbSymbolTableRecord
100
AcDbLayerTableRecord
  2
0
 70
0
 62
7
  6
CONTINUOUS
370
-3
390
F
  0
LAYER
  5
1FB
100
AcDbSymbolTableRecord
100
AcDbLayerTableRecord
  2
DEFAULT_1
 70
0
 62
7
  6
CENTER
370
-3
390
F
  0
LAYER
  5
1FC
100
AcDbSymbolTableRecord
100
AcDbLayerTableRecord
  2
DEFAULT_2
 70
0
 62
8
  6
HIDDEN
370
-3
390
F
  0
LAYER
  5
1FD
100
AcDbSymbolTableRecord
100
AcDbLayerTableRecord
  2
DEFAULT_3
 70
0
 62
7
  6
PHANTOM
370
-3
390
F
  0
LAYER
  5
1FE
100
AcDbSymbolTableRecord
100
AcDbLayerTableRecord
  2
255
 70
0
 62
7
  6
CONTINUOUS
370
-3
390
F
  0
LAYER
  5
1FF
100
AcDbSymbolTableRecord
100
AcDbLayerTableRecord
  2
AXES
 70
0
 62
7
  6
CONTINUOUS
370
-3
390
F
  0
LAYER
  5
200
100
AcDbSymbolTableRecord
100
AcDbLayerTableRecord
  2
COTA
 70
0
 62
7
  6
CONTINUOUS
370
-3
390
F
  0
LAYER
  5
201
100
AcDbSymbolTableRecord
100
AcDbLayerTableRecord
  2
CYAN
 70
0
 62
7
  6
CONTINUOUS
370
-3
390
F
  0
LAYER
  5
202
100
AcDbSymbolTableRecord
100
AcDbLayerTableRecord
  2
DEFPOINTS
 70
0
 62
7
  6
CONTINUOUS
290
0
370
-3
390
F
  0
LAYER
  5
203
100
AcDbSymbolTableRecord
100
AcDbLayerTableRecord
  2
HACH
 70
0
 62
7
  6
CONTINUOUS
370
-3
390
F
  0
LAYER
  5
204
100
AcDbSymbolTableRecord
100
AcDbLayerTableRecord
  2
HACHURES
 70
0
 62
7
  6
CONTINUOUS
370
-3
390
F
  0
LAYER
  5
205
100
AcDbSymbolTableRecord
100
AcDbLayerTableRecord
  2
JAUNE
 70
0
 62
7
  6
CONTINUOUS
370
-3
390
F
  0
LAYER
  5
206
100
AcDbSymbolTableRecord
100
AcDbLayerTableRecord
  2
LAYER1
 70
0
 62
7
  6
CONTINUOUS
370
-3
390
F
  0
LAYER
  5
207
100
AcDbSymbolTableRecord
100
AcDbLayerTableRecord
  2
LAYER_1
 70
0
 62
7
  6
CONTINUOUS
370
-3
390
F
  0
LAYER
  5
208
100
AcDbSymbolTableRecord
100
AcDbLayerTableRecord
  2
TEXTE
 70
0
 62
7
  6
CONTINUOUS
370
-3
390
F
  0
LAYER
  5
209
100
AcDbSymbolTableRecord
100
AcDbLayerTableRecord
  2
VERT
 70
0
 62
7
  6
CONTINUOUS
370
-3
390
F
  0
LAYER
  5
20A
100
AcDbSymbolTableRecord
100
AcDbLayerTableRecord
  2
___NOTE
 70
0
 62
7
  6
CONTINUOUS
370
-3
390
F
  0
LAYER
  5
20B
100
AcDbSymbolTableRecord
100
AcDbLayerTableRecord
  2
___SYMBOL
 70
0
 62
7
  6
CONTINUOUS
370
-3
390
F
  0
ENDTAB
  0
TABLE
  2
STYLE
  5
3
100
AcDbSymbolTable
 70
1
  0
STYLE
  5
11
100
AcDbSymbolTableRecord
100
AcDbTextStyleTableRecord
  2
STANDARD
 70
0
 40
0.0
 41
0.8
 50
0.0
 71
0
 42
0.2
  3
txt
  4

  0
STYLE
  5
20C
100
AcDbSymbolTableRecord
100
AcDbTextStyleTableRecord
  2
TEXTSTYLE_1
 70
0
 40
0.0
 41
0.8
 50
0.0
 71
0
 42
0.2
  3
gdt
  4

  0
ENDTAB
  0
TABLE
  2
VIEW
  5
6
100
AcDbSymbolTable
 70
0
  0
ENDTAB
  0
TABLE
  2
UCS
  5
7
100
AcDbSymbolTable
 70
0
  0
ENDTAB
  0
TABLE
  2
APPID
  5
9
100
AcDbSymbolTable
 70
1
  0
APPID
  5
20D
100
AcDbSymbolTableRecord
100
AcDbRegAppTableRecord
  2
ACAD
 70
0
  0
ENDTAB
  0
TABLE
  2
BLOCK_RECORD
  5
1
100
AcDbSymbolTable
 70
0
  0
BLOCK_RECORD
  5
20E
100
AcDbSymbolTableRecord
100
AcDbBlockTableRecord
  2
*Model_Space
  0
BLOCK_RECORD
  5
20F
100
AcDbSymbolTableRecord
100
AcDbBlockTableRecord
  2
*Paper_Space
  0
ENDTAB
  0
TABLE
  2
DIMSTYLE
  5
A
100
AcDbSymbolTable
 70
1
100
AcDbDimStyleTable
 71
0
  0
DIMSTYLE
105
210
100
AcDbSymbolTableRecord
100
AcDbDimStyleTableRecord
  2
STANDARD
 70
0
  3

  4

 40
1.0
 41
4.7625
 42
1.0
 43
0.38
 44
1.5
 45
0.0
 46
0.0
 47
0.01
 48
0.01
140
3.96875
141
0.09
142
0.0
143
25.4
144
1.0
145
0.0
146
1.0
147
0.625
 71
1.0
 72
0.0
 73
1
 74
1
 75
0
 76
0
 77
0
 78
8
170
0
171
2
172
0
173
0
174
0
175
0
176
0
177
0
178
0
270
2
271
3
272
3
273
2
274
2
275
0
280
0
281
0
282
0
283
1
284
8
285
0
286
0
287
3
288
0
340
11
278
46
  0
ENDTAB
  0
ENDSEC
  0
SECTION
  2
BLOCKS
  0
BLOCK
  5
20
100
AcDbEntity
  8
0
100
AcDbBlockBegin
  2
*Model_Space
 70
0
 10
0.0
 20
0.0
 30
0.0
  3
*Model_Space
  1

  0
ENDBLK
  5
21
100
AcDbEntity
  8
0
100
AcDbBlockEnd
  0
BLOCK
  5
1C
100
AcDbEntity
  8
0
100
AcDbBlockBegin
  2
*Paper_Space
 70
0
 10
0.0
 20
0.0
 30
0.0
  3
*Paper_Space
  1

  0
ENDBLK
  5
1D
100
AcDbEntity
  8
0
100
AcDbBlockEnd
  0
ENDSEC
  0
SECTION
  2
ENTITIES
  0
LINE
  5
211
100
AcDbEntity
  8
0
100
AcDbLine
 62
7
  6
CONTINUOUS
 10
55.231011
 20
396.839735
 11
55.231011
 21
385.839384
  0
LINE
  5
212
100
AcDbEntity
  8
0
100
AcDbLine
 62
7
  6
CONTINUOUS
 10
57.231011
 20
396.839735
 11
57.231011
 21
385.839384
  0
LINE
  5
213
100
AcDbEntity
  8
0
100
AcDbLine
 62
7
  6
CONTINUOUS
 10
46.0587425045
 20
266.2551641506
 11
46.0747639448
 21
470.5196467723
  0
LINE
  5
214
100
AcDbEntity
  8
0
100
AcDbLine
 62
7
  6
CONTINUOUS
 10
106.731011
 20
269.596446
 11
106.731011
 21
268.596446
  0
LINE
  5
215
100
AcDbEntity
  8
0
100
AcDbLine
 62
7
  6
CONTINUOUS
 10
109.679347
 20
297.310088
 11
109.679347
 21
296.610088
  0
LINE
  5
216
100
AcDbEntity
  8
0
100
AcDbLine
 62
7
  6
CONTINUOUS
 10
114.229773
 20
297.325843
 11
114.229773
 21
296.596446
  0
LINE
  5
217
100
AcDbEntity
  8
0
100
AcDbLine
 62
7
  6
CONTINUOUS
 10
115.229773
 20
297.325843
 11
115.229773
 21
296.596446
  0
LINE
  5
218
100
AcDbEntity
  8
0
100
AcDbLine
 62
7
  6
CONTINUOUS
 10
115.231011
 20
396.819057
 11
115.231011
 21
385.818706
  0
LINE
  5
219
100
AcDbEntity
  8
0
100
AcDbLine
 62
2
  6
CONTINUOUS
 10
115.981011
 20
296.596446
 11
115.981011
 21
269.596446
  0
LINE
  5
21A
100
AcDbEntity
  8
0
100
AcDbLine
 62
7
  6
CONTINUOUS
 10
117.231011
 20
396.818707
 11
117.231011
 21
385.818356
  0
LINE
  5
21B
100
AcDbEntity
  8
DEFAULT_2
100
AcDbLine
 62
8
  6
CONTINUOUS
 10
117.231011
 20
305.824838
 11
117.231011
 21
308.524838
  0
LINE
  5
21C
100
AcDbEntity
  8
DEFAULT_2
100
AcDbLine
 62
8
  6
CONTINUOUS
 10
117.231011
 20
311.024838
 11
117.231011
 21
313.024838
  0
LINE
  5
21D
100
AcDbEntity
  8
DEFAULT_2
100
AcDbLine
 62
8
  6
CONTINUOUS
 10
117.731011
 20
310.736163
 11
117.731011
 21
313.313513
  0
LINE
  5
21E
100
AcDbEntity
  8
DEFAULT_2
100
AcDbLine
 62
8
  6
CONTINUOUS
 10
118.231011
 20
308.524838
 11
118.231011
 21
310.524838
  0
LINE
  5
21F
100
AcDbEntity
  8
DEFAULT_2
100
AcDbLine
 62
8
  6
CONTINUOUS
 10
118.731011
 20
303.10315
 11
118.731011
 21
297.546526
  0
LINE
  5
220
100
AcDbEntity
  8
DEFAULT_2
100
AcDbLine
 62
8
  6
CONTINUOUS
 10
119.416056
 20
313.497468
 11
119.416056
 21
317.497468
  0
LINE
  5
221
100
AcDbEntity
  8
DEFAULT_2
100
AcDbLine
 62
8
  6
CONTINUOUS
 10
119.981011
 20
292.824838
 11
119.981011
 21
284.824838
  0
LINE
  5
222
100
AcDbEntity
  8
DEFAULT_2
100
AcDbLine
 62
8
  6
CONTINUOUS
 10
119.981011
 20
303.824838
 11
119.981011
 21
305.824838
  0
LINE
  5
223
100
AcDbEntity
  8
DEFAULT_2
100
AcDbLine
 62
8
  6
CONTINUOUS
 10
120.731011
 20
284.824838
 11
120.731011
 21
283.824838
  0
LINE
  5
224
100
AcDbEntity
  8
0
100
AcDbLine
 62
7
  6
CONTINUOUS
 10
121.179347
 20
370.314149
 11
121.179347
 21
355.314148
  0
LINE
  5
225
100
AcDbEntity
  8
DEFAULT_2
100
AcDbLine
 62
8
  6
CONTINUOUS
 10
121.231011
 20
293.624838
 11
121.231011
 21
292.824838
  0
LINE
  5
226
100
AcDbEntity
  8
0
100
AcDbLine
 62
7
  6
CONTINUOUS
 10
121.432763
 20
374.816777
 11
121.432763
 21
374.916909
  0
LINE
  5
227
100
AcDbEntity
  8
0
100
AcDbLine
 62
7
  6
CONTINUOUS
 10
122.881011
 20
370.816374
 11
122.881011
 21
370.316374
  0
LINE
  5
228
100
AcDbEntity
  8
DEFAULT_2
100
AcDbLine
 62
8
  6
CONTINUOUS
 10
123.231011
 20
296.824838
 11
123.231011
 21
293.624838
  0
LINE
  5
229
100
AcDbEntity
  8
DEFAULT_2
100
AcDbLine
 62
8
  6
CONTINUOUS
 10
123.323534
 20
313.497468
 11
123.323534
 21
317.497468
  0
LINE
  5
22A
100
AcDbEntity
  8
DEFAULT_2
100
AcDbLine
 62
8
  6
CONTINUOUS
 10
124.231011
 20
296.824838
 11
124.231011
 21
293.624838
  0
LINE
  5
22B
100
AcDbEntity
  8
DEFAULT_2
100
AcDbLine
 62
8
  6
CONTINUOUS
 10
124.323534
 20
313.497468
 11
124.323534
 21
317.497468
  0
LINE
  5
22C
100
AcDbEntity
  8
DEFAULT_2
100
AcDbLine
 62
8
  6
CONTINUOUS
 10
124.731011
 20
324.340666
 11
124.731011
 21
318.497468
  0
LINE
  5
22D
100
AcDbEntity
  8
DEFAULT_2
100
AcDbLine
 62
8
  6
CONTINUOUS
 10
125.231011
 20
296.824838
 11
125.231011
 21
292.824838
  0
LINE
  5
22E
100
AcDbEntity
  8
DEFAULT_2
100
AcDbLine
 62
8
  6
CONTINUOUS
 10
125.431011
 20
335.324838
 11
125.431011
 21
327.365204
  0
LINE
  5
22F
100
AcDbEntity
  8
DEFAULT_2
100
AcDbLine
 62
8
  6
CONTINUOUS
 10
126.231011
 20
296.824838
 11
126.231011
 21
292.824838
  0
LINE
  5
230
100
AcDbEntity
  8
DEFAULT_2
100
AcDbLine
 62
8
  6
CONTINUOUS
 10
127.231011
 20
336.324838
 11
127.231011
 21
328.824838
  0
LINE
  5
231
100
AcDbEntity
  8
DEFAULT_2
100
AcDbLine
 62
8
  6
CONTINUOUS
 10
127.581011
 20
327.324838
 11
127.581011
 21
336.324838
  0
LINE
  5
232
100
AcDbEntity
  8
DEFAULT_2
100
AcDbLine
 62
8
  6
CONTINUOUS
 10
130.881011
 20
327.324838
 11
130.881011
 21
336.324838
  0
LINE
  5
233
100
AcDbEntity
  8
0
100
AcDbLine
 62
7
  6
CONTINUOUS
 10
120.740039
 20
395.574829
 11
120.737054
 21
387.059424
  0
LINE
  5
234
100
AcDbEntity
  8
0
100
AcDbLine
 62
7
  6
CONTINUOUS
 10
121.23295
 20
375.348415
 11
121.232939
 21
375.316952
  0
LINE
  5
235
100
AcDbEntity
  8
DEFAULT_2
100
AcDbLine
 62
8
  6
CONTINUOUS
 10
131.231011
 20
336.324838
 11
131.231011
 21
328.824838
  0
LINE
  5
236
100
AcDbEntity
  8
DEFAULT_2
100
AcDbLine
 62
8
  6
CONTINUOUS
 10
132.231011
 20
296.824838
 11
132.231011
 21
292.824838
  0
LINE
  5
237
100
AcDbEntity
  8
DEFAULT_2
100
AcDbLine
 62
8
  6
CONTINUOUS
 10
133.031011
 20
335.324838
 11
133.031011
 21
327.540583
  0
LINE
  5
238
100
AcDbEntity
  8
DEFAULT_2
100
AcDbLine
 62
8
  6
CONTINUOUS
 10
133.231011
 20
296.824838
 11
133.231011
 21
292.824838
  0
LINE
  5
239
100
AcDbEntity
  8
DEFAULT_2
100
AcDbLine
 62
8
  6
CONTINUOUS
 10
133.731011
 20
324.340666
 11
133.731011
 21
318.497468
  0
LINE
  5
23A
100
AcDbEntity
  8
DEFAULT_2
100
AcDbLine
 62
8
  6
CONTINUOUS
 10
134.138488
 20
313.497468
 11
134.138488
 21
317.497468
  0
LINE
  5
23B
100
AcDbEntity
  8
DEFAULT_2
100
AcDbLine
 62
8
  6
CONTINUOUS
 10
134.231011
 20
296.824838
 11
134.231011
 21
293.624838
  0
LINE
  5
23C
100
AcDbEntity
  8
DEFAULT_2
100
AcDbLine
 62
8
  6
CONTINUOUS
 10
135.138488
 20
313.497468
 11
135.138488
 21
317.497468
  0
LINE
  5
23D
100
AcDbEntity
  8
DEFAULT_2
100
AcDbLine
 62
8
  6
CONTINUOUS
 10
135.231011
 20
296.824838
 11
135.231011
 21
293.624838
  0
LINE
  5
23E
100
AcDbEntity
  8
0
100
AcDbLine
 62
7
  6
CONTINUOUS
 10
135.581011
 20
370.811923
 11
135.581011
 21
370.311923
  0
LINE
  5
23F
100
AcDbEntity
  8
0
100
AcDbLine
 62
7
  6
CONTINUOUS
 10
137.032763
 20
374.811415
 11
137.032763
 21
374.911389
  0
LINE
  5
240
100
AcDbEntity
  8
0
100
AcDbLine
 62
7
  6
CONTINUOUS
 10
137.179347
 20
370.319757
 11
137.179347
 21
355.319756
  0
LINE
  5
241
100
AcDbEntity
  8
DEFAULT_2
100
AcDbLine
 62
8
  6
CONTINUOUS
 10
137.231011
 20
293.624838
 11
137.231011
 21
292.824838
  0
LINE
  5
242
100
AcDbEntity
  8
DEFAULT_2
100
AcDbLine
 62
8
  6
CONTINUOUS
 10
137.731011
 20
284.824838
 11
137.731011
 21
283.824838
  0
LINE
  5
243
100
AcDbEntity
  8
DEFAULT_2
100
AcDbLine
 62
8
  6
CONTINUOUS
 10
138.481011
 20
292.824838
 11
138.481011
 21
284.824838
  0
LINE
  5
244
100
AcDbEntity
  8
DEFAULT_2
100
AcDbLine
 62
8
  6
CONTINUOUS
 10
138.481011
 20
303.824838
 11
138.481011
 21
305.824838
  0
LINE
  5
245
100
AcDbEntity
  8
DEFAULT_2
100
AcDbLine
 62
8
  6
CONTINUOUS
 10
139.045966
 20
313.524838
 11
139.045966
 21
317.497468
  0
LINE
  5
246
100
AcDbEntity
  8
DEFAULT_2
100
AcDbLine
 62
8
  6
CONTINUOUS
 10
139.731011
 20
297.546526
 11
139.731011
 21
303.10315
  0
LINE
  5
247
100
AcDbEntity
  8
DEFAULT_2
100
AcDbLine
 62
8
  6
CONTINUOUS
 10
140.231011
 20
308.524838
 11
140.231011
 21
310.524838
  0
LINE
  5
248
100
AcDbEntity
  8
DEFAULT_2
100
AcDbLine
 62
8
  6
CONTINUOUS
 10
140.731011
 20
310.736163
 11
140.731011
 21
313.313513
  0
LINE
  5
249
100
AcDbEntity
  8
DEFAULT_2
100
AcDbLine
 62
8
  6
CONTINUOUS
 10
141.231011
 20
305.824838
 11
141.231011
 21
313.024838
  0
LINE
  5
24A
100
AcDbEntity
  8
0
100
AcDbLine
 62
2
  6
CONTINUOUS
 10
142.481011
 20
296.596446
 11
142.481011
 21
269.596446
  0
LINE
  5
24B
100
AcDbEntity
  8
0
100
AcDbLine
 62
7
  6
CONTINUOUS
 10
143.231011
 20
296.596446
 11
143.231011
 21
297.324838
  0
LINE
  5
24C
100
AcDbEntity
  8
0
100
AcDbLine
 62
7
  6
CONTINUOUS
 10
144.231011
 20
296.596446
 11
144.231011
 21
297.324838
  0
LINE
  5
24D
100
AcDbEntity
  8
0
100
AcDbLine
 62
7
  6
CONTINUOUS
 10
149.34346
 20
297.330258
 11
149.34346
 21
296.596446
  0
LINE
  5
24E
100
AcDbEntity
  8
0
100
AcDbLine
 62
7
  6
CONTINUOUS
 10
151.731011
 20
269.596446
 11
151.731011
 21
268.596446
  0
LINE
  5
24F
100
AcDbEntity
  8
0
100
AcDbLine
 62
7
  6
CONTINUOUS
 10
136.733114
 20
375.81152
 11
136.733111
 21
375.803012
  0
LINE
  5
250
100
AcDbEntity
  8
0
100
AcDbLine
 62
7
  6
CONTINUOUS
 10
137.232948
 20
375.336531
 11
137.232939
 21
375.311345
  0
LINE
  5
251
100
AcDbEntity
  8
0
100
AcDbLine
 62
7
  6
CONTINUOUS
 10
137.740028
 20
395.538678
 11
137.737065
 21
387.083659
  0
LINE
  5
252
100
AcDbEntity
  8
DEFAULT_2
100
AcDbLine
 62
8
  6
CONTINUOUS
 10
126.431011
 20
336.324838
 11
125.431011
 21
335.324838
  0
LINE
  5
253
100
AcDbEntity
  8
DEFAULT_2
100
AcDbLine
 62
8
  6
HIDDEN
 10
125.431011
 20
334.789826
 11
126.966024
 21
336.324838
  0
LINE
  5
254
100
AcDbEntity
  8
DEFAULT_2
100
AcDbLine
 62
8
  6
HIDDEN
 10
125.431011
 20
333.729166
 11
127.231011
 21
335.529166
  0
LINE
  5
255
100
AcDbEntity
  8
DEFAULT_2
100
AcDbLine
 62
8
  6
HIDDEN
 10
125.431011
 20
332.668506
 11
127.231011
 21
334.468506
  0
LINE
  5
256
100
AcDbEntity
  8
DEFAULT_2
100
AcDbLine
 62
8
  6
HIDDEN
 10
125.431011
 20
331.607845
 11
127.231011
 21
333.407845
  0
LINE
  5
257
100
AcDbEntity
  8
DEFAULT_2
100
AcDbLine
 62
8
  6
HIDDEN
 10
125.431011
 20
330.547185
 11
127.231011
 21
332.347185
  0
LINE
  5
258
100
AcDbEntity
  8
DEFAULT_2
100
AcDbLine
 62
8
  6
HIDDEN
 10
125.431011
 20
329.486525
 11
127.231011
 21
331.286525
  0
LINE
  5
259
100
AcDbEntity
  8
DEFAULT_2
100
AcDbLine
 62
8
  6
HIDDEN
 10
131.231011
 20
335.286525
 11
132.150168
 21
336.205682
  0
LINE
  5
25A
100
AcDbEntity
  8
DEFAULT_2
100
AcDbLine
 62
8
  6
HIDDEN
 10
125.431011
 20
328.425865
 11
127.231011
 21
330.225865
  0
LINE
  5
25B
100
AcDbEntity
  8
DEFAULT_2
100
AcDbLine
 62
8
  6
HIDDEN
 10
131.231011
 20
334.225865
 11
132.680498
 21
335.675352
  0
LINE
  5
25C
100
AcDbEntity
  8
DEFAULT_2
100
AcDbLine
 62
8
  6
HIDDEN
 10
125.431011
 20
327.365205
 11
127.231011
 21
329.165205
  0
LINE
  5
25D
100
AcDbEntity
  8
DEFAULT_2
100
AcDbLine
 62
8
  6
HIDDEN
 10
131.231011
 20
333.165205
 11
133.031011
 21
334.965205
  0
LINE
  5
25E
100
AcDbEntity
  8
DEFAULT_2
100
AcDbLine
 62
8
  6
HIDDEN
 10
125.9049
 20
326.778434
 11
127.581011
 21
328.454545
  0
LINE
  5
25F
100
AcDbEntity
  8
DEFAULT_2
100
AcDbLine
 62
8
  6
HIDDEN
 10
131.231011
 20
332.104545
 11
133.031011
 21
333.904545
  0
LINE
  5
260
100
AcDbEntity
  8
DEFAULT_2
100
AcDbLine
 62
8
  6
HIDDEN
 10
126.357346
 20
326.170219
 11
127.581011
 21
327.393884
  0
LINE
  5
261
100
AcDbEntity
  8
DEFAULT_2
100
AcDbLine
 62
8
  6
HIDDEN
 10
131.231011
 20
331.043884
 11
133.031011
 21
332.843884
  0
LINE
  5
262
100
AcDbEntity
  8
DEFAULT_2
100
AcDbLine
 62
8
  6
HIDDEN
 10
127.210345
 20
325.962558
 11
128.209669
 21
326.961882
  0
LINE
  5
263
100
AcDbEntity
  8
DEFAULT_2
100
AcDbLine
 62
8
  6
HIDDEN
 10
131.231011
 20
329.983224
 11
133.031011
 21
331.783224
  0
LINE
  5
264
100
AcDbEntity
  8
DEFAULT_2
100
AcDbLine
 62
8
  6
CONTINUOUS
 10
119.416056
 20
317.497468
 11
120.416056
 21
318.497468
  0
LINE
  5
265
100
AcDbEntity
  8
DEFAULT_2
100
AcDbLine
 62
8
  6
HIDDEN
 10
128.063343
 20
325.754896
 11
128.882101
 21
326.573654
  0
LINE
  5
266
100
AcDbEntity
  8
DEFAULT_2
100
AcDbLine
 62
8
  6
HIDDEN
 10
131.231011
 20
328.922564
 11
133.031011
 21
330.722564
  0
LINE
  5
267
100
AcDbEntity
  8
DEFAULT_2
100
AcDbLine
 62
8
  6
CONTINUOUS
 10
131.231011
 20
328.824838
 11
130.881011
 21
328.474838
  0
LINE
  5
268
100
AcDbEntity
  8
DEFAULT_2
100
AcDbLine
 62
8
  6
HIDDEN
 10
128.916342
 20
325.547234
 11
130.438409
 21
327.069302
  0
LINE
  5
269
100
AcDbEntity
  8
DEFAULT_2
100
AcDbLine
 62
8
  6
HIDDEN
 10
130.881011
 20
327.511904
 11
133.031011
 21
329.661904
  0
LINE
  5
26A
100
AcDbEntity
  8
DEFAULT_2
100
AcDbLine
 62
8
  6
HIDDEN
 10
129.901154
 20
325.471386
 11
133.031011
 21
328.601244
  0
LINE
  5
26B
100
AcDbEntity
  8
DEFAULT_2
100
AcDbLine
 62
8
  6
HIDDEN
 10
131.71349
 20
326.223063
 11
133.031011
 21
327.540584
  0
LINE
  5
26C
100
AcDbEntity
  8
DEFAULT_2
100
AcDbLine
 62
8
  6
HIDDEN
 10
138.6386121112
 20
305.139805247
 11
139.2260897309
 21
305.7267104878
  0
LINE
  5
26D
100
AcDbEntity
  8
DEFAULT_2
100
AcDbLine
 62
8
  6
HIDDEN
 10
138.5209464376
 20
304.8455646608
 11
139.4774981211
 21
305.8011827494
  0
LINE
  5
26E
100
AcDbEntity
  8
DEFAULT_2
100
AcDbLine
 62
8
  6
HIDDEN
 10
138.4841782319
 20
304.632141587
 11
139.6557638263
 21
305.8025837134
  0
LINE
  5
26F
100
AcDbEntity
  8
DEFAULT_2
100
AcDbLine
 62
8
  6
HIDDEN
 10
138.4860938993
 20
304.4573646309
 11
139.7933366783
 21
305.7633315404
  0
LINE
  5
270
100
AcDbEntity
  8
DEFAULT_2
100
AcDbLine
 62
8
  6
HIDDEN
 10
138.5156920725
 20
304.3102431624
 11
139.9033901046
 21
305.6965878002
  0
LINE
  5
271
100
AcDbEntity
  8
DEFAULT_2
100
AcDbLine
 62
8
  6
HIDDEN
 10
138.5658062555
 20
304.1836186796
 11
139.9909705662
 21
305.6073920294
  0
LINE
  5
272
100
AcDbEntity
  8
DEFAULT_2
100
AcDbLine
 62
8
  6
HIDDEN
 10
138.6360332512
 20
304.0770873794
 11
140.0562691569
 21
305.4959361348
  0
LINE
  5
273
100
AcDbEntity
  8
DEFAULT_2
100
AcDbLine
 62
8
  6
HIDDEN
 10
138.7284680807
 20
303.9927402391
 11
140.1023103528
 21
305.3652426402
  0
LINE
  5
274
100
AcDbEntity
  8
DEFAULT_2
100
AcDbLine
 62
8
  6
HIDDEN
 10
138.8439471541
 20
303.9314168505
 11
140.1263378082
 21
305.2125558908
  0
LINE
  5
275
100
AcDbEntity
  8
DEFAULT_2
100
AcDbLine
 62
8
  6
HIDDEN
 10
138.9892957997
 20
303.8999328819
 11
140.121310088
 21
305.0308423239
  0
LINE
  5
276
100
AcDbEntity
  8
DEFAULT_2
100
AcDbLine
 62
8
  6
HIDDEN
 10
139.1784768303
 20
303.912238518
 11
140.0715655514
 21
304.8044555841
  0
LINE
  5
277
100
AcDbEntity
  8
DEFAULT_2
100
AcDbLine
 62
8
  6
HIDDEN
 10
139.4655906405
 20
304.0223813511
 11
139.9173130278
 21
304.4736638567
  0
LINE
  5
278
100
AcDbEntity
  8
DEFAULT_2
100
AcDbLine
 62
8
  6
HIDDEN
 10
118.99653
 20
304.027379
 11
118.545028
 21
304.478882
  0
LINE
  5
279
100
AcDbEntity
  8
DEFAULT_2
100
AcDbLine
 62
8
  6
HIDDEN
 10
119.28359
 20
303.917096
 11
118.390937
 21
304.809749
  0
LINE
  5
27A
100
AcDbEntity
  8
DEFAULT_2
100
AcDbLine
 62
8
  6
HIDDEN
 10
119.472765
 20
303.904698
 11
118.341303
 21
305.03616
  0
LINE
  5
27B
100
AcDbEntity
  8
DEFAULT_2
100
AcDbLine
 62
8
  6
HIDDEN
 10
119.618129
 20
303.936111
 11
118.336364
 21
305.217876
  0
LINE
  5
27C
100
AcDbEntity
  8
DEFAULT_2
100
AcDbLine
 62
8
  6
HIDDEN
 10
119.733638
 20
303.997378
 11
118.360466
 21
305.370551
  0
LINE
  5
27D
100
AcDbEntity
  8
DEFAULT_2
100
AcDbLine
 62
8
  6
HIDDEN
 10
119.826114
 20
304.08168
 11
118.406571
 21
305.501222
  0
LINE
  5
27E
100
AcDbEntity
  8
DEFAULT_2
100
AcDbLine
 62
8
  6
HIDDEN
 10
119.896393
 20
304.188177
 11
118.471924
 21
305.612646
  0
LINE
  5
27F
100
AcDbEntity
  8
DEFAULT_2
100
AcDbLine
 62
8
  6
HIDDEN
 10
119.946569
 20
304.314777
 11
118.559548
 21
305.701799
  0
LINE
  5
280
100
AcDbEntity
  8
DEFAULT_2
100
AcDbLine
 62
8
  6
HIDDEN
 10
119.976239
 20
304.461884
 11
118.669634
 21
305.768489
  0
LINE
  5
281
100
AcDbEntity
  8
DEFAULT_2
100
AcDbLine
 62
8
  6
HIDDEN
 10
119.97824
 20
304.63666
 11
118.807226
 21
305.807674
  0
LINE
  5
282
100
AcDbEntity
  8
DEFAULT_2
100
AcDbLine
 62
8
  6
HIDDEN
 10
119.941576
 20
304.850101
 11
118.985491
 21
305.806186
  0
LINE
  5
283
100
AcDbEntity
  8
DEFAULT_2
100
AcDbLine
 62
8
  6
HIDDEN
 10
119.824054
 20
305.144399
 11
119.236863
 21
305.731591
  0
LINE
  5
284
100
AcDbEntity
  8
0
100
AcDbLine
 62
7
  6
CONTINUOUS
 10
246.2065409785
 20
314.5421390887
 11
246.1951292665
 21
314.7113640487
  0
LINE
  5
285
100
AcDbEntity
  8
0
100
AcDbLine
 62
7
  6
CONTINUOUS
 10
243.7330280185
 20
314.5421390887
 11
243.7442771705
 21
314.3748648487
  0
LINE
  5
286
100
AcDbEntity
  8
0
100
AcDbLine
 62
7
  6
CONTINUOUS
 10
243.8948727545
 20
314.3938193447
 11
243.8849565945
 21
314.5421390887
  0
LINE
  5
287
100
AcDbEntity
  8
0
100
AcDbLine
 62
7
  6
CONTINUOUS
 10
246.0446637305
 20
314.6904588327
 11
246.0545473785
 21
314.5421390887
  0
LINE
  5
288
100
AcDbEntity
  8
0
100
AcDbLine
 62
7
  6
CONTINUOUS
 10
241.2169893625
 20
315.7298349607
 11
241.2169893625
 21
313.3451772967
  0
LINE
  5
289
100
AcDbEntity
  8
0
100
AcDbLine
 62
7
  6
CONTINUOUS
 10
241.3597495545
 20
313.3451772967
 11
241.3597495545
 21
314.4077995047
  0
LINE
  5
28A
100
AcDbEntity
  8
0
100
AcDbLine
 62
7
  6
CONTINUOUS
 10
241.3597495545
 20
314.6285884967
 11
241.3597495545
 21
315.7298349607
  0
LINE
  5
28B
100
AcDbEntity
  8
0
100
AcDbLine
 62
7
  6
CONTINUOUS
 10
247.2586943225
 20
315.7298349607
 11
247.2586943225
 21
313.3451772967
  0
LINE
  5
28C
100
AcDbEntity
  8
0
100
AcDbLine
 62
7
  6
CONTINUOUS
 10
247.2970259705
 20
314.5713998887
 11
247.2970259705
 21
314.7150379047
  0
LINE
  5
28D
100
AcDbEntity
  8
0
100
AcDbLine
 62
7
  6
CONTINUOUS
 10
247.4014220025
 20
314.7150379047
 11
247.4014220025
 21
314.5713998887
  0
LINE
  5
28E
100
AcDbEntity
  8
0
100
AcDbLine
 62
7
  6
CONTINUOUS
 10
247.4014220025
 20
313.3451772967
 11
247.4014220025
 21
314.5713998887
  0
LINE
  5
28F
100
AcDbEntity
  8
0
100
AcDbLine
 62
7
  6
CONTINUOUS
 10
247.4014220025
 20
314.7150379047
 11
247.4014220025
 21
315.7298349607
  0
LINE
  5
290
100
AcDbEntity
  8
0
100
AcDbLine
 62
7
  6
CONTINUOUS
 10
243.7442771705
 20
314.7113640487
 11
243.7330280185
 21
314.5421390887
  0
LINE
  5
291
100
AcDbEntity
  8
0
100
AcDbLine
 62
7
  6
CONTINUOUS
 10
246.0545473785
 20
314.5421390887
 11
246.0446637305
 21
314.3938193447
  0
LINE
  5
292
100
AcDbEntity
  8
0
100
AcDbLine
 62
7
  6
CONTINUOUS
 10
243.8849565945
 20
314.5421390887
 11
243.8948727545
 21
314.6904588327
  0
LINE
  5
293
100
AcDbEntity
  8
0
100
AcDbLine
 62
7
  6
CONTINUOUS
 10
246.1951292665
 20
314.3748648487
 11
246.2065409785
 21
314.5421390887
  0
LINE
  5
294
100
AcDbEntity
  8
0
100
AcDbLine
 62
7
  6
CONTINUOUS
 10
243.7771142905
 20
314.8735664167
 11
243.7442771705
 21
314.7113640487
  0
LINE
  5
295
100
AcDbEntity
  8
0
100
AcDbLine
 62
7
  6
CONTINUOUS
 10
246.0446637305
 20
314.3938193447
 11
246.0158580985
 21
314.2516118567
  0
LINE
  5
296
100
AcDbEntity
  8
0
100
AcDbLine
 62
7
  6
CONTINUOUS
 10
243.8948727545
 20
314.6904588327
 11
243.9237759225
 21
314.8326988327
  0
LINE
  5
297
100
AcDbEntity
  8
0
100
AcDbLine
 62
7
  6
CONTINUOUS
 10
246.1618369785
 20
314.2139304487
 11
246.1951292665
 21
314.3748648487
  0
LINE
  5
298
100
AcDbEntity
  8
0
100
AcDbLine
 62
7
  6
CONTINUOUS
 10
243.8300113145
 20
315.0273156647
 11
243.7771142905
 21
314.8735664167
  0
LINE
  5
299
100
AcDbEntity
  8
0
100
AcDbLine
 62
7
  6
CONTINUOUS
 10
243.9237759225
 20
314.8326988327
 11
243.9703005945
 21
314.9674935847
  0
LINE
  5
29A
100
AcDbEntity
  8
0
100
AcDbLine
 62
7
  6
CONTINUOUS
 10
257.0854138105
 20
315.1354180647
 11
257.0820325625
 21
315.1831131687
  0
LINE
  5
29B
100
AcDbEntity
  8
0
100
AcDbLine
 62
7
  6
CONTINUOUS
 10
256.9270803705
 20
315.1848037927
 11
256.9309167865
 21
315.1040764967
  0
LINE
  5
29C
100
AcDbEntity
  8
0
100
AcDbLine
 62
7
  6
CONTINUOUS
 10
257.0860965625
 20
315.1022558247
 11
257.0854138105
 21
315.1354180647
  0
LINE
  5
29D
100
AcDbEntity
  8
0
100
AcDbLine
 62
7
  6
CONTINUOUS
 10
248.8635191545
 20
315.7298349607
 11
248.8635191545
 21
314.7150379047
  0
LINE
  5
29E
100
AcDbEntity
  8
0
100
AcDbLine
 62
7
  6
CONTINUOUS
 10
248.8635191545
 20
314.5713998887
 11
248.8635191545
 21
313.3451772967
  0
LINE
  5
29F
100
AcDbEntity
  8
0
100
AcDbLine
 62
7
  6
CONTINUOUS
 10
248.8635191545
 20
314.5713998887
 11
248.8635191545
 21
314.7150379047
  0
LINE
  5
2A0
100
AcDbEntity
  8
0
100
AcDbLine
 62
7
  6
CONTINUOUS
 10
248.9526345465
 20
314.7150379047
 11
248.9526345465
 21
314.5713998887
  0
LINE
  5
2A1
100
AcDbEntity
  8
0
100
AcDbLine
 62
7
  6
CONTINUOUS
 10
249.0062468345
 20
313.3451772967
 11
249.0062468345
 21
315.7298349607
  0
LINE
  5
2A2
100
AcDbEntity
  8
0
100
AcDbLine
 62
7
  6
CONTINUOUS
 10
250.3604041465
 20
315.7298349607
 11
250.3604041465
 21
313.3451772967
  0
LINE
  5
2A3
100
AcDbEntity
  8
0
100
AcDbLine
 62
7
  6
CONTINUOUS
 10
250.4357669625
 20
313.3451772967
 11
250.4357669625
 21
313.4887502887
  0
LINE
  5
2A4
100
AcDbEntity
  8
0
100
AcDbLine
 62
7
  6
CONTINUOUS
 10
250.5064668604
 20
313.4887502887
 11
250.5064805625
 21
313.3451772967
  0
LINE
  5
2A5
100
AcDbEntity
  8
0
100
AcDbLine
 62
7
  6
CONTINUOUS
 10
250.5064668604
 20
313.4887502887
 11
250.5062529785
 21
315.7298349607
  0
LINE
  5
2A6
100
AcDbEntity
  8
0
100
AcDbLine
 62
7
  6
CONTINUOUS
 10
251.9579137785
 20
313.3451772967
 11
251.9579137785
 21
313.4887502887
  0
LINE
  5
2A7
100
AcDbEntity
  8
0
100
AcDbLine
 62
7
  6
CONTINUOUS
 10
252.8420125945
 20
315.7298349607
 11
252.8420125945
 21
313.3451772967
  0
LINE
  5
2A8
100
AcDbEntity
  8
0
100
AcDbLine
 62
7
  6
CONTINUOUS
 10
252.9187084025
 20
313.3451772967
 11
252.9187084025
 21
313.4887502887
  0
LINE
  5
2A9
100
AcDbEntity
  8
0
100
AcDbLine
 62
7
  6
CONTINUOUS
 10
252.9187084025
 20
314.5713998887
 11
252.9187084025
 21
314.7243363367
  0
LINE
  5
2AA
100
AcDbEntity
  8
0
100
AcDbLine
 62
7
  6
CONTINUOUS
 10
252.9187084025
 20
315.5861969447
 11
252.9187084025
 21
315.7298349607
  0
LINE
  5
2AB
100
AcDbEntity
  8
0
100
AcDbLine
 62
7
  6
CONTINUOUS
 10
252.9847727865
 20
315.7298349607
 11
252.9847727865
 21
315.5861969447
  0
LINE
  5
2AC
100
AcDbEntity
  8
0
100
AcDbLine
 62
7
  6
CONTINUOUS
 10
252.9847727865
 20
314.7243363367
 11
252.9847727865
 21
314.5713998887
  0
LINE
  5
2AD
100
AcDbEntity
  8
0
100
AcDbLine
 62
7
  6
CONTINUOUS
 10
252.9847727865
 20
313.4887502887
 11
252.9847727865
 21
313.3451772967
  0
LINE
  5
2AE
100
AcDbEntity
  8
0
100
AcDbLine
 62
7
  6
CONTINUOUS
 10
252.9847727865
 20
313.4887502887
 11
252.9847727865
 21
314.5713998887
  0
LINE
  5
2AF
100
AcDbEntity
  8
0
100
AcDbLine
 62
7
  6
CONTINUOUS
 10
252.9847727865
 20
314.7243363367
 11
252.9847727865
 21
315.5861969447
  0
LINE
  5
2B0
100
AcDbEntity
  8
0
100
AcDbLine
 62
7
  6
CONTINUOUS
 10
254.4025560825
 20
313.3451772967
 11
254.4025560825
 21
313.4887502887
  0
LINE
  5
2B1
100
AcDbEntity
  8
0
100
AcDbLine
 62
7
  6
CONTINUOUS
 10
254.4025560825
 20
314.5713998887
 11
254.4025560825
 21
314.7243363367
  0
LINE
  5
2B2
100
AcDbEntity
  8
0
100
AcDbLine
 62
7
  6
CONTINUOUS
 10
254.4025560825
 20
315.5861969447
 11
254.4025560825
 21
315.7298349607
  0
LINE
  5
2B3
100
AcDbEntity
  8
0
100
AcDbLine
 62
7
  6
CONTINUOUS
 10
255.5058508025
 20
315.7298349607
 11
255.5058508025
 21
313.3451772967
  0
LINE
  5
2B4
100
AcDbEntity
  8
0
100
AcDbLine
 62
7
  6
CONTINUOUS
 10
255.6484809465
 20
313.3451772967
 11
255.6484809465
 21
314.4650206247
  0
LINE
  5
2B5
100
AcDbEntity
  8
0
100
AcDbLine
 62
7
  6
CONTINUOUS
 10
255.6484809465
 20
314.6285884967
 11
255.6484809465
 21
315.5954953767
  0
LINE
  5
2B6
100
AcDbEntity
  8
0
100
AcDbLine
 62
7
  6
CONTINUOUS
 10
257.0851212025
 20
315.0613557287
 11
257.0860965625
 21
315.1022558247
  0
LINE
  5
2B7
100
AcDbEntity
  8
0
100
AcDbLine
 62
7
  6
CONTINUOUS
 10
256.9309167865
 20
315.1040764967
 11
256.9270803705
 21
315.0278683687
  0
LINE
  5
2B8
100
AcDbEntity
  8
0
100
AcDbLine
 62
7
  6
CONTINUOUS
 10
257.0809271545
 20
315.0094015527
 11
257.0851212025
 21
315.0613557287
  0
LINE
  5
2B9
100
AcDbEntity
  8
0
100
AcDbLine
 62
7
  6
CONTINUOUS
 10
257.0717262585
 20
314.9491568167
 11
257.0809271545
 21
315.0094015527
  0
LINE
  5
2BA
100
AcDbEntity
  8
0
100
AcDbLine
 62
7
  6
CONTINUOUS
 10
256.9270803705
 20
315.0278683687
 11
256.9156361465
 21
314.9583577127
  0
LINE
  5
2BB
100
AcDbEntity
  8
0
100
AcDbLine
 62
7
  6
CONTINUOUS
 10
257.0556978425
 20
314.8834175527
 11
257.0717262585
 21
314.9491568167
  0
LINE
  5
2BC
100
AcDbEntity
  8
0
100
AcDbLine
 62
7
  6
CONTINUOUS
 10
256.9156361465
 20
314.9583577127
 11
256.8966816505
 21
314.8955120167
  0
LINE
  5
2BD
100
AcDbEntity
  8
0
100
AcDbLine
 62
7
  6
CONTINUOUS
 10
246.0158580985
 20
314.2516118567
 11
245.9694309625
 21
314.1167845927
  0
LINE
  5
2BE
100
AcDbEntity
  8
0
100
AcDbLine
 62
7
  6
CONTINUOUS
 10
246.1082572025
 20
314.0608964647
 11
246.1618369785
 21
314.2139304487
  0
LINE
  5
2BF
100
AcDbEntity
  8
0
100
AcDbLine
 62
7
  6
CONTINUOUS
 10
257.0309887225
 20
314.8149797927
 11
257.0556978425
 21
314.8834175527
  0
LINE
  5
2C0
100
AcDbEntity
  8
0
100
AcDbLine
 62
7
  6
CONTINUOUS
 10
256.8966816505
 20
314.8955120167
 11
256.8702493945
 21
314.8393637927
  0
LINE
  5
2C1
100
AcDbEntity
  8
0
100
AcDbLine
 62
7
  6
CONTINUOUS
 10
243.9015702265
 20
315.1710837287
 11
243.8300113145
 21
315.0273156647
  0
LINE
  5
2C2
100
AcDbEntity
  8
0
100
AcDbLine
 62
7
  6
CONTINUOUS
 10
245.9694309625
 20
314.1167845927
 11
245.9066177785
 21
313.9906705447
  0
LINE
  5
2C3
100
AcDbEntity
  8
0
100
AcDbLine
 62
7
  6
CONTINUOUS
 10
243.9703005945
 20
314.9674935847
 11
244.0332113145
 21
315.0936076327
  0
LINE
  5
2C4
100
AcDbEntity
  8
0
100
AcDbLine
 62
7
  6
CONTINUOUS
 10
246.0359505145
 20
313.9173234727
 11
246.1082572025
 21
314.0608964647
  0
LINE
  5
2C5
100
AcDbEntity
  8
0
100
AcDbLine
 62
7
  6
CONTINUOUS
 10
256.9958107385
 20
314.7466070567
 11
257.0309887225
 21
314.8149797927
  0
LINE
  5
2C6
100
AcDbEntity
  8
0
100
AcDbLine
 62
7
  6
CONTINUOUS
 10
243.9902954745
 20
315.3034725927
 11
243.9015702265
 21
315.1710837287
  0
LINE
  5
2C7
100
AcDbEntity
  8
0
100
AcDbLine
 62
7
  6
CONTINUOUS
 10
245.9066177785
 20
313.9906705447
 11
245.8287840505
 21
313.8745701927
  0
LINE
  5
2C8
100
AcDbEntity
  8
0
100
AcDbLine
 62
7
  6
CONTINUOUS
 10
244.0332113145
 20
315.0936076327
 11
244.1111750905
 21
315.2097404967
  0
LINE
  5
2C9
100
AcDbEntity
  8
0
100
AcDbLine
 62
7
  6
CONTINUOUS
 10
245.9464774905
 20
313.7847720487
 11
246.0359505145
 21
313.9173234727
  0
LINE
  5
2CA
100
AcDbEntity
  8
0
100
AcDbLine
 62
7
  6
CONTINUOUS
 10
256.8702493945
 20
314.8393637927
 11
256.8364694265
 21
314.7898480167
  0
LINE
  5
2CB
100
AcDbEntity
  8
0
100
AcDbLine
 62
7
  6
CONTINUOUS
 10
256.9483432185
 20
314.6811278887
 11
256.9958107385
 21
314.7466070567
  0
LINE
  5
2CC
100
AcDbEntity
  8
0
100
AcDbLine
 62
7
  6
CONTINUOUS
 10
244.0947240185
 20
315.4229541927
 11
243.9902954745
 21
315.3034725927
  0
LINE
  5
2CD
100
AcDbEntity
  8
0
100
AcDbLine
 62
7
  6
CONTINUOUS
 10
244.1111750905
 20
315.2097404967
 11
244.2029239545
 21
315.3145591847
  0
LINE
  5
2CE
100
AcDbEntity
  8
0
100
AcDbLine
 62
7
  6
CONTINUOUS
 10
246.1082572025
 20
315.0273156647
 11
246.0359505145
 21
315.1710837287
  0
LINE
  5
2CF
100
AcDbEntity
  8
0
100
AcDbLine
 62
7
  6
CONTINUOUS
 10
244.0332113145
 20
313.9906705447
 11
243.9703005945
 21
314.1167845927
  0
LINE
  5
2D0
100
AcDbEntity
  8
0
100
AcDbLine
 62
7
  6
CONTINUOUS
 10
243.8300113145
 20
314.0608964647
 11
243.9015702265
 21
313.9173234727
  0
LINE
  5
2D1
100
AcDbEntity
  8
0
100
AcDbLine
 62
7
  6
CONTINUOUS
 10
245.9066177785
 20
315.0936076327
 11
245.9694309625
 21
314.9674935847
  0
LINE
  5
2D2
100
AcDbEntity
  8
0
100
AcDbLine
 62
7
  6
CONTINUOUS
 10
246.1618369785
 20
314.8735664167
 11
246.1082572025
 21
315.0273156647
  0
LINE
  5
2D3
100
AcDbEntity
  8
0
100
AcDbLine
 62
7
  6
CONTINUOUS
 10
243.7771142905
 20
314.2139304487
 11
243.8300113145
 21
314.0608964647
  0
LINE
  5
2D4
100
AcDbEntity
  8
0
100
AcDbLine
 62
7
  6
CONTINUOUS
 10
243.9703005945
 20
314.1167845927
 11
243.9237759225
 21
314.2516118567
  0
LINE
  5
2D5
100
AcDbEntity
  8
0
100
AcDbLine
 62
7
  6
CONTINUOUS
 10
245.9694309625
 20
314.9674935847
 11
246.0158580985
 21
314.8326988327
  0
LINE
  5
2D6
100
AcDbEntity
  8
0
100
AcDbLine
 62
7
  6
CONTINUOUS
 10
257.0597943545
 20
315.3089671207
 11
257.0371009785
 21
315.3804284967
  0
LINE
  5
2D7
100
AcDbEntity
  8
0
100
AcDbLine
 62
7
  6
CONTINUOUS
 10
256.8966816505
 20
315.3235650087
 11
256.9156361465
 21
315.2579232807
  0
LINE
  5
2D8
100
AcDbEntity
  8
0
100
AcDbLine
 62
7
  6
CONTINUOUS
 10
257.0741321465
 20
315.2420899367
 11
257.0597943545
 21
315.3089671207
  0
LINE
  5
2D9
100
AcDbEntity
  8
0
100
AcDbLine
 62
7
  6
CONTINUOUS
 10
246.1951292665
 20
314.7113640487
 11
246.1618369785
 21
314.8735664167
  0
LINE
  5
2DA
100
AcDbEntity
  8
0
100
AcDbLine
 62
7
  6
CONTINUOUS
 10
243.7442771705
 20
314.3748648487
 11
243.7771142905
 21
314.2139304487
  0
LINE
  5
2DB
100
AcDbEntity
  8
0
100
AcDbLine
 62
7
  6
CONTINUOUS
 10
243.9237759225
 20
314.2516118567
 11
243.8948727545
 21
314.3938193447
  0
LINE
  5
2DC
100
AcDbEntity
  8
0
100
AcDbLine
 62
7
  6
CONTINUOUS
 10
246.0158580985
 20
314.8326988327
 11
246.0446637305
 21
314.6904588327
  0
LINE
  5
2DD
100
AcDbEntity
  8
0
100
AcDbLine
 62
7
  6
CONTINUOUS
 10
256.9156361465
 20
315.2579232807
 11
256.9270803705
 21
315.1848037927
  0
LINE
  5
2DE
100
AcDbEntity
  8
0
100
AcDbLine
 62
7
  6
CONTINUOUS
 10
257.0820325625
 20
315.1831131687
 11
257.0741321465
 21
315.2420899367
  0
LINE
  5
2DF
100
AcDbEntity
  8
0
100
AcDbLine
 62
7
  6
CONTINUOUS
 10
245.8287840505
 20
313.8745701927
 11
245.7371327225
 21
313.7697515047
  0
LINE
  5
2E0
100
AcDbEntity
  8
0
100
AcDbLine
 62
7
  6
CONTINUOUS
 10
245.8413661945
 20
313.6648352807
 11
245.9464774905
 21
313.7847720487
  0
LINE
  5
2E1
100
AcDbEntity
  8
0
100
AcDbLine
 62
7
  6
CONTINUOUS
 10
256.8364694265
 20
314.7898480167
 11
256.7954067705
 21
314.7469972007
  0
LINE
  5
2E2
100
AcDbEntity
  8
0
100
AcDbLine
 62
7
  6
CONTINUOUS
 10
256.8867654905
 20
314.6213058087
 11
256.9483432185
 21
314.6811278887
  0
LINE
  5
2E3
100
AcDbEntity
  8
0
100
AcDbLine
 62
7
  6
CONTINUOUS
 10
245.7221772025
 20
313.5590412327
 11
245.8413661945
 21
313.6648352807
  0
LINE
  5
2E4
100
AcDbEntity
  8
0
100
AcDbLine
 62
7
  6
CONTINUOUS
 10
245.7371327225
 20
313.7697515047
 11
245.6329967865
 21
313.6774824487
  0
LINE
  5
2E5
100
AcDbEntity
  8
0
100
AcDbLine
 62
7
  6
CONTINUOUS
 10
244.2134253305
 20
315.5280654887
 11
244.0947240185
 21
315.4229541927
  0
LINE
  5
2E6
100
AcDbEntity
  8
0
100
AcDbLine
 62
7
  6
CONTINUOUS
 10
244.2029239545
 20
315.3145591847
 11
244.3071249145
 21
315.4067957287
  0
LINE
  5
2E7
100
AcDbEntity
  8
0
100
AcDbLine
 62
7
  6
CONTINUOUS
 10
241.4606017785
 20
314.5132034087
 11
243.1487548665
 21
315.7298349607
  0
LINE
  5
2E8
100
AcDbEntity
  8
0
100
AcDbLine
 62
7
  6
CONTINUOUS
 10
242.9294939385
 20
315.7298349607
 11
241.3597495545
 21
314.6285884967
  0
LINE
  5
2E9
100
AcDbEntity
  8
0
100
AcDbLine
 62
7
  6
CONTINUOUS
 10
244.3071249145
 20
315.4067957287
 11
244.4225100025
 21
315.4851821607
  0
LINE
  5
2EA
100
AcDbEntity
  8
0
100
AcDbLine
 62
7
  6
CONTINUOUS
 10
244.3449363705
 20
315.6173759527
 11
244.2134253305
 21
315.5280654887
  0
LINE
  5
2EB
100
AcDbEntity
  8
0
100
AcDbLine
 62
7
  6
CONTINUOUS
 10
245.9464774905
 20
315.3034725927
 11
245.8413661945
 21
315.4229541927
  0
LINE
  5
2EC
100
AcDbEntity
  8
0
100
AcDbLine
 62
7
  6
CONTINUOUS
 10
244.2029239545
 20
313.7697515047
 11
244.1111750905
 21
313.8745701927
  0
LINE
  5
2ED
100
AcDbEntity
  8
0
100
AcDbLine
 62
7
  6
CONTINUOUS
 10
245.7371327225
 20
315.3145591847
 11
245.8287840505
 21
315.2097404967
  0
LINE
  5
2EE
100
AcDbEntity
  8
0
100
AcDbLine
 62
7
  6
CONTINUOUS
 10
243.9902954745
 20
313.7847720487
 11
244.0947240185
 21
313.6648352807
  0
LINE
  5
2EF
100
AcDbEntity
  8
0
100
AcDbLine
 62
7
  6
CONTINUOUS
 10
246.0359505145
 20
315.1710837287
 11
245.9464774905
 21
315.3034725927
  0
LINE
  5
2F0
100
AcDbEntity
  8
0
100
AcDbLine
 62
7
  6
CONTINUOUS
 10
244.1111750905
 20
313.8745701927
 11
244.0332113145
 21
313.9906705447
  0
LINE
  5
2F1
100
AcDbEntity
  8
0
100
AcDbLine
 62
7
  6
CONTINUOUS
 10
245.8287840505
 20
315.2097404967
 11
245.9066177785
 21
315.0936076327
  0
LINE
  5
2F2
100
AcDbEntity
  8
0
100
AcDbLine
 62
7
  6
CONTINUOUS
 10
243.9015702265
 20
313.9173234727
 11
243.9902954745
 21
313.7847720487
  0
LINE
  5
2F3
100
AcDbEntity
  8
0
100
AcDbLine
 62
7
  6
CONTINUOUS
 10
256.8364694265
 20
315.4328053287
 11
256.8702493945
 21
315.3817940007
  0
LINE
  5
2F4
100
AcDbEntity
  8
0
100
AcDbLine
 62
7
  6
CONTINUOUS
 10
257.0041988345
 20
315.4531903527
 11
256.9591697145
 21
315.5238389287
  0
LINE
  5
2F5
100
AcDbEntity
  8
0
100
AcDbLine
 62
7
  6
CONTINUOUS
 10
256.8702493945
 20
315.3817940007
 11
256.8966816505
 21
315.3235650087
  0
LINE
  5
2F6
100
AcDbEntity
  8
0
100
AcDbLine
 62
7
  6
CONTINUOUS
 10
257.0371009785
 20
315.3804284967
 11
257.0041988345
 21
315.4531903527
  0
LINE
  5
2F7
100
AcDbEntity
  8
0
100
AcDbLine
 62
7
  6
CONTINUOUS
 10
256.7954067705
 20
314.7469972007
 11
256.7471264505
 21
314.7107463207
  0
LINE
  5
2F8
100
AcDbEntity
  8
0
100
AcDbLine
 62
7
  6
CONTINUOUS
 10
245.5905036025
 20
313.4689829927
 11
245.7221772025
 21
313.5590412327
  0
LINE
  5
2F9
100
AcDbEntity
  8
0
100
AcDbLine
 62
7
  6
CONTINUOUS
 10
245.6329967865
 20
313.6774824487
 11
245.5176442105
 21
313.5990960167
  0
LINE
  5
2FA
100
AcDbEntity
  8
0
100
AcDbLine
 62
7
  6
CONTINUOUS
 10
256.8092568825
 20
314.5699043367
 11
256.8867654905
 21
314.6213058087
  0
LINE
  5
2FB
100
AcDbEntity
  8
0
100
AcDbLine
 62
7
  6
CONTINUOUS
 10
256.7471264505
 20
314.7107463207
 11
256.6917260025
 21
314.6811278887
  0
LINE
  5
2FC
100
AcDbEntity
  8
0
100
AcDbLine
 62
7
  6
CONTINUOUS
 10
245.4478409466
 20
313.3961886247
 11
245.5905036025
 21
313.4689829927
  0
LINE
  5
2FD
100
AcDbEntity
  8
0
100
AcDbLine
 62
7
  6
CONTINUOUS
 10
244.4225100025
 20
315.4851821607
 11
244.5477462265
 21
315.5483854887
  0
LINE
  5
2FE
100
AcDbEntity
  8
0
100
AcDbLine
 62
7
  6
CONTINUOUS
 10
244.4877615865
 20
315.6893900327
 11
244.3449363705
 21
315.6173759527
  0
LINE
  5
2FF
100
AcDbEntity
  8
0
100
AcDbLine
 62
7
  6
CONTINUOUS
 10
245.5176442105
 20
313.5990960167
 11
245.3923429625
 21
313.5358926887
  0
LINE
  5
300
100
AcDbEntity
  8
0
100
AcDbLine
 62
7
  6
CONTINUOUS
 10
243.2148192505
 20
313.3451772967
 11
241.4828399865
 21
314.4976626727
  0
LINE
  5
301
100
AcDbEntity
  8
0
100
AcDbLine
 62
7
  6
CONTINUOUS
 10
244.4225100025
 20
313.5990960167
 11
244.3071249145
 21
313.6774824487
  0
LINE
  5
302
100
AcDbEntity
  8
0
100
AcDbLine
 62
7
  6
CONTINUOUS
 10
244.2134253305
 20
313.5590412327
 11
244.3449363705
 21
313.4689829927
  0
LINE
  5
303
100
AcDbEntity
  8
0
100
AcDbLine
 62
7
  6
CONTINUOUS
 10
241.4828399865
 20
314.4976626727
 11
241.4606017785
 21
314.5132034087
  0
LINE
  5
304
100
AcDbEntity
  8
0
100
AcDbLine
 62
7
  6
CONTINUOUS
 10
257.3882305785
 20
313.3451772967
 11
255.8679044345
 21
314.4942814247
  0
LINE
  5
305
100
AcDbEntity
  8
0
100
AcDbLine
 62
7
  6
CONTINUOUS
 10
256.7471264505
 20
315.5134025767
 11
256.7954067705
 21
315.4766315047
  0
LINE
  5
306
100
AcDbEntity
  8
0
100
AcDbLine
 62
7
  6
CONTINUOUS
 10
245.8413661945
 20
315.4229541927
 11
245.7221772025
 21
315.5280654887
  0
LINE
  5
307
100
AcDbEntity
  8
0
100
AcDbLine
 62
7
  6
CONTINUOUS
 10
244.3071249145
 20
313.6774824487
 11
244.2029239545
 21
313.7697515047
  0
LINE
  5
308
100
AcDbEntity
  8
0
100
AcDbLine
 62
7
  6
CONTINUOUS
 10
245.6329967865
 20
315.4067957287
 11
245.7371327225
 21
315.3145591847
  0
LINE
  5
309
100
AcDbEntity
  8
0
100
AcDbLine
 62
7
  6
CONTINUOUS
 10
244.0947240185
 20
313.6648352807
 11
244.2134253305
 21
313.5590412327
  0
LINE
  5
30A
100
AcDbEntity
  8
0
100
AcDbLine
 62
7
  6
CONTINUOUS
 10
256.7954067705
 20
315.4766315047
 11
256.8364694265
 21
315.4328053287
  0
LINE
  5
30B
100
AcDbEntity
  8
0
100
AcDbLine
 62
7
  6
CONTINUOUS
 10
256.9591697145
 20
315.5238389287
 11
256.9001604345
 21
315.5891230247
  0
LINE
  5
30C
100
AcDbEntity
  8
0
100
AcDbLine
 62
7
  6
CONTINUOUS
 10
256.7139642105
 20
314.5297520167
 11
256.8092568825
 21
314.5699043367
  0
LINE
  5
30D
100
AcDbEntity
  8
0
100
AcDbLine
 62
7
  6
CONTINUOUS
 10
256.6917260025
 20
314.6811278887
 11
256.6292379385
 21
314.6581093927
  0
LINE
  5
30E
100
AcDbEntity
  8
0
100
AcDbLine
 62
7
  6
CONTINUOUS
 10
245.2958148345
 20
313.3422837287
 11
245.4478409466
 21
313.3961886247
  0
LINE
  5
30F
100
AcDbEntity
  8
0
100
AcDbLine
 62
7
  6
CONTINUOUS
 10
244.5477462265
 20
315.5483854887
 11
244.6815656185
 21
315.5951377447
  0
LINE
  5
310
100
AcDbEntity
  8
0
100
AcDbLine
 62
7
  6
CONTINUOUS
 10
245.3923429625
 20
313.5358926887
 11
245.2584260345
 21
313.4891404327
  0
LINE
  5
311
100
AcDbEntity
  8
0
100
AcDbLine
 62
7
  6
CONTINUOUS
 10
244.6405029625
 20
315.7426772007
 11
244.4877615865
 21
315.6893900327
  0
LINE
  5
312
100
AcDbEntity
  8
0
100
AcDbLine
 62
7
  6
CONTINUOUS
 10
245.3923429625
 20
315.5483854887
 11
245.5176442105
 21
315.4851821607
  0
LINE
  5
313
100
AcDbEntity
  8
0
100
AcDbLine
 62
7
  6
CONTINUOUS
 10
244.5477462265
 20
313.5358926887
 11
244.4225100025
 21
313.5990960167
  0
LINE
  5
314
100
AcDbEntity
  8
0
100
AcDbLine
 62
7
  6
CONTINUOUS
 10
245.5905036025
 20
315.6173759527
 11
245.4478409465
 21
315.6893900327
  0
LINE
  5
315
100
AcDbEntity
  8
0
100
AcDbLine
 62
7
  6
CONTINUOUS
 10
244.3449363705
 20
313.4689829927
 11
244.4877615865
 21
313.3961886247
  0
LINE
  5
316
100
AcDbEntity
  8
0
100
AcDbLine
 62
7
  6
CONTINUOUS
 10
256.6917260025
 20
315.5432485927
 11
256.7471264505
 21
315.5134025767
  0
LINE
  5
317
100
AcDbEntity
  8
0
100
AcDbLine
 62
7
  6
CONTINUOUS
 10
241.3597495545
 20
314.4077995047
 11
242.9862924025
 21
313.3451772967
  0
LINE
  5
318
100
AcDbEntity
  8
0
100
AcDbLine
 62
7
  6
CONTINUOUS
 10
245.7221772025
 20
315.5280654887
 11
245.5905036025
 21
315.6173759527
  0
LINE
  5
319
100
AcDbEntity
  8
0
100
AcDbLine
 62
7
  6
CONTINUOUS
 10
245.5176442105
 20
315.4851821607
 11
245.6329967865
 21
315.4067957287
  0
LINE
  5
31A
100
AcDbEntity
  8
0
100
AcDbLine
 62
7
  6
CONTINUOUS
 10
255.6484809465
 20
314.4650206247
 11
257.1614593785
 21
313.3451772967
  0
LINE
  5
31B
100
AcDbEntity
  8
0
100
AcDbLine
 62
7
  6
CONTINUOUS
 10
256.9001604345
 20
315.5891230247
 11
256.8252527865
 21
315.6456939047
  0
LINE
  5
31C
100
AcDbEntity
  8
0
100
AcDbLine
 62
7
  6
CONTINUOUS
 10
245.2584260345
 20
315.5951377447
 11
245.3923429625
 21
315.5483854887
  0
LINE
  5
31D
100
AcDbEntity
  8
0
100
AcDbLine
 62
7
  6
CONTINUOUS
 10
244.6815656185
 20
313.4891404327
 11
244.5477462265
 21
313.5358926887
  0
LINE
  5
31E
100
AcDbEntity
  8
0
100
AcDbLine
 62
7
  6
CONTINUOUS
 10
245.4478409465
 20
315.6893900327
 11
245.2958148345
 21
315.7426772007
  0
LINE
  5
31F
100
AcDbEntity
  8
0
100
AcDbLine
 62
7
  6
CONTINUOUS
 10
244.4877615865
 20
313.3961886247
 11
244.6405029625
 21
313.3422837287
  0
LINE
  5
320
100
AcDbEntity
  8
0
100
AcDbLine
 62
7
  6
CONTINUOUS
 10
256.6292379385
 20
315.5662670887
 11
256.6917260025
 21
315.5432485927
  0
LINE
  5
321
100
AcDbEntity
  8
0
100
AcDbLine
 62
7
  6
CONTINUOUS
 10
256.8252527865
 20
315.6456939047
 11
256.7325610745
 21
315.6902028327
  0
LINE
  5
322
100
AcDbEntity
  8
0
100
AcDbLine
 62
7
  6
CONTINUOUS
 10
256.4835191545
 20
315.5922766887
 11
256.5598248185
 21
315.5825881127
  0
LINE
  5
323
100
AcDbEntity
  8
0
100
AcDbLine
 62
7
  6
CONTINUOUS
 10
245.1171288825
 20
315.6241384487
 11
245.2584260345
 21
315.5951377447
  0
LINE
  5
324
100
AcDbEntity
  8
0
100
AcDbLine
 62
7
  6
CONTINUOUS
 10
244.8226676985
 20
313.4601397287
 11
244.6815656185
 21
313.4891404327
  0
LINE
  5
325
100
AcDbEntity
  8
0
100
AcDbLine
 62
7
  6
CONTINUOUS
 10
245.2958148345
 20
315.7426772007
 11
245.1359208185
 21
315.7757093927
  0
LINE
  5
326
100
AcDbEntity
  8
0
100
AcDbLine
 62
7
  6
CONTINUOUS
 10
244.6405029625
 20
313.3422837287
 11
244.8016324345
 21
313.3087638567
  0
LINE
  5
327
100
AcDbEntity
  8
0
100
AcDbLine
 62
7
  6
CONTINUOUS
 10
256.5598248185
 20
315.5825881127
 11
256.6292379385
 21
315.5662670887
  0
LINE
  5
328
100
AcDbEntity
  8
0
100
AcDbLine
 62
7
  6
CONTINUOUS
 10
256.7325610745
 20
315.6902028327
 11
256.6201996025
 21
315.7193660967
  0
LINE
  5
329
100
AcDbEntity
  8
0
100
AcDbLine
 62
7
  6
CONTINUOUS
 10
244.9697519865
 20
313.2972546087
 11
245.1359208185
 21
313.3087638567
  0
LINE
  5
32A
100
AcDbEntity
  8
0
100
AcDbLine
 62
7
  6
CONTINUOUS
 10
256.4628740345
 20
314.4942814247
 11
256.5991318265
 21
314.5036123687
  0
LINE
  5
32B
100
AcDbEntity
  8
0
100
AcDbLine
 62
7
  6
CONTINUOUS
 10
244.8226676985
 20
315.6241384487
 11
244.9697519865
 21
315.6340871207
  0
LINE
  5
32C
100
AcDbEntity
  8
0
100
AcDbLine
 62
7
  6
CONTINUOUS
 10
245.1171288825
 20
313.4601397287
 11
244.9697519865
 21
313.4501910567
  0
LINE
  5
32D
100
AcDbEntity
  8
0
100
AcDbLine
 62
7
  6
CONTINUOUS
 10
244.9697519865
 20
315.7870235687
 11
244.8016324345
 21
315.7757093927
  0
LINE
  5
32E
100
AcDbEntity
  8
0
100
AcDbLine
 62
7
  6
CONTINUOUS
 10
256.4835191545
 20
314.6318396967
 11
256.4003859705
 21
314.6285884967
  0
LINE
  5
32F
100
AcDbEntity
  8
0
100
AcDbLine
 62
7
  6
CONTINUOUS
 10
241.2169893625
 20
313.3451772967
 11
241.3597495545
 21
313.3451772967
  0
LINE
  5
330
100
AcDbEntity
  8
0
100
AcDbLine
 62
7
  6
CONTINUOUS
 10
242.9862924025
 20
313.3451772967
 11
243.2148192505
 21
313.3451772967
  0
LINE
  5
331
100
AcDbEntity
  8
0
100
AcDbLine
 62
7
  6
CONTINUOUS
 10
247.2586943225
 20
313.3451772967
 11
247.4014220025
 21
313.3451772967
  0
LINE
  5
332
100
AcDbEntity
  8
0
100
AcDbLine
 62
7
  6
CONTINUOUS
 10
248.8635191545
 20
313.3451772967
 11
249.0062468345
 21
313.3451772967
  0
LINE
  5
333
100
AcDbEntity
  8
0
100
AcDbLine
 62
7
  6
CONTINUOUS
 10
250.3604041465
 20
313.3451772967
 11
250.4357669625
 21
313.3451772967
  0
LINE
  5
334
100
AcDbEntity
  8
0
100
AcDbLine
 62
7
  6
CONTINUOUS
 10
250.5064805625
 20
313.3451772967
 11
251.9579137785
 21
313.3451772967
  0
LINE
  5
335
100
AcDbEntity
  8
0
100
AcDbLine
 62
7
  6
CONTINUOUS
 10
252.9847727865
 20
313.3451772967
 11
254.4025560825
 21
313.3451772967
  0
LINE
  5
336
100
AcDbEntity
  8
0
100
AcDbLine
 62
7
  6
CONTINUOUS
 10
252.8420125945
 20
313.3451772967
 11
252.9187084025
 21
313.3451772967
  0
LINE
  5
337
100
AcDbEntity
  8
0
100
AcDbLine
 62
7
  6
CONTINUOUS
 10
255.5058508025
 20
313.3451772967
 11
255.6484809465
 21
313.3451772967
  0
LINE
  5
338
100
AcDbEntity
  8
0
100
AcDbLine
 62
7
  6
CONTINUOUS
 10
257.1614593785
 20
313.3451772967
 11
257.3882305785
 21
313.3451772967
  0
LINE
  5
339
100
AcDbEntity
  8
0
100
AcDbLine
 62
7
  6
CONTINUOUS
 10
254.4025560825
 20
313.4887502887
 11
252.9847727865
 21
313.4887502887
  0
LINE
  5
33A
100
AcDbEntity
  8
0
100
AcDbLine
 62
7
  6
CONTINUOUS
 10
251.9579137785
 20
313.4887502887
 11
250.5064668604
 21
313.4887502887
  0
LINE
  5
33B
100
AcDbEntity
  8
0
100
AcDbLine
 62
7
  6
CONTINUOUS
 10
250.4357669625
 20
313.4887502887
 11
250.5064668604
 21
313.4887502887
  0
LINE
  5
33C
100
AcDbEntity
  8
0
100
AcDbLine
 62
7
  6
CONTINUOUS
 10
252.9187084025
 20
313.4887502887
 11
252.9847727865
 21
313.4887502887
  0
LINE
  5
33D
100
AcDbEntity
  8
0
100
AcDbLine
 62
7
  6
CONTINUOUS
 10
255.8679044345
 20
314.4942814247
 11
256.4628740345
 21
314.4942814247
  0
LINE
  5
33E
100
AcDbEntity
  8
0
100
AcDbLine
 62
7
  6
CONTINUOUS
 10
252.9847727865
 20
314.5713998887
 11
252.9187084025
 21
314.5713998887
  0
LINE
  5
33F
100
AcDbEntity
  8
0
100
AcDbLine
 62
7
  6
CONTINUOUS
 10
248.9526345465
 20
314.5713998887
 11
248.8635191545
 21
314.5713998887
  0
LINE
  5
340
100
AcDbEntity
  8
0
100
AcDbLine
 62
7
  6
CONTINUOUS
 10
247.4014220025
 20
314.5713998887
 11
247.2970259705
 21
314.5713998887
  0
LINE
  5
341
100
AcDbEntity
  8
0
100
AcDbLine
 62
7
  6
CONTINUOUS
 10
247.4014220025
 20
314.5713998887
 11
248.8635191545
 21
314.5713998887
  0
LINE
  5
342
100
AcDbEntity
  8
0
100
AcDbLine
 62
7
  6
CONTINUOUS
 10
252.9847727865
 20
314.5713998887
 11
254.4025560825
 21
314.5713998887
  0
LINE
  5
343
100
AcDbEntity
  8
0
100
AcDbLine
 62
7
  6
CONTINUOUS
 10
256.3356220665
 20
314.6285884967
 11
256.2621124345
 21
314.6285884967
  0
LINE
  5
344
100
AcDbEntity
  8
0
100
AcDbLine
 62
7
  6
CONTINUOUS
 10
256.2621124345
 20
314.6285884967
 11
256.1825555705
 21
314.6285884967
  0
LINE
  5
345
100
AcDbEntity
  8
0
100
AcDbLine
 62
7
  6
CONTINUOUS
 10
256.1825555705
 20
314.6285884967
 11
256.0997475065
 21
314.6285884967
  0
LINE
  5
346
100
AcDbEntity
  8
0
100
AcDbLine
 62
7
  6
CONTINUOUS
 10
256.0997475065
 20
314.6285884967
 11
256.0163867385
 21
314.6285884967
  0
LINE
  5
347
100
AcDbEntity
  8
0
100
AcDbLine
 62
7
  6
CONTINUOUS
 10
256.0163867385
 20
314.6285884967
 11
255.9352367865
 21
314.6285884967
  0
LINE
  5
348
100
AcDbEntity
  8
0
100
AcDbLine
 62
7
  6
CONTINUOUS
 10
255.9352367865
 20
314.6285884967
 11
255.8590611705
 21
314.6285884967
  0
LINE
  5
349
100
AcDbEntity
  8
0
100
AcDbLine
 62
7
  6
CONTINUOUS
 10
255.8590611705
 20
314.6285884967
 11
255.7905583865
 21
314.6285884967
  0
LINE
  5
34A
100
AcDbEntity
  8
0
100
AcDbLine
 62
7
  6
CONTINUOUS
 10
255.7905583865
 20
314.6285884967
 11
255.7325244665
 21
314.6285884967
  0
LINE
  5
34B
100
AcDbEntity
  8
0
100
AcDbLine
 62
7
  6
CONTINUOUS
 10
255.7325244665
 20
314.6285884967
 11
255.6876579065
 21
314.6285884967
  0
LINE
  5
34C
100
AcDbEntity
  8
0
100
AcDbLine
 62
7
  6
CONTINUOUS
 10
256.4003859705
 20
314.6285884967
 11
256.3356220665
 21
314.6285884967
  0
LINE
  5
34D
100
AcDbEntity
  8
0
100
AcDbLine
 62
7
  6
CONTINUOUS
 10
255.6876579065
 20
314.6285884967
 11
255.6587547385
 21
314.6285884967
  0
LINE
  5
34E
100
AcDbEntity
  8
0
100
AcDbLine
 62
7
  6
CONTINUOUS
 10
255.6587547385
 20
314.6285884967
 11
255.6484809465
 21
314.6285884967
  0
LINE
  5
34F
100
AcDbEntity
  8
0
100
AcDbLine
 62
7
  6
CONTINUOUS
 10
248.8635191545
 20
314.7150379047
 11
247.4014220025
 21
314.7150379047
  0
LINE
  5
350
100
AcDbEntity
  8
0
100
AcDbLine
 62
7
  6
CONTINUOUS
 10
247.2970259705
 20
314.7150379047
 11
247.4014220025
 21
314.7150379047
  0
LINE
  5
351
100
AcDbEntity
  8
0
100
AcDbLine
 62
7
  6
CONTINUOUS
 10
248.8635191545
 20
314.7150379047
 11
248.9526345465
 21
314.7150379047
  0
LINE
  5
352
100
AcDbEntity
  8
0
100
AcDbLine
 62
7
  6
CONTINUOUS
 10
254.4025560825
 20
314.7243363367
 11
252.9847727865
 21
314.7243363367
  0
LINE
  5
353
100
AcDbEntity
  8
0
100
AcDbLine
 62
7
  6
CONTINUOUS
 10
252.9187084025
 20
314.7243363367
 11
252.9847727865
 21
314.7243363367
  0
LINE
  5
354
100
AcDbEntity
  8
0
100
AcDbLine
 62
7
  6
CONTINUOUS
 10
252.9847727865
 20
315.5861969447
 11
252.9187084025
 21
315.5861969447
  0
LINE
  5
355
100
AcDbEntity
  8
0
100
AcDbLine
 62
7
  6
CONTINUOUS
 10
252.9847727865
 20
315.5861969447
 11
254.4025560825
 21
315.5861969447
  0
LINE
  5
356
100
AcDbEntity
  8
0
100
AcDbLine
 62
7
  6
CONTINUOUS
 10
255.6484809465
 20
315.5954953767
 11
256.4003859705
 21
315.5954953767
  0
LINE
  5
357
100
AcDbEntity
  8
0
100
AcDbLine
 62
7
  6
CONTINUOUS
 10
256.4862501625
 20
315.7298349607
 11
255.5058508025
 21
315.7298349607
  0
LINE
  5
358
100
AcDbEntity
  8
0
100
AcDbLine
 62
7
  6
CONTINUOUS
 10
252.9187084025
 20
315.7298349607
 11
252.8420125945
 21
315.7298349607
  0
LINE
  5
359
100
AcDbEntity
  8
0
100
AcDbLine
 62
7
  6
CONTINUOUS
 10
254.4025560825
 20
315.7298349607
 11
252.9847727865
 21
315.7298349607
  0
LINE
  5
35A
100
AcDbEntity
  8
0
100
AcDbLine
 62
7
  6
CONTINUOUS
 10
250.5062529785
 20
315.7298349607
 11
250.3604041465
 21
315.7298349607
  0
LINE
  5
35B
100
AcDbEntity
  8
0
100
AcDbLine
 62
7
  6
CONTINUOUS
 10
249.0062468345
 20
315.7298349607
 11
248.8635191545
 21
315.7298349607
  0
LINE
  5
35C
100
AcDbEntity
  8
0
100
AcDbLine
 62
7
  6
CONTINUOUS
 10
247.4014220025
 20
315.7298349607
 11
247.2586943225
 21
315.7298349607
  0
LINE
  5
35D
100
AcDbEntity
  8
0
100
AcDbLine
 62
7
  6
CONTINUOUS
 10
243.1487548665
 20
315.7298349607
 11
242.9294939385
 21
315.7298349607
  0
LINE
  5
35E
100
AcDbEntity
  8
0
100
AcDbLine
 62
7
  6
CONTINUOUS
 10
241.3597495545
 20
315.7298349607
 11
241.2169893625
 21
315.7298349607
  0
LINE
  5
35F
100
AcDbEntity
  8
0
100
AcDbLine
 62
7
  6
CONTINUOUS
 10
256.4003859705
 20
315.5954953767
 11
256.4835191545
 21
315.5922766887
  0
LINE
  5
360
100
AcDbEntity
  8
0
100
AcDbLine
 62
7
  6
CONTINUOUS
 10
244.9697519865
 20
315.6340871207
 11
245.1171288825
 21
315.6241384487
  0
LINE
  5
361
100
AcDbEntity
  8
0
100
AcDbLine
 62
7
  6
CONTINUOUS
 10
244.9697519865
 20
313.4501910567
 11
244.8226676985
 21
313.4601397287
  0
LINE
  5
362
100
AcDbEntity
  8
0
100
AcDbLine
 62
7
  6
CONTINUOUS
 10
245.1359208185
 20
315.7757093927
 11
244.9697519865
 21
315.7870235687
  0
LINE
  5
363
100
AcDbEntity
  8
0
100
AcDbLine
 62
7
  6
CONTINUOUS
 10
244.8016324345
 20
313.3087638567
 11
244.9697519865
 21
313.2972546087
  0
LINE
  5
364
100
AcDbEntity
  8
0
100
AcDbLine
 62
7
  6
CONTINUOUS
 10
256.6201996025
 20
315.7193660967
 11
256.4862501625
 21
315.7298349607
  0
LINE
  5
365
100
AcDbEntity
  8
0
100
AcDbLine
 62
7
  6
CONTINUOUS
 10
256.6292379385
 20
314.6581093927
 11
256.5598248185
 21
314.6416908327
  0
LINE
  5
366
100
AcDbEntity
  8
0
100
AcDbLine
 62
7
  6
CONTINUOUS
 10
256.5991318265
 20
314.5036123687
 11
256.7139642105
 21
314.5297520167
  0
LINE
  5
367
100
AcDbEntity
  8
0
100
AcDbLine
 62
7
  6
CONTINUOUS
 10
245.1359208185
 20
313.3087638567
 11
245.2958148345
 21
313.3422837287
  0
LINE
  5
368
100
AcDbEntity
  8
0
100
AcDbLine
 62
7
  6
CONTINUOUS
 10
244.6815656185
 20
315.5951377447
 11
244.8226676985
 21
315.6241384487
  0
LINE
  5
369
100
AcDbEntity
  8
0
100
AcDbLine
 62
7
  6
CONTINUOUS
 10
245.2584260345
 20
313.4891404327
 11
245.1171288825
 21
313.4601397287
  0
LINE
  5
36A
100
AcDbEntity
  8
0
100
AcDbLine
 62
7
  6
CONTINUOUS
 10
244.8016324345
 20
315.7757093927
 11
244.6405029625
 21
315.7426772007
  0
LINE
  5
36B
100
AcDbEntity
  8
0
100
AcDbLine
 62
7
  6
CONTINUOUS
 10
256.5598248185
 20
314.6416908327
 11
256.4835191545
 21
314.6318396967
  0
HATCH
  5
36C
100
AcDbEntity
  8
0
100
AcDbHatch
 62
7
  6
CONTINUOUS
 10
0.0
 20
0.0
 30
0.0
210
0.0
220
0.0
230
1.0
  2
dxsec_0
 70
0
 71
1
 91
6
 92
1
 93
48
 72
1
 10
246.1951292665
 20
314.7113640487
 11
246.1618369785
 21
314.8735664167
 72
1
 10
246.1618369785
 20
314.8735664167
 11
246.1082572025
 21
315.0273156647
 72
1
 10
246.1082572025
 20
315.0273156647
 11
246.0359505145
 21
315.1710837287
 72
1
 10
246.0359505145
 20
315.1710837287
 11
245.9464774905
 21
315.3034725927
 72
1
 10
245.9464774905
 20
315.3034725927
 11
245.8413661945
 21
315.4229541927
 72
1
 10
245.8413661945
 20
315.4229541927
 11
245.7221772025
 21
315.5280654887
 72
1
 10
245.7221772025
 20
315.5280654887
 11
245.5905036025
 21
315.6173759527
 72
1
 10
245.5905036025
 20
315.6173759527
 11
245.4478409465
 21
315.6893900327
 72
1
 10
245.4478409465
 20
315.6893900327
 11
245.2958148345
 21
315.7426772007
 72
1
 10
245.2958148345
 20
315.7426772007
 11
245.1359208185
 21
315.7757093927
 72
1
 10
245.1359208185
 20
315.7757093927
 11
244.9697519865
 21
315.7870235687
 72
1
 10
244.9697519865
 20
315.7870235687
 11
244.8016324345
 21
315.7757093927
 72
1
 10
244.8016324345
 20
315.7757093927
 11
244.6405029625
 21
315.7426772007
 72
1
 10
244.6405029625
 20
315.7426772007
 11
244.4877615865
 21
315.6893900327
 72
1
 10
244.4877615865
 20
315.6893900327
 11
244.3449363705
 21
315.6173759527
 72
1
 10
244.3449363705
 20
315.6173759527
 11
244.2134253305
 21
315.5280654887
 72
1
 10
244.2134253305
 20
315.5280654887
 11
244.0947240185
 21
315.4229541927
 72
1
 10
244.0947240185
 20
315.4229541927
 11
243.9902954745
 21
315.3034725927
 72
1
 10
243.9902954745
 20
315.3034725927
 11
243.9015702265
 21
315.1710837287
 72
1
 10
243.9015702265
 20
315.1710837287
 11
243.8300113145
 21
315.0273156647
 72
1
 10
243.8300113145
 20
315.0273156647
 11
243.7771142905
 21
314.8735664167
 72
1
 10
243.7771142905
 20
314.8735664167
 11
243.7442771705
 21
314.7113640487
 72
1
 10
243.7442771705
 20
314.7113640487
 11
243.7330280185
 21
314.5421390887
 72
1
 10
243.7330280185
 20
314.5421390887
 11
243.7442771705
 21
314.3748648487
 72
1
 10
243.7442771705
 20
314.3748648487
 11
243.7771142905
 21
314.2139304487
 72
1
 10
243.7771142905
 20
314.2139304487
 11
243.8300113145
 21
314.0608964647
 72
1
 10
243.8300113145
 20
314.0608964647
 11
243.9015702265
 21
313.9173234727
 72
1
 10
243.9015702265
 20
313.9173234727
 11
243.9902954745
 21
313.7847720487
 72
1
 10
243.9902954745
 20
313.7847720487
 11
244.0947240185
 21
313.6648352807
 72
1
 10
244.0947240185
 20
313.6648352807
 11
244.2134253305
 21
313.5590412327
 72
1
 10
244.2134253305
 20
313.5590412327
 11
244.3449363705
 21
313.4689829927
 72
1
 10
244.3449363705
 20
313.4689829927
 11
244.4877615865
 21
313.3961886247
 72
1
 10
244.4877615865
 20
313.3961886247
 11
244.6405029625
 21
313.3422837287
 72
1
 10
244.6405029625
 20
313.3422837287
 11
244.8016324345
 21
313.3087638567
 72
1
 10
244.8016324345
 20
313.3087638567
 11
244.9697519865
 21
313.2972546087
 72
1
 10
244.9697519865
 20
313.2972546087
 11
245.1359208185
 21
313.3087638567
 72
1
 10
245.1359208185
 20
313.3087638567
 11
245.2958148345
 21
313.3422837287
 72
1
 10
245.2958148345
 20
313.3422837287
 11
245.4478409466
 21
313.3961886247
 72
1
 10
245.4478409466
 20
313.3961886247
 11
245.5905036025
 21
313.4689829927
 72
1
 10
245.5905036025
 20
313.4689829927
 11
245.7221772025
 21
313.5590412327
 72
1
 10
245.7221772025
 20
313.5590412327
 11
245.8413661945
 21
313.6648352807
 72
1
 10
245.8413661945
 20
313.6648352807
 11
245.9464774905
 21
313.7847720487
 72
1
 10
245.9464774905
 20
313.7847720487
 11
246.0359505145
 21
313.9173234727
 72
1
 10
246.0359505145
 20
313.9173234727
 11
246.1082572025
 21
314.0608964647
 72
1
 10
246.1082572025
 20
314.0608964647
 11
246.1618369785
 21
314.2139304487
 72
1
 10
246.1618369785
 20
314.2139304487
 11
246.1951292665
 21
314.3748648487
 72
1
 10
246.1951292665
 20
314.3748648487
 11
246.2065409785
 21
314.5421390887
 72
1
 10
246.2065409785
 20
314.5421390887
 11
246.1951292665
 21
314.7113640487
 97
232
330
284
330
285
330
286
330
287
330
288
330
289
330
28A
330
28B
330
28C
330
28D
330
28E
330
28F
330
290
330
291
330
292
330
293
330
294
330
295
330
296
330
297
330
298
330
299
330
29A
330
29B
330
29C
330
29D
330
29E
330
29F
330
2A0
330
2A1
330
2A2
330
2A3
330
2A4
330
2A5
330
2A6
330
2A7
330
2A8
330
2A9
330
2AA
330
2AB
330
2AC
330
2AD
330
2AE
330
2AF
330
2B0
330
2B1
330
2B2
330
2B3
330
2B4
330
2B5
330
2B6
330
2B7
330
2B8
330
2B9
330
2BA
330
2BB
330
2BC
330
2BD
330
2BE
330
2BF
330
2C0
330
2C1
330
2C2
330
2C3
330
2C4
330
2C5
330
2C6
330
2C7
330
2C8
330
2C9
330
2CA
330
2CB
330
2CC
330
2CD
330
2CE
330
2CF
330
2D0
330
2D1
330
2D2
330
2D3
330
2D4
330
2D5
330
2D6
330
2D7
330
2D8
330
2D9
330
2DA
330
2DB
330
2DC
330
2DD
330
2DE
330
2DF
330
2E0
330
2E1
330
2E2
330
2E3
330
2E4
330
2E5
330
2E6
330
2E7
330
2E8
330
2E9
330
2EA
330
2EB
330
2EC
330
2ED
330
2EE
330
2EF
330
2F0
330
2F1
330
2F2
330
2F3
330
2F4
330
2F5
330
2F6
330
2F7
330
2F8
330
2F9
330
2FA
330
2FB
330
2FC
330
2FD
330
2FE
330
2FF
330
300
330
301
330
302
330
303
330
304
330
305
330
306
330
307
330
308
330
309
330
30A
330
30B
330
30C
330
30D
330
30E
330
30F
330
310
330
311
330
312
330
313
330
314
330
315
330
316
330
317
330
318
330
319
330
31A
330
31B
330
31C
330
31D
330
31E
330
31F
330
320
330
321
330
322
330
323
330
324
330
325
330
326
330
327
330
328
330
329
330
32A
330
32B
330
32C
330
32D
330
32E
330
32F
330
330
330
331
330
332
330
333
330
334
330
335
330
336
330
337
330
338
330
339
330
33A
330
33B
330
33C
330
33D
330
33E
330
33F
330
340
330
341
330
342
330
343
330
344
330
345
330
346
330
347
330
348
330
349
330
34A
330
34B
330
34C
330
34D
330
34E
330
34F
330
350
330
351
330
352
330
353
330
354
330
355
330
356
330
357
330
358
330
359
330
35A
330
35B
330
35C
330
35D
330
35E
330
35F
330
360
330
361
330
362
330
363
330
364
330
365
330
366
330
367
330
368
330
369
330
36A
330
36B
 92
1
 93
48
 72
1
 10
243.8849565945
 20
314.5421390887
 11
243.8948727545
 21
314.6904588327
 72
1
 10
243.8948727545
 20
314.6904588327
 11
243.9237759225
 21
314.8326988327
 72
1
 10
243.9237759225
 20
314.8326988327
 11
243.9703005945
 21
314.9674935847
 72
1
 10
243.9703005945
 20
314.9674935847
 11
244.0332113145
 21
315.0936076327
 72
1
 10
244.0332113145
 20
315.0936076327
 11
244.1111750905
 21
315.2097404967
 72
1
 10
244.1111750905
 20
315.2097404967
 11
244.2029239545
 21
315.3145591847
 72
1
 10
244.2029239545
 20
315.3145591847
 11
244.3071249145
 21
315.4067957287
 72
1
 10
244.3071249145
 20
315.4067957287
 11
244.4225100025
 21
315.4851821607
 72
1
 10
244.4225100025
 20
315.4851821607
 11
244.5477462265
 21
315.5483854887
 72
1
 10
244.5477462265
 20
315.5483854887
 11
244.6815656185
 21
315.5951377447
 72
1
 10
244.6815656185
 20
315.5951377447
 11
244.8226676985
 21
315.6241384487
 72
1
 10
244.8226676985
 20
315.6241384487
 11
244.9697519865
 21
315.6340871207
 72
1
 10
244.9697519865
 20
315.6340871207
 11
245.1171288825
 21
315.6241384487
 72
1
 10
245.1171288825
 20
315.6241384487
 11
245.2584260345
 21
315.5951377447
 72
1
 10
245.2584260345
 20
315.5951377447
 11
245.3923429625
 21
315.5483854887
 72
1
 10
245.3923429625
 20
315.5483854887
 11
245.5176442105
 21
315.4851821607
 72
1
 10
245.5176442105
 20
315.4851821607
 11
245.6329967865
 21
315.4067957287
 72
1
 10
245.6329967865
 20
315.4067957287
 11
245.7371327225
 21
315.3145591847
 72
1
 10
245.7371327225
 20
315.3145591847
 11
245.8287840505
 21
315.2097404967
 72
1
 10
245.8287840505
 20
315.2097404967
 11
245.9066177785
 21
315.0936076327
 72
1
 10
245.9066177785
 20
315.0936076327
 11
245.9694309625
 21
314.9674935847
 72
1
 10
245.9694309625
 20
314.9674935847
 11
246.0158580985
 21
314.8326988327
 72
1
 10
246.0158580985
 20
314.8326988327
 11
246.0446637305
 21
314.6904588327
 72
1
 10
246.0446637305
 20
314.6904588327
 11
246.0545473785
 21
314.5421390887
 72
1
 10
246.0545473785
 20
314.5421390887
 11
246.0446637305
 21
314.3938193447
 72
1
 10
246.0446637305
 20
314.3938193447
 11
246.0158580985
 21
314.2516118567
 72
1
 10
246.0158580985
 20
314.2516118567
 11
245.9694309625
 21
314.1167845927
 72
1
 10
245.9694309625
 20
314.1167845927
 11
245.9066177785
 21
313.9906705447
 72
1
 10
245.9066177785
 20
313.9906705447
 11
245.8287840505
 21
313.8745701927
 72
1
 10
245.8287840505
 20
313.8745701927
 11
245.7371327225
 21
313.7697515047
 72
1
 10
245.7371327225
 20
313.7697515047
 11
245.6329967865
 21
313.6774824487
 72
1
 10
245.6329967865
 20
313.6774824487
 11
245.5176442105
 21
313.5990960167
 72
1
 10
245.5176442105
 20
313.5990960167
 11
245.3923429625
 21
313.5358926887
 72
1
 10
245.3923429625
 20
313.5358926887
 11
245.2584260345
 21
313.4891404327
 72
1
 10
245.2584260345
 20
313.4891404327
 11
245.1171288825
 21
313.4601397287
 72
1
 10
245.1171288825
 20
313.4601397287
 11
244.9697519865
 21
313.4501910567
 72
1
 10
244.9697519865
 20
313.4501910567
 11
244.8226676985
 21
313.4601397287
 72
1
 10
244.8226676985
 20
313.4601397287
 11
244.6815656185
 21
313.4891404327
 72
1
 10
244.6815656185
 20
313.4891404327
 11
244.5477462265
 21
313.5358926887
 72
1
 10
244.5477462265
 20
313.5358926887
 11
244.4225100025
 21
313.5990960167
 72
1
 10
244.4225100025
 20
313.5990960167
 11
244.3071249145
 21
313.6774824487
 72
1
 10
244.3071249145
 20
313.6774824487
 11
244.2029239545
 21
313.7697515047
 72
1
 10
244.2029239545
 20
313.7697515047
 11
244.1111750905
 21
313.8745701927
 72
1
 10
244.1111750905
 20
313.8745701927
 11
244.0332113145
 21
313.9906705447
 72
1
 10
244.0332113145
 20
313.9906705447
 11
243.9703005945
 21
314.1167845927
 72
1
 10
243.9703005945
 20
314.1167845927
 11
243.9237759225
 21
314.2516118567
 72
1
 10
243.9237759225
 20
314.2516118567
 11
243.8948727545
 21
314.3938193447
 72
1
 10
243.8948727545
 20
314.3938193447
 11
243.8849565945
 21
314.5421390887
 97
232
330
284
330
285
330
286
330
287
330
288
330
289
330
28A
330
28B
330
28C
330
28D
330
28E
330
28F
330
290
330
291
330
292
330
293
330
294
330
295
330
296
330
297
330
298
330
299
330
29A
330
29B
330
29C
330
29D
330
29E
330
29F
330
2A0
330
2A1
330
2A2
330
2A3
330
2A4
330
2A5
330
2A6
330
2A7
330
2A8
330
2A9
330
2AA
330
2AB
330
2AC
330
2AD
330
2AE
330
2AF
330
2B0
330
2B1
330
2B2
330
2B3
330
2B4
330
2B5
330
2B6
330
2B7
330
2B8
330
2B9
330
2BA
330
2BB
330
2BC
330
2BD
330
2BE
330
2BF
330
2C0
330
2C1
330
2C2
330
2C3
330
2C4
330
2C5
330
2C6
330
2C7
330
2C8
330
2C9
330
2CA
330
2CB
330
2CC
330
2CD
330
2CE
330
2CF
330
2D0
330
2D1
330
2D2
330
2D3
330
2D4
330
2D5
330
2D6
330
2D7
330
2D8
330
2D9
330
2DA
330
2DB
330
2DC
330
2DD
330
2DE
330
2DF
330
2E0
330
2E1
330
2E2
330
2E3
330
2E4
330
2E5
330
2E6
330
2E7
330
2E8
330
2E9
330
2EA
330
2EB
330
2EC
330
2ED
330
2EE
330
2EF
330
2F0
330
2F1
330
2F2
330
2F3
330
2F4
330
2F5
330
2F6
330
2F7
330
2F8
330
2F9
330
2FA
330
2FB
330
2FC
330
2FD
330
2FE
330
2FF
330
300
330
301
330
302
330
303
330
304
330
305
330
306
330
307
330
308
330
309
330
30A
330
30B
330
30C
330
30D
330
30E
330
30F
330
310
330
311
330
312
330
313
330
314
330
315
330
316
330
317
330
318
330
319
330
31A
330
31B
330
31C
330
31D
330
31E
330
31F
330
320
330
321
330
322
330
323
330
324
330
325
330
326
330
327
330
328
330
329
330
32A
330
32B
330
32C
330
32D
330
32E
330
32F
330
330
330
331
330
332
330
333
330
334
330
335
330
336
330
337
330
338
330
339
330
33A
330
33B
330
33C
330
33D
330
33E
330
33F
330
340
330
341
330
342
330
343
330
344
330
345
330
346
330
347
330
348
330
349
330
34A
330
34B
330
34C
330
34D
330
34E
330
34F
330
350
330
351
330
352
330
353
330
354
330
355
330
356
330
357
330
358
330
359
330
35A
330
35B
330
35C
330
35D
330
35E
330
35F
330
360
330
361
330
362
330
363
330
364
330
365
330
366
330
367
330
368
330
369
330
36A
330
36B
 92
1
 93
12
 72
1
 10
241.2169893625
 20
313.3451772967
 11
241.3597495545
 21
313.3451772967
 72
1
 10
241.3597495545
 20
313.3451772967
 11
241.3597495545
 21
314.4077995047
 72
1
 10
241.3597495545
 20
314.4077995047
 11
242.9862924025
 21
313.3451772967
 72
1
 10
242.9862924025
 20
313.3451772967
 11
243.2148192505
 21
313.3451772967
 72
1
 10
243.2148192505
 20
313.3451772967
 11
241.4828399865
 21
314.4976626727
 72
1
 10
241.4828399865
 20
314.4976626727
 11
241.4606017785
 21
314.5132034087
 72
1
 10
241.4606017785
 20
314.5132034087
 11
243.1487548665
 21
315.7298349607
 72
1
 10
243.1487548665
 20
315.7298349607
 11
242.9294939385
 21
315.7298349607
 72
1
 10
242.9294939385
 20
315.7298349607
 11
241.3597495545
 21
314.6285884967
 72
1
 10
241.3597495545
 20
314.6285884967
 11
241.3597495545
 21
315.7298349607
 72
1
 10
241.3597495545
 20
315.7298349607
 11
241.2169893625
 21
315.7298349607
 72
1
 10
241.2169893625
 20
315.7298349607
 11
241.2169893625
 21
313.3451772967
 97
232
330
284
330
285
330
286
330
287
330
288
330
289
330
28A
330
28B
330
28C
330
28D
330
28E
330
28F
330
290
330
291
330
292
330
293
330
294
330
295
330
296
330
297
330
298
330
299
330
29A
330
29B
330
29C
330
29D
330
29E
330
29F
330
2A0
330
2A1
330
2A2
330
2A3
330
2A4
330
2A5
330
2A6
330
2A7
330
2A8
330
2A9
330
2AA
330
2AB
330
2AC
330
2AD
330
2AE
330
2AF
330
2B0
330
2B1
330
2B2
330
2B3
330
2B4
330
2B5
330
2B6
330
2B7
330
2B8
330
2B9
330
2BA
330
2BB
330
2BC
330
2BD
330
2BE
330
2BF
330
2C0
330
2C1
330
2C2
330
2C3
330
2C4
330
2C5
330
2C6
330
2C7
330
2C8
330
2C9
330
2CA
330
2CB
330
2CC
330
2CD
330
2CE
330
2CF
330
2D0
330
2D1
330
2D2
330
2D3
330
2D4
330
2D5
330
2D6
330
2D7
330
2D8
330
2D9
330
2DA
330
2DB
330
2DC
330
2DD
330
2DE
330
2DF
330
2E0
330
2E1
330
2E2
330
2E3
330
2E4
330
2E5
330
2E6
330
2E7
330
2E8
330
2E9
330
2EA
330
2EB
330
2EC
330
2ED
330
2EE
330
2EF
330
2F0
330
2F1
330
2F2
330
2F3
330
2F4
330
2F5
330
2F6
330
2F7
330
2F8
330
2F9
330
2FA
330
2FB
330
2FC
330
2FD
330
2FE
330
2FF
330
300
330
301
330
302
330
303
330
304
330
305
330
306
330
307
330
308
330
309
330
30A
330
30B
330
30C
330
30D
330
30E
330
30F
330
310
330
311
330
312
330
313
330
314
330
315
330
316
330
317
330
318
330
319
330
31A
330
31B
330
31C
330
31D
330
31E
330
31F
330
320
330
321
330
322
330
323
330
324
330
325
330
326
330
327
330
328
330
329
330
32A
330
32B
330
32C
330
32D
330
32E
330
32F
330
330
330
331
330
332
330
333
330
334
330
335
330
336
330
337
330
338
330
339
330
33A
330
33B
330
33C
330
33D
330
33E
330
33F
330
340
330
341
330
342
330
343
330
344
330
345
330
346
330
347
330
348
330
349
330
34A
330
34B
330
34C
330
34D
330
34E
330
34F
330
350
330
351
330
352
330
353
330
354
330
355
330
356
330
357
330
358
330
359
330
35A
330
35B
330
35C
330
35D
330
35E
330
35F
330
360
330
361
330
362
330
363
330
364
330
365
330
366
330
367
330
368
330
369
330
36A
330
36B
 92
1
 93
32
 72
1
 10
257.0820325625
 20
315.1831131687
 11
257.0741321465
 21
315.2420899367
 72
1
 10
257.0741321465
 20
315.2420899367
 11
257.0597943545
 21
315.3089671207
 72
1
 10
257.0597943545
 20
315.3089671207
 11
257.0371009785
 21
315.3804284967
 72
1
 10
257.0371009785
 20
315.3804284967
 11
257.0041988345
 21
315.4531903527
 72
1
 10
257.0041988345
 20
315.4531903527
 11
256.9591697145
 21
315.5238389287
 72
1
 10
256.9591697145
 20
315.5238389287
 11
256.9001604345
 21
315.5891230247
 72
1
 10
256.9001604345
 20
315.5891230247
 11
256.8252527865
 21
315.6456939047
 72
1
 10
256.8252527865
 20
315.6456939047
 11
256.7325610745
 21
315.6902028327
 72
1
 10
256.7325610745
 20
315.6902028327
 11
256.6201996025
 21
315.7193660967
 72
1
 10
256.6201996025
 20
315.7193660967
 11
256.4862501625
 21
315.7298349607
 72
1
 10
256.4862501625
 20
315.7298349607
 11
255.5058508025
 21
315.7298349607
 72
1
 10
255.5058508025
 20
315.7298349607
 11
255.5058508025
 21
313.3451772967
 72
1
 10
255.5058508025
 20
313.3451772967
 11
255.6484809465
 21
313.3451772967
 72
1
 10
255.6484809465
 20
313.3451772967
 11
255.6484809465
 21
314.4650206247
 72
1
 10
255.6484809465
 20
314.4650206247
 11
257.1614593785
 21
313.3451772967
 72
1
 10
257.1614593785
 20
313.3451772967
 11
257.3882305785
 21
313.3451772967
 72
1
 10
257.3882305785
 20
313.3451772967
 11
255.8679044345
 21
314.4942814247
 72
1
 10
255.8679044345
 20
314.4942814247
 11
256.4628740345
 21
314.4942814247
 72
1
 10
256.4628740345
 20
314.4942814247
 11
256.5991318265
 21
314.5036123687
 72
1
 10
256.5991318265
 20
314.5036123687
 11
256.7139642105
 21
314.5297520167
 72
1
 10
256.7139642105
 20
314.5297520167
 11
256.8092568825
 21
314.5699043367
 72
1
 10
256.8092568825
 20
314.5699043367
 11
256.8867654905
 21
314.6213058087
 72
1
 10
256.8867654905
 20
314.6213058087
 11
256.9483432185
 21
314.6811278887
 72
1
 10
256.9483432185
 20
314.6811278887
 11
256.9958107385
 21
314.7466070567
 72
1
 10
256.9958107385
 20
314.7466070567
 11
257.0309887225
 21
314.8149797927
 72
1
 10
257.0309887225
 20
314.8149797927
 11
257.0556978425
 21
314.8834175527
 72
1
 10
257.0556978425
 20
314.8834175527
 11
257.0717262585
 21
314.9491568167
 72
1
 10
257.0717262585
 20
314.9491568167
 11
257.0809271545
 21
315.0094015527
 72
1
 10
257.0809271545
 20
315.0094015527
 11
257.0851212025
 21
315.0613557287
 72
1
 10
257.0851212025
 20
315.0613557287
 11
257.0860965625
 21
315.1022558247
 72
1
 10
257.0860965625
 20
315.1022558247
 11
257.0854138105
 21
315.1354180647
 72
1
 10
257.0854138105
 20
315.1354180647
 11
257.0820325625
 21
315.1831131687
 97
232
330
284
330
285
330
286
330
287
330
288
330
289
330
28A
330
28B
330
28C
330
28D
330
28E
330
28F
330
290
330
291
330
292
330
293
330
294
330
295
330
296
330
297
330
298
330
299
330
29A
330
29B
330
29C
330
29D
330
29E
330
29F
330
2A0
330
2A1
330
2A2
330
2A3
330
2A4
330
2A5
330
2A6
330
2A7
330
2A8
330
2A9
330
2AA
330
2AB
330
2AC
330
2AD
330
2AE
330
2AF
330
2B0
330
2B1
330
2B2
330
2B3
330
2B4
330
2B5
330
2B6
330
2B7
330
2B8
330
2B9
330
2BA
330
2BB
330
2BC
330
2BD
330
2BE
330
2BF
330
2C0
330
2C1
330
2C2
330
2C3
330
2C4
330
2C5
330
2C6
330
2C7
330
2C8
330
2C9
330
2CA
330
2CB
330
2CC
330
2CD
330
2CE
330
2CF
330
2D0
330
2D1
330
2D2
330
2D3
330
2D4
330
2D5
330
2D6
330
2D7
330
2D8
330
2D9
330
2DA
330
2DB
330
2DC
330
2DD
330
2DE
330
2DF
330
2E0
330
2E1
330
2E2
330
2E3
330
2E4
330
2E5
330
2E6
330
2E7
330
2E8
330
2E9
330
2EA
330
2EB
330
2EC
330
2ED
330
2EE
330
2EF
330
2F0
330
2F1
330
2F2
330
2F3
330
2F4
330
2F5
330
2F6
330
2F7
330
2F8
330
2F9
330
2FA
330
2FB
330
2FC
330
2FD
330
2FE
330
2FF
330
300
330
301
330
302
330
303
330
304
330
305
330
306
330
307
330
308
330
309
330
30A
330
30B
330
30C
330
30D
330
30E
330
30F
330
310
330
311
330
312
330
313
330
314
330
315
330
316
330
317
330
318
330
319
330
31A
330
31B
330
31C
330
31D
330
31E
330
31F
330
320
330
321
330
322
330
323
330
324
330
325
330
326
330
327
330
328
330
329
330
32A
330
32B
330
32C
330
32D
330
32E
330
32F
330
330
330
331
330
332
330
333
330
334
330
335
330
336
330
337
330
338
330
339
330
33A
330
33B
330
33C
330
33D
330
33E
330
33F
330
340
330
341
330
342
330
343
330
344
330
345
330
346
330
347
330
348
330
349
330
34A
330
34B
330
34C
330
34D
330
34E
330
34F
330
350
330
351
330
352
330
353
330
354
330
355
330
356
330
357
330
358
330
359
330
35A
330
35B
330
35C
330
35D
330
35E
330
35F
330
360
330
361
330
362
330
363
330
364
330
365
330
366
330
367
330
368
330
369
330
36A
330
36B
 92
1
 93
38
 72
1
 10
256.9309167865
 20
315.1040764967
 11
256.9270803705
 21
315.0278683687
 72
1
 10
256.9270803705
 20
315.0278683687
 11
256.9156361465
 21
314.9583577127
 72
1
 10
256.9156361465
 20
314.9583577127
 11
256.8966816505
 21
314.8955120167
 72
1
 10
256.8966816505
 20
314.8955120167
 11
256.8702493945
 21
314.8393637927
 72
1
 10
256.8702493945
 20
314.8393637927
 11
256.8364694265
 21
314.7898480167
 72
1
 10
256.8364694265
 20
314.7898480167
 11
256.7954067705
 21
314.7469972007
 72
1
 10
256.7954067705
 20
314.7469972007
 11
256.7471264505
 21
314.7107463207
 72
1
 10
256.7471264505
 20
314.7107463207
 11
256.6917260025
 21
314.6811278887
 72
1
 10
256.6917260025
 20
314.6811278887
 11
256.6292379385
 21
314.6581093927
 72
1
 10
256.6292379385
 20
314.6581093927
 11
256.5598248185
 21
314.6416908327
 72
1
 10
256.5598248185
 20
314.6416908327
 11
256.4835191545
 21
314.6318396967
 72
1
 10
256.4835191545
 20
314.6318396967
 11
256.4003859705
 21
314.6285884967
 72
1
 10
256.4003859705
 20
314.6285884967
 11
256.3356220665
 21
314.6285884967
 72
1
 10
256.3356220665
 20
314.6285884967
 11
256.2621124345
 21
314.6285884967
 72
1
 10
256.2621124345
 20
314.6285884967
 11
256.1825555705
 21
314.6285884967
 72
1
 10
256.1825555705
 20
314.6285884967
 11
256.0997475065
 21
314.6285884967
 72
1
 10
256.0997475065
 20
314.6285884967
 11
256.0163867385
 21
314.6285884967
 72
1
 10
256.0163867385
 20
314.6285884967
 11
255.9352367865
 21
314.6285884967
 72
1
 10
255.9352367865
 20
314.6285884967
 11
255.8590611705
 21
314.6285884967
 72
1
 10
255.8590611705
 20
314.6285884967
 11
255.7905583865
 21
314.6285884967
 72
1
 10
255.7905583865
 20
314.6285884967
 11
255.7325244665
 21
314.6285884967
 72
1
 10
255.7325244665
 20
314.6285884967
 11
255.6876579065
 21
314.6285884967
 72
1
 10
255.6876579065
 20
314.6285884967
 11
255.6587547385
 21
314.6285884967
 72
1
 10
255.6587547385
 20
314.6285884967
 11
255.6484809465
 21
314.6285884967
 72
1
 10
255.6484809465
 20
314.6285884967
 11
255.6484809465
 21
315.5954953767
 72
1
 10
255.6484809465
 20
315.5954953767
 11
256.4003859705
 21
315.5954953767
 72
1
 10
256.4003859705
 20
315.5954953767
 11
256.4835191545
 21
315.5922766887
 72
1
 10
256.4835191545
 20
315.5922766887
 11
256.5598248185
 21
315.5825881127
 72
1
 10
256.5598248185
 20
315.5825881127
 11
256.6292379385
 21
315.5662670887
 72
1
 10
256.6292379385
 20
315.5662670887
 11
256.6917260025
 21
315.5432485927
 72
1
 10
256.6917260025
 20
315.5432485927
 11
256.7471264505
 21
315.5134025767
 72
1
 10
256.7471264505
 20
315.5134025767
 11
256.7954067705
 21
315.4766315047
 72
1
 10
256.7954067705
 20
315.4766315047
 11
256.8364694265
 21
315.4328053287
 72
1
 10
256.8364694265
 20
315.4328053287
 11
256.8702493945
 21
315.3817940007
 72
1
 10
256.8702493945
 20
315.3817940007
 11
256.8966816505
 21
315.3235650087
 72
1
 10
256.8966816505
 20
315.3235650087
 11
256.9156361465
 21
315.2579232807
 72
1
 10
256.9156361465
 20
315.2579232807
 11
256.9270803705
 21
315.1848037927
 72
1
 10
256.9270803705
 20
315.1848037927
 11
256.9309167865
 21
315.1040764967
 97
232
330
284
330
285
330
286
330
287
330
288
330
289
330
28A
330
28B
330
28C
330
28D
330
28E
330
28F
330
290
330
291
330
292
330
293
330
294
330
295
330
296
330
297
330
298
330
299
330
29A
330
29B
330
29C
330
29D
330
29E
330
29F
330
2A0
330
2A1
330
2A2
330
2A3
330
2A4
330
2A5
330
2A6
330
2A7
330
2A8
330
2A9
330
2AA
330
2AB
330
2AC
330
2AD
330
2AE
330
2AF
330
2B0
330
2B1
330
2B2
330
2B3
330
2B4
330
2B5
330
2B6
330
2B7
330
2B8
330
2B9
330
2BA
330
2BB
330
2BC
330
2BD
330
2BE
330
2BF
330
2C0
330
2C1
330
2C2
330
2C3
330
2C4
330
2C5
330
2C6
330
2C7
330
2C8
330
2C9
330
2CA
330
2CB
330
2CC
330
2CD
330
2CE
330
2CF
330
2D0
330
2D1
330
2D2
330
2D3
330
2D4
330
2D5
330
2D6
330
2D7
330
2D8
330
2D9
330
2DA
330
2DB
330
2DC
330
2DD
330
2DE
330
2DF
330
2E0
330
2E1
330
2E2
330
2E3
330
2E4
330
2E5
330
2E6
330
2E7
330
2E8
330
2E9
330
2EA
330
2EB
330
2EC
330
2ED
330
2EE
330
2EF
330
2F0
330
2F1
330
2F2
330
2F3
330
2F4
330
2F5
330
2F6
330
2F7
330
2F8
330
2F9
330
2FA
330
2FB
330
2FC
330
2FD
330
2FE
330
2FF
330
300
330
301
330
302
330
303
330
304
330
305
330
306
330
307
330
308
330
309
330
30A
330
30B
330
30C
330
30D
330
30E
330
30F
330
310
330
311
330
312
330
313
330
314
330
315
330
316
330
317
330
318
330
319
330
31A
330
31B
330
31C
330
31D
330
31E
330
31F
330
320
330
321
330
322
330
323
330
324
330
325
330
326
330
327
330
328
330
329
330
32A
330
32B
330
32C
330
32D
330
32E
330
32F
330
330
330
331
330
332
330
333
330
334
330
335
330
336
330
337
330
338
330
339
330
33A
330
33B
330
33C
330
33D
330
33E
330
33F
330
340
330
341
330
342
330
343
330
344
330
345
330
346
330
347
330
348
330
349
330
34A
330
34B
330
34C
330
34D
330
34E
330
34F
330
350
330
351
330
352
330
353
330
354
330
355
330
356
330
357
330
358
330
359
330
35A
330
35B
330
35C
330
35D
330
35E
330
35F
330
360
330
361
330
362
330
363
330
364
330
365
330
366
330
367
330
368
330
369
330
36A
330
36B
 92
1
 93
4
 72
1
 10
252.9847727865
 20
313.3451772967
 11
254.4025560825
 21
313.3451772967
 72
1
 10
254.4025560825
 20
313.3451772967
 11
254.4025560825
 21
313.4887502887
 72
1
 10
254.4025560825
 20
313.4887502887
 11
252.9847727865
 21
313.4887502887
 72
1
 10
252.9847727865
 20
313.4887502887
 11
252.9847727865
 21
313.3451772967
 97
232
330
284
330
285
330
286
330
287
330
288
330
289
330
28A
330
28B
330
28C
330
28D
330
28E
330
28F
330
290
330
291
330
292
330
293
330
294
330
295
330
296
330
297
330
298
330
299
330
29A
330
29B
330
29C
330
29D
330
29E
330
29F
330
2A0
330
2A1
330
2A2
330
2A3
330
2A4
330
2A5
330
2A6
330
2A7
330
2A8
330
2A9
330
2AA
330
2AB
330
2AC
330
2AD
330
2AE
330
2AF
330
2B0
330
2B1
330
2B2
330
2B3
330
2B4
330
2B5
330
2B6
330
2B7
330
2B8
330
2B9
330
2BA
330
2BB
330
2BC
330
2BD
330
2BE
330
2BF
330
2C0
330
2C1
330
2C2
330
2C3
330
2C4
330
2C5
330
2C6
330
2C7
330
2C8
330
2C9
330
2CA
330
2CB
330
2CC
330
2CD
330
2CE
330
2CF
330
2D0
330
2D1
330
2D2
330
2D3
330
2D4
330
2D5
330
2D6
330
2D7
330
2D8
330
2D9
330
2DA
330
2DB
330
2DC
330
2DD
330
2DE
330
2DF
330
2E0
330
2E1
330
2E2
330
2E3
330
2E4
330
2E5
330
2E6
330
2E7
330
2E8
330
2E9
330
2EA
330
2EB
330
2EC
330
2ED
330
2EE
330
2EF
330
2F0
330
2F1
330
2F2
330
2F3
330
2F4
330
2F5
330
2F6
330
2F7
330
2F8
330
2F9
330
2FA
330
2FB
330
2FC
330
2FD
330
2FE
330
2FF
330
300
330
301
330
302
330
303
330
304
330
305
330
306
330
307
330
308
330
309
330
30A
330
30B
330
30C
330
30D
330
30E
330
30F
330
310
330
311
330
312
330
313
330
314
330
315
330
316
330
317
330
318
330
319
330
31A
330
31B
330
31C
330
31D
330
31E
330
31F
330
320
330
321
330
322
330
323
330
324
330
325
330
326
330
327
330
328
330
329
330
32A
330
32B
330
32C
330
32D
330
32E
330
32F
330
330
330
331
330
332
330
333
330
334
330
335
330
336
330
337
330
338
330
339
330
33A
330
33B
330
33C
330
33D
330
33E
330
33F
330
340
330
341
330
342
330
343
330
344
330
345
330
346
330
347
330
348
330
349
330
34A
330
34B
330
34C
330
34D
330
34E
330
34F
330
350
330
351
330
352
330
353
330
354
330
355
330
356
330
357
330
358
330
359
330
35A
330
35B
330
35C
330
35D
330
35E
330
35F
330
360
330
361
330
362
330
363
330
364
330
365
330
366
330
367
330
368
330
369
330
36A
330
36B
 75
0
 76
0
 52
45.0
 41
0.032
 77
0
 78
1
 53
45.0
 43
-679.4198967175
 44
679.4198967175
 45
-0.022627417
 46
0.022627417
 79
0
 98
1
 10
0.0
 20
0.0
  0
LINE
  5
36D
100
AcDbEntity
  8
0
100
AcDbLine
 62
7
  6
CONTINUOUS
 10
246.195129
 20
314.711364
 11
246.206541
 21
314.542139
  0
LINE
  5
36E
100
AcDbEntity
  8
0
100
AcDbLine
 62
7
  6
CONTINUOUS
 10
243.744277
 20
314.374865
 11
243.733028
 21
314.542139
  0
LINE
  5
36F
100
AcDbEntity
  8
0
100
AcDbLine
 62
7
  6
CONTINUOUS
 10
243.884957
 20
314.542139
 11
243.894873
 21
314.393819
  0
LINE
  5
370
100
AcDbEntity
  8
0
100
AcDbLine
 62
7
  6
CONTINUOUS
 10
246.054547
 20
314.542139
 11
246.044664
 21
314.690459
  0
LINE
  5
371
100
AcDbEntity
  8
0
100
AcDbLine
 62
7
  6
CONTINUOUS
 10
229.679817
 20
297.310084
 11
229.679817
 21
296.610084
  0
LINE
  5
372
100
AcDbEntity
  8
0
100
AcDbLine
 62
7
  6
CONTINUOUS
 10
234.230244
 20
297.325839
 11
234.230244
 21
296.596443
  0
LINE
  5
373
100
AcDbEntity
  8
0
100
AcDbLine
 62
2
  6
CONTINUOUS
 10
234.231011
 20
296.596446
 11
234.231011
 21
269.595753
  0
LINE
  5
374
100
AcDbEntity
  8
0
100
AcDbLine
 62
7
  6
CONTINUOUS
 10
235.230244
 20
297.325839
 11
235.230244
 21
296.596443
  0
LINE
  5
375
100
AcDbEntity
  8
0
100
AcDbLine
 62
7
  6
CONTINUOUS
 10
235.731011
 20
297.31852
 11
235.731011
 21
293.810348
  0
LINE
  5
376
100
AcDbEntity
  8
0
100
AcDbLine
 62
7
  6
CONTINUOUS
 10
238.916923
 20
293.812026
 11
238.916923
 21
269.595582
  0
LINE
  5
377
100
AcDbEntity
  8
0
100
AcDbLine
 62
2
  6
CONTINUOUS
 10
239.816923
 20
293.8125
 11
239.816923
 21
269.59555
  0
LINE
  5
378
100
AcDbEntity
  8
0
100
AcDbLine
 62
7
  6
CONTINUOUS
 10
241.216989
 20
315.729835
 11
241.216989
 21
313.345177
  0
LINE
  5
379
100
AcDbEntity
  8
0
100
AcDbLine
 62
7
  6
CONTINUOUS
 10
241.35975
 20
313.345177
 11
241.35975
 21
314.4078
  0
LINE
  5
37A
100
AcDbEntity
  8
0
100
AcDbLine
 62
7
  6
CONTINUOUS
 10
241.35975
 20
314.628588
 11
241.35975
 21
315.729835
  0
LINE
  5
37B
100
AcDbEntity
  8
0
100
AcDbLine
 62
7
  6
CONTINUOUS
 10
247.258694
 20
315.729835
 11
247.258694
 21
313.345177
  0
LINE
  5
37C
100
AcDbEntity
  8
0
100
AcDbLine
 62
7
  6
CONTINUOUS
 10
247.297026
 20
314.715038
 11
247.297026
 21
314.5714
  0
LINE
  5
37D
100
AcDbEntity
  8
0
100
AcDbLine
 62
7
  6
CONTINUOUS
 10
247.401422
 20
313.345177
 11
247.401422
 21
315.729835
  0
LINE
  5
37E
100
AcDbEntity
  8
0
100
AcDbLine
 62
7
  6
CONTINUOUS
 10
243.733028
 20
314.542139
 11
243.744277
 21
314.711364
  0
LINE
  5
37F
100
AcDbEntity
  8
0
100
AcDbLine
 62
7
  6
CONTINUOUS
 10
246.044664
 20
314.393819
 11
246.054547
 21
314.542139
  0
LINE
  5
380
100
AcDbEntity
  8
0
100
AcDbLine
 62
7
  6
CONTINUOUS
 10
226.231482
 20
303.319265
 11
233.74396
 21
416.005201
  0
LINE
  5
381
100
AcDbEntity
  8
0
100
AcDbLine
 62
7
  6
CONTINUOUS
 10
243.894873
 20
314.690459
 11
243.884957
 21
314.542139
  0
LINE
  5
382
100
AcDbEntity
  8
0
100
AcDbLine
 62
7
  6
CONTINUOUS
 10
246.206541
 20
314.542139
 11
246.195129
 21
314.374865
  0
LINE
  5
383
100
AcDbEntity
  8
0
100
AcDbLine
 62
7
  6
CONTINUOUS
 10
236.43154
 20
456.318465
 11
234.063959
 21
436.187396
  0
LINE
  5
384
100
AcDbEntity
  8
0
100
AcDbLine
 62
7
  6
CONTINUOUS
 10
243.744277
 20
314.711364
 11
243.777114
 21
314.873566
  0
LINE
  5
385
100
AcDbEntity
  8
0
100
AcDbLine
 62
7
  6
CONTINUOUS
 10
246.015858
 20
314.251612
 11
246.044664
 21
314.393819
  0
LINE
  5
386
100
AcDbEntity
  8
0
100
AcDbLine
 62
7
  6
CONTINUOUS
 10
243.923776
 20
314.832699
 11
243.894873
 21
314.690459
  0
LINE
  5
387
100
AcDbEntity
  8
0
100
AcDbLine
 62
7
  6
CONTINUOUS
 10
246.195129
 20
314.374865
 11
246.161837
 21
314.21393
  0
LINE
  5
388
100
AcDbEntity
  8
0
100
AcDbLine
 62
7
  6
CONTINUOUS
 10
243.777114
 20
314.873566
 11
243.830011
 21
315.027316
  0
LINE
  5
389
100
AcDbEntity
  8
0
100
AcDbLine
 62
7
  6
CONTINUOUS
 10
243.970301
 20
314.967494
 11
243.923776
 21
314.832699
  0
LINE
  5
38A
100
AcDbEntity
  8
DEFAULT_2
100
AcDbLine
 62
8
  6
CONTINUOUS
 10
127.231011
 20
328.824838
 11
127.581011
 21
328.474838
  0
LINE
  5
38B
100
AcDbEntity
  8
DEFAULT_2
100
AcDbLine
 62
8
  6
CONTINUOUS
 10
138.045966
 20
318.497468
 11
139.045966
 21
317.497468
  0
LINE
  5
38C
100
AcDbEntity
  8
DEFAULT_2
100
AcDbLine
 62
8
  6
CONTINUOUS
 10
132.031011
 20
336.324838
 11
133.031011
 21
335.324838
  0
LINE
  5
38D
100
AcDbEntity
  8
0
100
AcDbLine
 62
7
  6
CONTINUOUS
 10
257.082033
 20
315.183113
 11
257.085414
 21
315.135418
  0
LINE
  5
38E
100
AcDbEntity
  8
0
100
AcDbLine
 62
7
  6
CONTINUOUS
 10
272.231482
 20
303.315657
 11
264.718935
 21
416.005097
  0
LINE
  5
38F
100
AcDbEntity
  8
0
100
AcDbLine
 62
7
  6
CONTINUOUS
 10
256.930917
 20
315.104076
 11
256.92708
 21
315.184804
  0
LINE
  5
390
100
AcDbEntity
  8
0
100
AcDbLine
 62
7
  6
CONTINUOUS
 10
257.085414
 20
315.135418
 11
257.086097
 21
315.102256
  0
LINE
  5
391
100
AcDbEntity
  8
0
100
AcDbLine
 62
7
  6
CONTINUOUS
 10
248.863519
 20
315.729835
 11
248.863519
 21
313.345177
  0
LINE
  5
392
100
AcDbEntity
  8
0
100
AcDbLine
 62
7
  6
CONTINUOUS
 10
248.952635
 20
314.5714
 11
248.952635
 21
314.715038
  0
LINE
  5
393
100
AcDbEntity
  8
0
100
AcDbLine
 62
7
  6
CONTINUOUS
 10
249.006247
 20
313.345177
 11
249.006247
 21
315.729835
  0
LINE
  5
394
100
AcDbEntity
  8
0
100
AcDbLine
 62
7
  6
CONTINUOUS
 10
250.360404
 20
315.729835
 11
250.360404
 21
313.345177
  0
LINE
  5
395
100
AcDbEntity
  8
0
100
AcDbLine
 62
7
  6
CONTINUOUS
 10
250.435767
 20
313.48875
 11
250.435767
 21
313.345177
  0
LINE
  5
396
100
AcDbEntity
  8
0
100
AcDbLine
 62
7
  6
CONTINUOUS
 10
250.506481
 20
313.345177
 11
250.506253
 21
315.729835
  0
LINE
  5
397
100
AcDbEntity
  8
0
100
AcDbLine
 62
7
  6
CONTINUOUS
 10
251.957914
 20
313.345177
 11
251.957914
 21
313.48875
  0
LINE
  5
398
100
AcDbEntity
  8
0
100
AcDbLine
 62
7
  6
CONTINUOUS
 10
252.842013
 20
315.729835
 11
252.842013
 21
313.345177
  0
LINE
  5
399
100
AcDbEntity
  8
0
100
AcDbLine
 62
7
  6
CONTINUOUS
 10
252.918708
 20
315.729835
 11
252.918708
 21
315.586197
  0
LINE
  5
39A
100
AcDbEntity
  8
0
100
AcDbLine
 62
7
  6
CONTINUOUS
 10
252.918708
 20
314.724336
 11
252.918708
 21
314.5714
  0
LINE
  5
39B
100
AcDbEntity
  8
0
100
AcDbLine
 62
7
  6
CONTINUOUS
 10
252.918708
 20
313.48875
 11
252.918708
 21
313.345177
  0
LINE
  5
39C
100
AcDbEntity
  8
0
100
AcDbLine
 62
7
  6
CONTINUOUS
 10
252.984773
 20
313.345177
 11
252.984773
 21
315.729835
  0
LINE
  5
39D
100
AcDbEntity
  8
0
100
AcDbLine
 62
7
  6
CONTINUOUS
 10
254.402556
 20
313.345177
 11
254.402556
 21
313.48875
  0
LINE
  5
39E
100
AcDbEntity
  8
0
100
AcDbLine
 62
7
  6
CONTINUOUS
 10
254.402556
 20
314.5714
 11
254.402556
 21
314.724336
  0
LINE
  5
39F
100
AcDbEntity
  8
0
100
AcDbLine
 62
7
  6
CONTINUOUS
 10
254.402556
 20
315.586197
 11
254.402556
 21
315.729835
  0
LINE
  5
3A0
100
AcDbEntity
  8
0
100
AcDbLine
 62
7
  6
CONTINUOUS
 10
255.505851
 20
313.345177
 11
255.505851
 21
315.729835
  0
LINE
  5
3A1
100
AcDbEntity
  8
0
100
AcDbLine
 62
7
  6
CONTINUOUS
 10
255.648481
 20
315.595495
 11
255.648481
 21
314.628588
  0
LINE
  5
3A2
100
AcDbEntity
  8
0
100
AcDbLine
 62
7
  6
CONTINUOUS
 10
255.648481
 20
314.465021
 11
255.648481
 21
313.345177
  0
LINE
  5
3A3
100
AcDbEntity
  8
0
100
AcDbLine
 62
2
  6
CONTINUOUS
 10
259.016923
 20
293.822615
 11
259.016923
 21
269.594852
  0
LINE
  5
3A4
100
AcDbEntity
  8
0
100
AcDbLine
 62
7
  6
CONTINUOUS
 10
259.916923
 20
293.823089
 11
259.916923
 21
269.594819
  0
LINE
  5
3A5
100
AcDbEntity
  8
0
100
AcDbLine
 62
7
  6
CONTINUOUS
 10
262.731011
 20
297.316402
 11
262.731011
 21
293.824571
  0
LINE
  5
3A6
100
AcDbEntity
  8
0
100
AcDbLine
 62
7
  6
CONTINUOUS
 10
263.231482
 20
296.596443
 11
263.231482
 21
297.324835
  0
LINE
  5
3A7
100
AcDbEntity
  8
0
100
AcDbLine
 62
2
  6
CONTINUOUS
 10
264.231011
 20
296.596446
 11
264.231011
 21
269.594662
  0
LINE
  5
3A8
100
AcDbEntity
  8
0
100
AcDbLine
 62
7
  6
CONTINUOUS
 10
264.231482
 20
296.596443
 11
264.231482
 21
297.324835
  0
LINE
  5
3A9
100
AcDbEntity
  8
0
100
AcDbLine
 62
7
  6
CONTINUOUS
 10
269.343931
 20
297.330255
 11
269.343931
 21
296.596443
  0
LINE
  5
3AA
100
AcDbEntity
  8
0
100
AcDbLine
 62
7
  6
CONTINUOUS
 10
257.086097
 20
315.102256
 11
257.085121
 21
315.061356
  0
LINE
  5
3AB
100
AcDbEntity
  8
0
100
AcDbLine
 62
7
  6
CONTINUOUS
 10
256.92708
 20
315.027868
 11
256.930917
 21
315.104076
  0
LINE
  5
3AC
100
AcDbEntity
  8
0
100
AcDbLine
 62
7
  6
CONTINUOUS
 10
257.085121
 20
315.061356
 11
257.080927
 21
315.009402
  0
LINE
  5
3AD
100
AcDbEntity
  8
0
100
AcDbLine
 62
7
  6
CONTINUOUS
 10
257.080927
 20
315.009402
 11
257.071726
 21
314.949157
  0
LINE
  5
3AE
100
AcDbEntity
  8
0
100
AcDbLine
 62
7
  6
CONTINUOUS
 10
256.915636
 20
314.958358
 11
256.92708
 21
315.027868
  0
LINE
  5
3AF
100
AcDbEntity
  8
0
100
AcDbLine
 62
7
  6
CONTINUOUS
 10
257.071726
 20
314.949157
 11
257.055698
 21
314.883418
  0
LINE
  5
3B0
100
AcDbEntity
  8
0
100
AcDbLine
 62
7
  6
CONTINUOUS
 10
256.896682
 20
314.895512
 11
256.915636
 21
314.958358
  0
LINE
  5
3B1
100
AcDbEntity
  8
0
100
AcDbLine
 62
7
  6
CONTINUOUS
 10
245.969431
 20
314.116785
 11
246.015858
 21
314.251612
  0
LINE
  5
3B2
100
AcDbEntity
  8
0
100
AcDbLine
 62
7
  6
CONTINUOUS
 10
246.161837
 20
314.21393
 11
246.108257
 21
314.060896
  0
LINE
  5
3B3
100
AcDbEntity
  8
0
100
AcDbLine
 62
7
  6
CONTINUOUS
 10
257.055698
 20
314.883418
 11
257.030989
 21
314.81498
  0
LINE
  5
3B4
100
AcDbEntity
  8
0
100
AcDbLine
 62
7
  6
CONTINUOUS
 10
256.870249
 20
314.839364
 11
256.896682
 21
314.895512
  0
LINE
  5
3B5
100
AcDbEntity
  8
0
100
AcDbLine
 62
7
  6
CONTINUOUS
 10
243.830011
 20
315.027316
 11
243.90157
 21
315.171084
  0
LINE
  5
3B6
100
AcDbEntity
  8
0
100
AcDbLine
 62
7
  6
CONTINUOUS
 10
245.906618
 20
313.990671
 11
245.969431
 21
314.116785
  0
LINE
  5
3B7
100
AcDbEntity
  8
0
100
AcDbLine
 62
7
  6
CONTINUOUS
 10
244.033211
 20
315.093608
 11
243.970301
 21
314.967494
  0
LINE
  5
3B8
100
AcDbEntity
  8
0
100
AcDbLine
 62
7
  6
CONTINUOUS
 10
246.108257
 20
314.060896
 11
246.035951
 21
313.917323
  0
LINE
  5
3B9
100
AcDbEntity
  8
0
100
AcDbLine
 62
7
  6
CONTINUOUS
 10
257.030989
 20
314.81498
 11
256.995811
 21
314.746607
  0
LINE
  5
3BA
100
AcDbEntity
  8
0
100
AcDbLine
 62
7
  6
CONTINUOUS
 10
243.90157
 20
315.171084
 11
243.990295
 21
315.303473
  0
LINE
  5
3BB
100
AcDbEntity
  8
0
100
AcDbLine
 62
7
  6
CONTINUOUS
 10
245.828784
 20
313.87457
 11
245.906618
 21
313.990671
  0
LINE
  5
3BC
100
AcDbEntity
  8
0
100
AcDbLine
 62
7
  6
CONTINUOUS
 10
244.111175
 20
315.20974
 11
244.033211
 21
315.093608
  0
LINE
  5
3BD
100
AcDbEntity
  8
0
100
AcDbLine
 62
7
  6
CONTINUOUS
 10
246.035951
 20
313.917323
 11
245.946477
 21
313.784772
  0
LINE
  5
3BE
100
AcDbEntity
  8
0
100
AcDbLine
 62
7
  6
CONTINUOUS
 10
256.836469
 20
314.789848
 11
256.870249
 21
314.839364
  0
LINE
  5
3BF
100
AcDbEntity
  8
0
100
AcDbLine
 62
7
  6
CONTINUOUS
 10
256.995811
 20
314.746607
 11
256.948343
 21
314.681128
  0
LINE
  5
3C0
100
AcDbEntity
  8
0
100
AcDbLine
 62
7
  6
CONTINUOUS
 10
243.990295
 20
315.303473
 11
244.094724
 21
315.422954
  0
LINE
  5
3C1
100
AcDbEntity
  8
0
100
AcDbLine
 62
7
  6
CONTINUOUS
 10
244.202924
 20
315.314559
 11
244.111175
 21
315.20974
  0
LINE
  5
3C2
100
AcDbEntity
  8
DEFAULT_2
100
AcDbLine
 62
8
  6
CONTINUOUS
 10
129.231011
 20
326.37221
 11
130.881011
 21
327.324838
  0
LINE
  5
3C3
100
AcDbEntity
  8
DEFAULT_2
100
AcDbLine
 62
8
  6
CONTINUOUS
 10
117.231011
 20
313.024838
 11
118.097036
 21
313.524838
  0
LINE
  5
3C4
100
AcDbEntity
  8
DEFAULT_2
100
AcDbLine
 62
8
  6
CONTINUOUS
 10
119.981011
 20
303.824838
 11
118.731011
 21
303.10315
  0
LINE
  5
3C5
100
AcDbEntity
  8
DEFAULT_2
100
AcDbLine
 62
8
  6
CONTINUOUS
 10
141.231011
 20
311.024838
 11
140.364986
 21
310.524838
  0
LINE
  5
3C6
100
AcDbEntity
  8
DEFAULT_2
100
AcDbLine
 62
8
  6
CONTINUOUS
 10
130.40868
 20
325.626161
 11
132.449092
 21
326.559573
  0
LINE
  5
3C7
100
AcDbEntity
  8
DEFAULT_2
100
AcDbLine
 62
8
  6
CONTINUOUS
 10
118.731011
 20
297.546526
 11
119.981011
 21
296.824838
  0
LINE
  5
3C8
100
AcDbEntity
  8
0
100
AcDbLine
 62
7
  6
CONTINUOUS
 10
246.035951
 20
315.171084
 11
246.108257
 21
315.027316
  0
LINE
  5
3C9
100
AcDbEntity
  8
0
100
AcDbLine
 62
7
  6
CONTINUOUS
 10
243.970301
 20
314.116785
 11
244.033211
 21
313.990671
  0
LINE
  5
3CA
100
AcDbEntity
  8
0
100
AcDbLine
 62
7
  6
CONTINUOUS
 10
243.90157
 20
313.917323
 11
243.830011
 21
314.060896
  0
LINE
  5
3CB
100
AcDbEntity
  8
0
100
AcDbLine
 62
7
  6
CONTINUOUS
 10
245.969431
 20
314.967494
 11
245.906618
 21
315.093608
  0
LINE
  5
3CC
100
AcDbEntity
  8
0
100
AcDbLine
 62
7
  6
CONTINUOUS
 10
246.108257
 20
315.027316
 11
246.161837
 21
314.873566
  0
LINE
  5
3CD
100
AcDbEntity
  8
0
100
AcDbLine
 62
7
  6
CONTINUOUS
 10
243.830011
 20
314.060896
 11
243.777114
 21
314.21393
  0
LINE
  5
3CE
100
AcDbEntity
  8
0
100
AcDbLine
 62
7
  6
CONTINUOUS
 10
243.923776
 20
314.251612
 11
243.970301
 21
314.116785
  0
LINE
  5
3CF
100
AcDbEntity
  8
0
100
AcDbLine
 62
7
  6
CONTINUOUS
 10
246.015858
 20
314.832699
 11
245.969431
 21
314.967494
  0
LINE
  5
3D0
100
AcDbEntity
  8
0
100
AcDbLine
 62
7
  6
CONTINUOUS
 10
257.037101
 20
315.380428
 11
257.059794
 21
315.308967
  0
LINE
  5
3D1
100
AcDbEntity
  8
0
100
AcDbLine
 62
7
  6
CONTINUOUS
 10
256.915636
 20
315.257923
 11
256.896682
 21
315.323565
  0
LINE
  5
3D2
100
AcDbEntity
  8
0
100
AcDbLine
 62
7
  6
CONTINUOUS
 10
257.059794
 20
315.308967
 11
257.074132
 21
315.24209
  0
LINE
  5
3D3
100
AcDbEntity
  8
0
100
AcDbLine
 62
7
  6
CONTINUOUS
 10
246.161837
 20
314.873566
 11
246.195129
 21
314.711364
  0
LINE
  5
3D4
100
AcDbEntity
  8
0
100
AcDbLine
 62
7
  6
CONTINUOUS
 10
243.777114
 20
314.21393
 11
243.744277
 21
314.374865
  0
LINE
  5
3D5
100
AcDbEntity
  8
0
100
AcDbLine
 62
7
  6
CONTINUOUS
 10
243.894873
 20
314.393819
 11
243.923776
 21
314.251612
  0
LINE
  5
3D6
100
AcDbEntity
  8
0
100
AcDbLine
 62
7
  6
CONTINUOUS
 10
246.044664
 20
314.690459
 11
246.015858
 21
314.832699
  0
LINE
  5
3D7
100
AcDbEntity
  8
0
100
AcDbLine
 62
7
  6
CONTINUOUS
 10
256.92708
 20
315.184804
 11
256.915636
 21
315.257923
  0
LINE
  5
3D8
100
AcDbEntity
  8
0
100
AcDbLine
 62
7
  6
CONTINUOUS
 10
257.074132
 20
315.24209
 11
257.082033
 21
315.183113
  0
LINE
  5
3D9
100
AcDbEntity
  8
0
100
AcDbLine
 62
7
  6
CONTINUOUS
 10
245.737133
 20
313.769752
 11
245.828784
 21
313.87457
  0
LINE
  5
3DA
100
AcDbEntity
  8
0
100
AcDbLine
 62
7
  6
CONTINUOUS
 10
245.946477
 20
313.784772
 11
245.841366
 21
313.664835
  0
LINE
  5
3DB
100
AcDbEntity
  8
0
100
AcDbLine
 62
7
  6
CONTINUOUS
 10
256.795407
 20
314.746997
 11
256.836469
 21
314.789848
  0
LINE
  5
3DC
100
AcDbEntity
  8
0
100
AcDbLine
 62
7
  6
CONTINUOUS
 10
256.948343
 20
314.681128
 11
256.886765
 21
314.621306
  0
LINE
  5
3DD
100
AcDbEntity
  8
0
100
AcDbLine
 62
7
  6
CONTINUOUS
 10
245.841366
 20
313.664835
 11
245.722177
 21
313.559041
  0
LINE
  5
3DE
100
AcDbEntity
  8
0
100
AcDbLine
 62
7
  6
CONTINUOUS
 10
245.632997
 20
313.677482
 11
245.737133
 21
313.769752
  0
LINE
  5
3DF
100
AcDbEntity
  8
0
100
AcDbLine
 62
7
  6
CONTINUOUS
 10
244.094724
 20
315.422954
 11
244.213425
 21
315.528065
  0
LINE
  5
3E0
100
AcDbEntity
  8
0
100
AcDbLine
 62
7
  6
CONTINUOUS
 10
244.307125
 20
315.406796
 11
244.202924
 21
315.314559
  0
LINE
  5
3E1
100
AcDbEntity
  8
0
100
AcDbLine
 62
7
  6
CONTINUOUS
 10
241.460602
 20
314.513203
 11
243.148755
 21
315.729835
  0
LINE
  5
3E2
100
AcDbEntity
  8
0
100
AcDbLine
 62
7
  6
CONTINUOUS
 10
242.929494
 20
315.729835
 11
241.35975
 21
314.628588
  0
LINE
  5
3E3
100
AcDbEntity
  8
0
100
AcDbLine
 62
7
  6
CONTINUOUS
 10
244.42251
 20
315.485182
 11
244.307125
 21
315.406796
  0
LINE
  5
3E4
100
AcDbEntity
  8
0
100
AcDbLine
 62
7
  6
CONTINUOUS
 10
244.213425
 20
315.528065
 11
244.344936
 21
315.617376
  0
LINE
  5
3E5
100
AcDbEntity
  8
DEFAULT_2
100
AcDbLine
 62
8
  6
CONTINUOUS
 10
138.481011
 20
296.824838
 11
139.731011
 21
297.546526
  0
LINE
  5
3E6
100
AcDbEntity
  8
DEFAULT_2
100
AcDbLine
 62
8
  6
CONTINUOUS
 10
117.231011
 20
311.024838
 11
118.097036
 21
310.524838
  0
LINE
  5
3E7
100
AcDbEntity
  8
DEFAULT_2
100
AcDbLine
 62
8
  6
CONTINUOUS
 10
139.731011
 20
303.10315
 11
138.481011
 21
303.824838
  0
LINE
  5
3E8
100
AcDbEntity
  8
DEFAULT_2
100
AcDbLine
 62
8
  6
CONTINUOUS
 10
141.231011
 20
313.024838
 11
140.364986
 21
313.524838
  0
LINE
  5
3E9
100
AcDbEntity
  8
DEFAULT_2
100
AcDbLine
 62
8
  6
CONTINUOUS
 10
127.581011
 20
327.324838
 11
129.231011
 21
326.37221
  0
LINE
  5
3EA
100
AcDbEntity
  8
0
100
AcDbLine
 62
7
  6
CONTINUOUS
 10
245.841366
 20
315.422954
 11
245.946477
 21
315.303473
  0
LINE
  5
3EB
100
AcDbEntity
  8
0
100
AcDbLine
 62
7
  6
CONTINUOUS
 10
244.111175
 20
313.87457
 11
244.202924
 21
313.769752
  0
LINE
  5
3EC
100
AcDbEntity
  8
0
100
AcDbLine
 62
7
  6
CONTINUOUS
 10
245.828784
 20
315.20974
 11
245.737133
 21
315.314559
  0
LINE
  5
3ED
100
AcDbEntity
  8
0
100
AcDbLine
 62
7
  6
CONTINUOUS
 10
244.094724
 20
313.664835
 11
243.990295
 21
313.784772
  0
LINE
  5
3EE
100
AcDbEntity
  8
0
100
AcDbLine
 62
7
  6
CONTINUOUS
 10
245.946477
 20
315.303473
 11
246.035951
 21
315.171084
  0
LINE
  5
3EF
100
AcDbEntity
  8
0
100
AcDbLine
 62
7
  6
CONTINUOUS
 10
244.033211
 20
313.990671
 11
244.111175
 21
313.87457
  0
LINE
  5
3F0
100
AcDbEntity
  8
0
100
AcDbLine
 62
7
  6
CONTINUOUS
 10
245.906618
 20
315.093608
 11
245.828784
 21
315.20974
  0
LINE
  5
3F1
100
AcDbEntity
  8
0
100
AcDbLine
 62
7
  6
CONTINUOUS
 10
243.990295
 20
313.784772
 11
243.90157
 21
313.917323
  0
LINE
  5
3F2
100
AcDbEntity
  8
0
100
AcDbLine
 62
7
  6
CONTINUOUS
 10
256.870249
 20
315.381794
 11
256.836469
 21
315.432805
  0
LINE
  5
3F3
100
AcDbEntity
  8
0
100
AcDbLine
 62
7
  6
CONTINUOUS
 10
256.95917
 20
315.523839
 11
257.004199
 21
315.45319
  0
LINE
  5
3F4
100
AcDbEntity
  8
0
100
AcDbLine
 62
7
  6
CONTINUOUS
 10
256.896682
 20
315.323565
 11
256.870249
 21
315.381794
  0
LINE
  5
3F5
100
AcDbEntity
  8
0
100
AcDbLine
 62
7
  6
CONTINUOUS
 10
257.004199
 20
315.45319
 11
257.037101
 21
315.380428
  0
LINE
  5
3F6
100
AcDbEntity
  8
0
100
AcDbLine
 62
7
  6
CONTINUOUS
 10
262.093301
 20
456.316453
 11
264.413834
 21
436.166367
  0
LINE
  5
3F7
100
AcDbEntity
  8
0
100
AcDbLine
 62
2
  6
CONTINUOUS
 10
365.231011
 20
378.154092
 11
365.492561
 21
378.415643
  0
LINE
  5
3F8
100
AcDbEntity
  8
0
100
AcDbLine
 62
2
  6
CONTINUOUS
 10
365.231011
 20
376.386325
 11
367.181011
 21
378.336325
  0
LINE
  5
3F9
100
AcDbEntity
  8
0
100
AcDbLine
 62
2
  6
CONTINUOUS
 10
365.231011
 20
374.618558
 11
367.181011
 21
376.568558
  0
LINE
  5
3FA
100
AcDbEntity
  8
0
100
AcDbLine
 62
2
  6
CONTINUOUS
 10
365.231011
 20
372.850791
 11
367.181011
 21
374.800791
  0
LINE
  5
3FB
100
AcDbEntity
  8
0
100
AcDbLine
 62
2
  6
CONTINUOUS
 10
365.231011
 20
371.083024
 11
367.181011
 21
373.033024
  0
LINE
  5
3FC
100
AcDbEntity
  8
0
100
AcDbLine
 62
2
  6
CONTINUOUS
 10
371.281011
 20
377.133024
 11
372.566108
 21
378.418122
  0
LINE
  5
3FD
100
AcDbEntity
  8
0
100
AcDbLine
 62
2
  6
CONTINUOUS
 10
365.231011
 20
369.315257
 11
367.181011
 21
371.265257
  0
LINE
  5
3FE
100
AcDbEntity
  8
0
100
AcDbLine
 62
2
  6
CONTINUOUS
 10
371.281011
 20
375.365257
 11
373.231011
 21
377.315257
  0
LINE
  5
3FF
100
AcDbEntity
  8
0
100
AcDbLine
 62
2
  6
CONTINUOUS
 10
365.231011
 20
367.547491
 11
367.181011
 21
369.497491
  0
LINE
  5
400
100
AcDbEntity
  8
0
100
AcDbLine
 62
2
  6
CONTINUOUS
 10
371.281011
 20
373.597491
 11
373.231011
 21
375.547491
  0
LINE
  5
401
100
AcDbEntity
  8
0
100
AcDbLine
 62
2
  6
CONTINUOUS
 10
365.931011
 20
366.479724
 11
367.181011
 21
367.729724
  0
LINE
  5
402
100
AcDbEntity
  8
0
100
AcDbLine
 62
2
  6
CONTINUOUS
 10
371.281011
 20
371.829724
 11
373.231011
 21
373.779724
  0
LINE
  5
403
100
AcDbEntity
  8
0
100
AcDbLine
 62
2
  6
CONTINUOUS
 10
363.033834
 20
361.81478
 11
364.53436
 21
363.315306
  0
LINE
  5
404
100
AcDbEntity
  8
0
100
AcDbLine
 62
2
  6
CONTINUOUS
 10
364.931011
 20
363.711957
 11
367.181011
 21
365.961957
  0
LINE
  5
405
100
AcDbEntity
  8
0
100
AcDbLine
 62
2
  6
CONTINUOUS
 10
371.281011
 20
370.061957
 11
373.231011
 21
372.011957
  0
LINE
  5
406
100
AcDbEntity
  8
0
100
AcDbLine
 62
2
  6
CONTINUOUS
 10
364.381011
 20
361.39419
 11
367.181011
 21
364.19419
  0
LINE
  5
407
100
AcDbEntity
  8
0
100
AcDbLine
 62
2
  6
CONTINUOUS
 10
371.281011
 20
368.29419
 11
373.231011
 21
370.24419
  0
LINE
  5
408
100
AcDbEntity
  8
0
100
AcDbLine
 62
7
  6
CONTINUOUS
 10
256.747126
 20
314.710746
 11
256.795407
 21
314.746997
  0
LINE
  5
409
100
AcDbEntity
  8
0
100
AcDbLine
 62
7
  6
CONTINUOUS
 10
245.722177
 20
313.559041
 11
245.590504
 21
313.468983
  0
LINE
  5
40A
100
AcDbEntity
  8
0
100
AcDbLine
 62
7
  6
CONTINUOUS
 10
245.517644
 20
313.599096
 11
245.632997
 21
313.677482
  0
LINE
  5
40B
100
AcDbEntity
  8
0
100
AcDbLine
 62
7
  6
CONTINUOUS
 10
256.886765
 20
314.621306
 11
256.809257
 21
314.569904
  0
LINE
  5
40C
100
AcDbEntity
  8
0
100
AcDbLine
 62
2
  6
CONTINUOUS
 10
367.7810110871
 20
385.2548588149
 11
369.2310110871
 21
386.0961947952
  0
LINE
  5
40D
100
AcDbEntity
  8
0
100
AcDbLine
 62
2
  6
CONTINUOUS
 10
364.3409347092
 20
387.9037839835
 11
361.317492446
 21
386.560888694
  0
LINE
  5
40E
100
AcDbEntity
  8
0
100
AcDbLine
 62
2
  6
CONTINUOUS
 10
361.7289111848
 20
376.3058154123
 11
361.7289082029
 21
376.3143237645
  0
LINE
  5
40F
100
AcDbEntity
  8
0
100
AcDbLine
 62
2
  6
CONTINUOUS
 10
361.4292586785
 20
375.4141924268
 11
361.4292586785
 21
375.3142186832
  0
LINE
  5
410
100
AcDbEntity
  8
0
100
AcDbLine
 62
2
  6
CONTINUOUS
 10
365.2310110871
 20
371.315550859
 11
365.2310110871
 21
378.4155512951
  0
LINE
  5
411
100
AcDbEntity
  8
0
100
AcDbLine
 62
2
  6
CONTINUOUS
 10
367.4810110871
 20
378.4163398652
 11
367.4810110871
 21
383.5874253146
  0
LINE
  5
412
100
AcDbEntity
  8
0
100
AcDbLine
 62
2
  6
CONTINUOUS
 10
367.7810110871
 20
383.5874253146
 11
367.7810110871
 21
385.2548588149
  0
LINE
  5
413
100
AcDbEntity
  8
0
100
AcDbLine
 62
2
  6
CONTINUOUS
 10
369.2310110871
 20
387.1374986584
 11
369.2310110871
 21
386.0961947952
  0
LINE
  5
414
100
AcDbEntity
  8
0
100
AcDbLine
 62
2
  6
CONTINUOUS
 10
369.2310110871
 20
386.0961947952
 11
369.2310110871
 21
387.1374986584
  0
LINE
  5
415
100
AcDbEntity
  8
0
100
AcDbLine
 62
2
  6
CONTINUOUS
 10
370.6810110871
 20
385.2548588149
 11
370.6810110871
 21
383.5874253146
  0
LINE
  5
416
100
AcDbEntity
  8
0
100
AcDbLine
 62
2
  6
CONTINUOUS
 10
370.9810110871
 20
383.5874253146
 11
370.9810110871
 21
378.4175665299
  0
LINE
  5
417
100
AcDbEntity
  8
0
100
AcDbLine
 62
2
  6
CONTINUOUS
 10
373.2310110871
 20
378.4183551
 11
373.2310110871
 21
371.318354664
  0
LINE
  5
418
100
AcDbEntity
  8
0
100
AcDbLine
 62
2
  6
CONTINUOUS
 10
377.0292587399
 20
375.3196861028
 11
377.0292587399
 21
375.4197124178
  0
LINE
  5
419
100
AcDbEntity
  8
0
100
AcDbLine
 62
2
  6
CONTINUOUS
 10
375.9779979402
 20
385.1290419095
 11
373.301044939
 21
387.8042958926
  0
LINE
  5
41A
100
AcDbEntity
  8
0
100
AcDbLine
 62
2
  6
CONTINUOUS
 10
369.2310110871
 20
386.0961947952
 11
370.6810110871
 21
385.2548588149
  0
LINE
  5
41B
100
AcDbEntity
  8
0
100
AcDbLine
 62
2
  6
CONTINUOUS
 10
361.2306606116
 20
371.3141488337
 11
365.2310110871
 21
371.315550859
  0
LINE
  5
41C
100
AcDbEntity
  8
0
100
AcDbLine
 62
2
  6
CONTINUOUS
 10
373.2310110871
 20
371.318354664
 11
377.2306606116
 21
371.3197564436
  0
LINE
  5
41D
100
AcDbEntity
  8
0
100
AcDbLine
 62
2
  6
CONTINUOUS
 10
377.2292587092
 20
375.3197561979
 11
377.0292587399
 21
375.3196861028
  0
LINE
  5
41E
100
AcDbEntity
  8
0
100
AcDbLine
 62
2
  6
CONTINUOUS
 10
361.4292586785
 20
375.3142186832
 11
361.2292587092
 21
375.3141485881
  0
LINE
  5
41F
100
AcDbEntity
  8
0
100
AcDbLine
 62
2
  6
CONTINUOUS
 10
365.2310110871
 20
378.4155512951
 11
367.4810110871
 21
378.4163398652
  0
LINE
  5
420
100
AcDbEntity
  8
0
100
AcDbLine
 62
2
  6
CONTINUOUS
 10
370.9810110871
 20
378.4175665299
 11
373.2310110871
 21
378.4183551
  0
LINE
  5
421
100
AcDbEntity
  8
0
100
AcDbLine
 62
2
  6
CONTINUOUS
 10
367.4810110871
 20
383.5874253146
 11
367.7810110871
 21
383.5874253146
  0
LINE
  5
422
100
AcDbEntity
  8
0
100
AcDbLine
 62
2
  6
CONTINUOUS
 10
370.6810110871
 20
383.5874253146
 11
370.9810110871
 21
383.5874253146
  0
LINE
  5
423
100
AcDbEntity
  8
0
100
AcDbLine
 62
2
  6
CONTINUOUS
 10
367.2280825736
 20
386.8093571142
 11
364.3409347092
 21
387.9037839835
  0
LINE
  5
424
100
AcDbEntity
  8
0
100
AcDbLine
 62
2
  6
CONTINUOUS
 10
373.301044939
 20
387.8042958926
 11
369.2310110871
 21
387.1374986584
  0
LINE
  5
425
100
AcDbEntity
  8
0
100
AcDbLine
 62
2
  6
CONTINUOUS
 10
369.2310110871
 20
387.1374986584
 11
367.2280825736
 21
386.8093571142
  0
ARC
  5
426
100
AcDbEntity
  8
0
100
AcDbCircle
 62
2
  6
CONTINUOUS
 10
356.3024120963
 20
381.6193141553
 40
7.5947456343
100
AcDbArc
 50
315.6028124113
 51
20.7891030757
  0
ARC
  5
427
100
AcDbEntity
  8
0
100
AcDbCircle
 62
2
  6
CONTINUOUS
 10
382.1648672119
 20
381.6234013679
 40
7.5947456343
100
AcDbArc
 50
159.2108969243
 51
224.2950883969
  0
ARC
  5
428
100
AcDbEntity
  8
0
100
AcDbCircle
 62
2
  6
CONTINUOUS
 10
361.6064321243
 20
373.314016398
 40
1.5467786867
100
AcDbArc
 50
122.7094636484
 51
237.3228305742
  0
ARC
  5
429
100
AcDbEntity
  8
0
100
AcDbCircle
 62
2
  6
CONTINUOUS
 10
376.8524357697
 20
373.3196240078
 40
1.5467786867
100
AcDbArc
 50
302.7496251939
 51
57.2905363516
  0
ARC
  5
42A
100
AcDbEntity
  8
0
100
AcDbCircle
 62
2
  6
CONTINUOUS
 10
361.7290834407
 20
375.8143237952
 40
0.5
100
AcDbArc
 50
90.0200807727
 51
233.155199198
  0
ARC
  5
42B
100
AcDbEntity
  8
0
100
AcDbCircle
 62
2
  6
CONTINUOUS
 10
361.229433947
 20
374.8141486188
 40
0.5
100
AcDbArc
 50
90.0200807724
 51
203.4081629012
  0
ARC
  5
42C
100
AcDbEntity
  8
0
100
AcDbCircle
 62
2
  6
CONTINUOUS
 10
361.2304853738
 20
371.814148803
 40
0.5
100
AcDbArc
 50
156.6836506068
 51
270.0200807726
  0
ARC
  5
42D
100
AcDbEntity
  8
0
100
AcDbCircle
 62
2
  6
CONTINUOUS
 10
377.2304853738
 20
371.8197564129
 40
0.5
100
AcDbArc
 50
270.0200807727
 51
23.4483244468
  0
ARC
  5
42E
100
AcDbEntity
  8
0
100
AcDbCircle
 62
2
  6
CONTINUOUS
 10
377.229433947
 20
374.8197562286
 40
0.5
100
AcDbArc
 50
336.5918370988
 51
90.0200807728
  0
ARC
  5
42F
100
AcDbEntity
  8
0
100
AcDbCircle
 62
2
  6
CONTINUOUS
 10
376.7290835021
 20
375.8195809294
 40
0.5
100
AcDbArc
 50
306.8950027371
 51
90.0200807727
  0
ARC
  5
430
100
AcDbEntity
  8
0
100
AcDbCircle
 62
2
  6
CONTINUOUS
 10
369.2310110871
 20
391.8169540205
 40
9.5
100
AcDbArc
 50
213.5916415244
 51
232.156434411
  0
ARC
  5
431
100
AcDbEntity
  8
0
100
AcDbCircle
 62
2
  6
CONTINUOUS
 10
369.2310110871
 20
391.8169540205
 40
9.5
100
AcDbArc
 50
307.8837271345
 51
315.2519342786
  0
LINE
  5
432
100
AcDbEntity
  8
0
100
AcDbLine
 62
7
  6
CONTINUOUS
 10
367.781011
 20
385.254859
 11
369.231011
 21
386.096195
  0
LINE
  5
433
100
AcDbEntity
  8
0
100
AcDbLine
 62
7
  6
CONTINUOUS
 10
256.691726
 20
314.681128
 11
256.747126
 21
314.710746
  0
LINE
  5
434
100
AcDbEntity
  8
0
100
AcDbLine
 62
7
  6
CONTINUOUS
 10
245.590504
 20
313.468983
 11
245.447841
 21
313.396189
  0
LINE
  5
435
100
AcDbEntity
  8
0
100
AcDbLine
 62
7
  6
CONTINUOUS
 10
244.547746
 20
315.548385
 11
244.42251
 21
315.485182
  0
LINE
  5
436
100
AcDbEntity
  8
0
100
AcDbLine
 62
7
  6
CONTINUOUS
 10
244.344936
 20
315.617376
 11
244.487762
 21
315.68939
  0
LINE
  5
437
100
AcDbEntity
  8
0
100
AcDbLine
 62
7
  6
CONTINUOUS
 10
245.392343
 20
313.535893
 11
245.517644
 21
313.599096
  0
LINE
  5
438
100
AcDbEntity
  8
0
100
AcDbLine
 62
7
  6
CONTINUOUS
 10
364.340935
 20
387.903784
 11
361.317492
 21
386.560889
  0
LINE
  5
439
100
AcDbEntity
  8
0
100
AcDbLine
 62
7
  6
CONTINUOUS
 10
243.214819
 20
313.345177
 11
241.48284
 21
314.497663
  0
LINE
  5
43A
100
AcDbEntity
  8
0
100
AcDbLine
 62
7
  6
CONTINUOUS
 10
244.307125
 20
313.677482
 11
244.42251
 21
313.599096
  0
LINE
  5
43B
100
AcDbEntity
  8
0
100
AcDbLine
 62
7
  6
CONTINUOUS
 10
244.344936
 20
313.468983
 11
244.213425
 21
313.559041
  0
LINE
  5
43C
100
AcDbEntity
  8
0
100
AcDbLine
 62
7
  6
CONTINUOUS
 10
241.48284
 20
314.497663
 11
241.460602
 21
314.513203
  0
LINE
  5
43D
100
AcDbEntity
  8
0
100
AcDbLine
 62
7
  6
CONTINUOUS
 10
255.867904
 20
314.494281
 11
257.388231
 21
313.345177
  0
LINE
  5
43E
100
AcDbEntity
  8
0
100
AcDbLine
 62
7
  6
CONTINUOUS
 10
256.795407
 20
315.476632
 11
256.747126
 21
315.513403
  0
LINE
  5
43F
100
AcDbEntity
  8
0
100
AcDbLine
 62
7
  6
CONTINUOUS
 10
245.722177
 20
315.528065
 11
245.841366
 21
315.422954
  0
LINE
  5
440
100
AcDbEntity
  8
0
100
AcDbLine
 62
7
  6
CONTINUOUS
 10
244.202924
 20
313.769752
 11
244.307125
 21
313.677482
  0
LINE
  5
441
100
AcDbEntity
  8
0
100
AcDbLine
 62
7
  6
CONTINUOUS
 10
245.737133
 20
315.314559
 11
245.632997
 21
315.406796
  0
LINE
  5
442
100
AcDbEntity
  8
0
100
AcDbLine
 62
7
  6
CONTINUOUS
 10
244.213425
 20
313.559041
 11
244.094724
 21
313.664835
  0
LINE
  5
443
100
AcDbEntity
  8
0
100
AcDbLine
 62
7
  6
CONTINUOUS
 10
256.836469
 20
315.432805
 11
256.795407
 21
315.476632
  0
LINE
  5
444
100
AcDbEntity
  8
0
100
AcDbLine
 62
7
  6
CONTINUOUS
 10
256.90016
 20
315.589123
 11
256.95917
 21
315.523839
  0
LINE
  5
445
100
AcDbEntity
  8
0
100
AcDbLine
 62
7
  6
CONTINUOUS
 10
361.731011
 20
270.824838
 11
361.7318316259
 21
269.596446
  0
LINE
  5
446
100
AcDbEntity
  8
0
100
AcDbLine
 62
7
  6
CONTINUOUS
 10
360.721994
 20
396.041482
 11
360.724958
 21
387.586463
  0
LINE
  5
447
100
AcDbEntity
  8
0
100
AcDbLine
 62
7
  6
CONTINUOUS
 10
361.229075
 20
375.839335
 11
361.229083
 21
375.814149
  0
LINE
  5
448
100
AcDbEntity
  8
0
100
AcDbLine
 62
7
  6
CONTINUOUS
 10
361.728908
 20
376.314324
 11
361.728911
 21
376.305815
  0
LINE
  5
449
100
AcDbEntity
  8
0
100
AcDbLine
 62
2
  6
CONTINUOUS
 10
349.7310110871
 20
298.5964459329
 11
349.7310110871
 21
297.0964459329
  0
LINE
  5
44A
100
AcDbEntity
  8
0
100
AcDbLine
 62
2
  6
CONTINUOUS
 10
353.4810110871
 20
297.0964459329
 11
353.4810110871
 21
298.5964459329
  0
LINE
  5
44B
100
AcDbEntity
  8
0
100
AcDbLine
 62
2
  6
CONTINUOUS
 10
349.7310110871
 20
297.0964459329
 11
353.4810110871
 21
297.0964459329
  0
LINE
  5
44C
100
AcDbEntity
  8
0
100
AcDbLine
 62
2
  6
CONTINUOUS
 10
353.4810110871
 20
298.5964459329
 11
349.7310110871
 21
298.5964459329
  0
HATCH
  5
44D
100
AcDbEntity
  8
0
100
AcDbHatch
 62
2
  6
CONTINUOUS
 10
0.0
 20
0.0
 30
0.0
210
0.0
220
0.0
230
1.0
  2
dxsec_8
 70
0
 71
1
 91
1
 92
1
 93
4
 72
1
 10
349.7310110871
 20
297.0964459329
 11
353.4810110871
 21
297.0964459329
 72
1
 10
353.4810110871
 20
297.0964459329
 11
353.4810110871
 21
298.5964459329
 72
1
 10
353.4810110871
 20
298.5964459329
 11
349.7310110871
 21
298.5964459329
 72
1
 10
349.7310110871
 20
298.5964459329
 11
349.7310110871
 21
297.0964459329
 97
4
330
449
330
44A
330
44B
330
44C
 75
0
 76
0
 52
45.0
 41
0.125
 77
0
 78
1
 53
45.0
 43
0.0
 44
0.0
 45
-0.0883883476
 46
0.0883883476
 79
0
 98
1
 10
0.0
 20
0.0
  0
LINE
  5
44E
100
AcDbEntity
  8
0
100
AcDbLine
 62
2
  6
CONTINUOUS
 10
349.731011
 20
298.596446
 11
349.731011
 21
297.096446
  0
LINE
  5
44F
100
AcDbEntity
  8
0
100
AcDbLine
 62
2
  6
CONTINUOUS
 10
351.9810110871
 20
310.6100876722
 11
351.9810110871
 21
307.095336943
  0
LINE
  5
450
100
AcDbEntity
  8
0
100
AcDbLine
 62
2
  6
CONTINUOUS
 10
353.4810110871
 20
312.1100876722
 11
353.4810110871
 21
306.2416563474
  0
LINE
  5
451
100
AcDbEntity
  8
0
100
AcDbLine
 62
2
  6
CONTINUOUS
 10
353.4810110871
 20
306.2416563474
 11
353.4810110871
 21
303.3294903009
  0
LINE
  5
452
100
AcDbEntity
  8
0
100
AcDbLine
 62
2
  6
CONTINUOUS
 10
353.4810110871
 20
306.2416563474
 11
353.4810110871
 21
312.1100876722
  0
LINE
  5
453
100
AcDbEntity
  8
0
100
AcDbLine
 62
2
  6
CONTINUOUS
 10
355.2310110871
 20
298.5964459329
 11
355.2310110871
 21
304.3248384014
  0
LINE
  5
454
100
AcDbEntity
  8
0
100
AcDbLine
 62
2
  6
CONTINUOUS
 10
355.2310110871
 20
304.3248384014
 11
355.2310110871
 21
312.1100876722
  0
LINE
  5
455
100
AcDbEntity
  8
0
100
AcDbLine
 62
2
  6
CONTINUOUS
 10
347.2310110871
 20
297.3100876722
 11
347.2334990669
 21
298.5964459329
  0
LINE
  5
456
100
AcDbEntity
  8
0
100
AcDbLine
 62
2
  6
CONTINUOUS
 10
353.4810110871
 20
312.1100876722
 11
351.9810110871
 21
310.6100876722
  0
LINE
  5
457
100
AcDbEntity
  8
0
100
AcDbLine
 62
2
  6
CONTINUOUS
 10
383.2310110871
 20
312.1100876722
 11
383.2310110871
 21
304.3248384014
  0
LINE
  5
458
100
AcDbEntity
  8
0
100
AcDbLine
 62
2
  6
CONTINUOUS
 10
383.2310110871
 20
304.3248384014
 11
383.2310110871
 21
298.5964459329
  0
LINE
  5
459
100
AcDbEntity
  8
0
100
AcDbLine
 62
2
  6
CONTINUOUS
 10
384.9810110871
 20
312.1100876722
 11
384.9810110871
 21
306.2368678587
  0
LINE
  5
45A
100
AcDbEntity
  8
0
100
AcDbLine
 62
2
  6
CONTINUOUS
 10
384.9810110871
 20
303.3294903009
 11
384.9810110871
 21
306.2368678587
  0
LINE
  5
45B
100
AcDbEntity
  8
0
100
AcDbLine
 62
2
  6
CONTINUOUS
 10
384.9810110871
 20
306.2368678587
 11
384.9810110871
 21
312.1100876722
  0
LINE
  5
45C
100
AcDbEntity
  8
0
100
AcDbLine
 62
2
  6
CONTINUOUS
 10
386.4810110871
 20
307.1100876722
 11
386.4810110871
 21
310.6100876722
  0
LINE
  5
45D
100
AcDbEntity
  8
0
100
AcDbLine
 62
2
  6
CONTINUOUS
 10
391.2310110871
 20
298.5964459329
 11
391.2310110871
 21
297.854850181
  0
LINE
  5
45E
100
AcDbEntity
  8
0
100
AcDbLine
 62
2
  6
CONTINUOUS
 10
391.2310110871
 20
297.854850181
 11
391.2310110871
 21
297.3248384014
  0
LINE
  5
45F
100
AcDbEntity
  8
0
100
AcDbLine
 62
2
  6
CONTINUOUS
 10
384.9810110871
 20
306.2368678587
 11
386.4810110871
 21
307.1100876722
  0
LINE
  5
460
100
AcDbEntity
  8
0
100
AcDbLine
 62
2
  6
CONTINUOUS
 10
397.0398575855
 20
298.3343567522
 11
391.2310110871
 21
297.854850181
  0
LINE
  5
461
100
AcDbEntity
  8
0
100
AcDbLine
 62
2
  6
CONTINUOUS
 10
391.2310110871
 20
297.854850181
 11
397.0398575855
 21
298.3343567522
  0
LINE
  5
462
100
AcDbEntity
  8
0
100
AcDbLine
 62
2
  6
CONTINUOUS
 10
343.2310110871
 20
297.3100876722
 11
347.2310110871
 21
297.3100876722
  0
LINE
  5
463
100
AcDbEntity
  8
0
100
AcDbLine
 62
2
  6
CONTINUOUS
 10
391.2310110871
 20
297.3248384014
 11
397.2711777771
 21
297.3248384014
  0
LINE
  5
464
100
AcDbEntity
  8
0
100
AcDbLine
 62
2
  6
CONTINUOUS
 10
347.2334990669
 20
298.5964459329
 11
355.2310110871
 21
298.5964459329
  0
LINE
  5
465
100
AcDbEntity
  8
0
100
AcDbLine
 62
2
  6
CONTINUOUS
 10
383.2310110871
 20
298.5964459329
 11
391.2310110871
 21
298.5964459329
  0
LINE
  5
466
100
AcDbEntity
  8
0
100
AcDbLine
 62
2
  6
CONTINUOUS
 10
395.6854033787
 20
299.3248384014
 11
395.123749342
 21
299.3248384014
  0
LINE
  5
467
100
AcDbEntity
  8
0
100
AcDbLine
 62
2
  6
CONTINUOUS
 10
343.56963101
 20
299.3488147086
 11
343.180670223
 21
299.3488147086
  0
LINE
  5
468
100
AcDbEntity
  8
0
100
AcDbLine
 62
2
  6
CONTINUOUS
 10
341.428138954
 20
297.3340639794
 11
343.2310110871
 21
297.3100876722
  0
LINE
  5
469
100
AcDbEntity
  8
0
100
AcDbLine
 62
2
  6
CONTINUOUS
 10
351.9810110871
 20
307.095336943
 11
353.4810110871
 21
306.2416563474
  0
LINE
  5
46A
100
AcDbEntity
  8
0
100
AcDbLine
 62
2
  6
CONTINUOUS
 10
386.4810110871
 20
310.6100876722
 11
384.9810110871
 21
312.1100876722
  0
LINE
  5
46B
100
AcDbEntity
  8
0
100
AcDbLine
 62
2
  6
CONTINUOUS
 10
346.5879251403
 20
303.3294903009
 11
346.2829976268
 21
303.3293296686
  0
LINE
  5
46C
100
AcDbEntity
  8
0
100
AcDbLine
 62
2
  6
CONTINUOUS
 10
393.8755019183
 20
301.3248384014
 11
393.4355090406
 21
301.3248384014
  0
LINE
  5
46D
100
AcDbEntity
  8
0
100
AcDbLine
 62
2
  6
CONTINUOUS
 10
345.2508958049
 20
301.3488147086
 11
345.0029323644
 21
301.3488147086
  0
LINE
  5
46E
100
AcDbEntity
  8
0
100
AcDbLine
 62
2
  6
CONTINUOUS
 10
392.4152902174
 20
303.3294903009
 11
392.1117735387
 21
303.3294903009
  0
LINE
  5
46F
100
AcDbEntity
  8
0
100
AcDbLine
 62
2
  6
CONTINUOUS
 10
392.1117735387
 20
303.3294903009
 11
384.9810110871
 21
303.3294903009
  0
LINE
  5
470
100
AcDbEntity
  8
0
100
AcDbLine
 62
2
  6
CONTINUOUS
 10
353.4810110871
 20
303.3294903009
 11
346.5879251403
 21
303.3294903009
  0
LINE
  5
471
100
AcDbEntity
  8
0
100
AcDbLine
 62
2
  6
CONTINUOUS
 10
384.9810110871
 20
312.1100876722
 11
383.2310110871
 21
312.1100876722
  0
LINE
  5
472
100
AcDbEntity
  8
0
100
AcDbLine
 62
2
  6
CONTINUOUS
 10
355.2310110871
 20
312.1100876722
 11
353.4810110871
 21
312.1100876722
  0
ARC
  5
473
100
AcDbEntity
  8
0
100
AcDbCircle
 62
2
  6
CONTINUOUS
 10
343.3751506165
 20
297.410050727
 40
1.9484938798
100
AcDbArc
 50
95.728265576
 51
182.2349694179
  0
ARC
  5
474
100
AcDbEntity
  8
0
100
AcDbCircle
 62
2
  6
CONTINUOUS
 10
345.1269140847
 20
299.7463749316
 40
1.6072288903
100
AcDbArc
 50
94.4241945946
 51
194.3212013501
  0
ARC
  5
475
100
AcDbEntity
  8
0
100
AcDbCircle
 62
2
  6
CONTINUOUS
 10
346.4361667992
 20
301.9903228576
 40
1.3477388601
100
AcDbArc
 50
96.5257075178
 51
208.4237283063
  0
ARC
  5
476
100
AcDbEntity
  8
0
100
AcDbCircle
 62
2
  6
CONTINUOUS
 10
395.324548059
 20
297.410050727
 40
1.9484938798
100
AcDbArc
 50
28.3183047592
 51
79.3273789099
  0
ARC
  5
477
100
AcDbEntity
  8
0
100
AcDbCircle
 62
2
  6
CONTINUOUS
 10
395.324548059
 20
297.410050727
 40
1.9484938798
100
AcDbArc
 50
357.4935183189
 51
28.3183047592
  0
ARC
  5
478
100
AcDbEntity
  8
0
100
AcDbCircle
 62
2
  6
CONTINUOUS
 10
393.5727845908
 20
299.7463749316
 40
1.6072288903
100
AcDbArc
 50
344.7948833116
 51
79.1436459653
  0
ARC
  5
479
100
AcDbEntity
  8
0
100
AcDbCircle
 62
2
  6
CONTINUOUS
 10
392.2635318763
 20
301.9903228576
 40
1.3477388601
100
AcDbArc
 50
330.4107653515
 51
83.5346579887
  0
HATCH
  5
47A
100
AcDbEntity
  8
0
100
AcDbHatch
 62
2
  6
CONTINUOUS
 10
0.0
 20
0.0
 30
0.0
210
0.0
220
0.0
230
1.0
  2
dxsec_2
 70
0
 71
1
 91
2
 92
1
 93
4
 72
1
 10
384.9810110871
 20
306.2368678587
 11
386.4810110871
 21
307.1100876722
 72
1
 10
386.4810110871
 20
307.1100876722
 11
386.4810110871
 21
310.6100876722
 72
1
 10
386.4810110871
 20
310.6100876722
 11
384.9810110871
 21
312.1100876722
 72
1
 10
384.9810110871
 20
312.1100876722
 11
384.9810110871
 21
306.2368678587
 97
43
330
44F
330
450
330
451
330
452
330
453
330
454
330
455
330
456
330
457
330
458
330
459
330
45A
330
45B
330
45C
330
45D
330
45E
330
45F
330
460
330
461
330
462
330
463
330
464
330
465
330
466
330
467
330
468
330
469
330
46A
330
46B
330
46C
330
46D
330
46E
330
46F
330
470
330
471
330
472
330
473
330
474
330
475
330
476
330
477
330
478
330
479
 92
1
 93
2
 72
1
 10
397.0398575855
 20
298.3343567522
 11
391.2310110871
 21
297.854850181
 72
1
 10
391.2310110871
 20
297.854850181
 11
397.0398575855
 21
298.3343567522
 97
43
330
44F
330
450
330
451
330
452
330
453
330
454
330
455
330
456
330
457
330
458
330
459
330
45A
330
45B
330
45C
330
45D
330
45E
330
45F
330
460
330
461
330
462
330
463
330
464
330
465
330
466
330
467
330
468
330
469
330
46A
330
46B
330
46C
330
46D
330
46E
330
46F
330
470
330
471
330
472
330
473
330
474
330
475
330
476
330
477
330
478
330
479
 75
0
 76
0
 52
135.0
 41
0.625
 77
0
 78
1
 53
135.0
 43
-1067.6767831726
 44
-1067.6767831726
 45
-0.4419417382
 46
-0.4419417382
 79
0
 98
1
 10
0.0
 20
0.0
  0
LINE
  5
47B
100
AcDbEntity
  8
0
100
AcDbLine
 62
7
  6
CONTINUOUS
 10
351.981011
 20
310.610088
 11
351.981011
 21
307.095337
  0
LINE
  5
47C
100
AcDbEntity
  8
0
100
AcDbLine
 62
2
  6
CONTINUOUS
 10
351.981011
 20
307.095337
 11
351.981011
 21
303.32949
  0
LINE
  5
47D
100
AcDbEntity
  8
0
100
AcDbLine
 62
2
  6
CONTINUOUS
 10
351.9810110871
 20
303.3294903009
 11
351.9810110871
 21
307.095336943
  0
LINE
  5
47E
100
AcDbEntity
  8
0
100
AcDbLine
 62
2
  6
CONTINUOUS
 10
351.9810110871
 20
307.095336943
 11
351.9810110871
 21
310.6100876722
  0
LINE
  5
47F
100
AcDbEntity
  8
0
100
AcDbLine
 62
2
  6
CONTINUOUS
 10
360.8310110871
 20
320.013037818
 11
360.8310110871
 21
341.3100876722
  0
LINE
  5
480
100
AcDbEntity
  8
0
100
AcDbLine
 62
2
  6
CONTINUOUS
 10
361.2310110871
 20
370.8141489259
 11
361.2310110871
 21
355.3141479739
  0
LINE
  5
481
100
AcDbEntity
  8
0
100
AcDbLine
 62
2
  6
CONTINUOUS
 10
362.8810110871
 20
344.8442788381
 11
362.8810110871
 21
364.3147268114
  0
LINE
  5
482
100
AcDbEntity
  8
0
100
AcDbLine
 62
2
  6
CONTINUOUS
 10
364.2310110871
 20
364.3151999535
 11
364.2310110871
 21
370.8152003527
  0
LINE
  5
483
100
AcDbEntity
  8
0
100
AcDbLine
 62
2
  6
CONTINUOUS
 10
353.4810110871
 20
312.1100876722
 11
356.2310110871
 21
320.0106144839
  0
LINE
  5
484
100
AcDbEntity
  8
0
100
AcDbLine
 62
2
  6
CONTINUOUS
 10
347.2310110871
 20
304.5228995901
 11
346.5879251403
 21
303.3294903009
  0
LINE
  5
485
100
AcDbEntity
  8
0
100
AcDbLine
 62
2
  6
CONTINUOUS
 10
360.8310110871
 20
341.3100876722
 11
362.8810110871
 21
344.8442788381
  0
LINE
  5
486
100
AcDbEntity
  8
0
100
AcDbLine
 62
2
  6
CONTINUOUS
 10
351.9810110871
 20
310.6100876722
 11
353.4810110871
 21
312.1100876722
  0
LINE
  5
487
100
AcDbEntity
  8
0
100
AcDbLine
 62
2
  6
CONTINUOUS
 10
377.2310110871
 20
370.319756505
 11
377.2308358493
 21
370.8197564743
  0
LINE
  5
488
100
AcDbEntity
  8
0
100
AcDbLine
 62
2
  6
CONTINUOUS
 10
374.2310110871
 20
370.8187051089
 11
374.2310110871
 21
364.3187047096
  0
LINE
  5
489
100
AcDbEntity
  8
0
100
AcDbLine
 62
2
  6
CONTINUOUS
 10
375.5810110871
 20
364.3191778517
 11
375.5810110871
 21
344.794731268
  0
LINE
  5
48A
100
AcDbEntity
  8
0
100
AcDbLine
 62
2
  6
CONTINUOUS
 10
377.2310110871
 20
355.3197555837
 11
377.2310110871
 21
370.319756505
  0
LINE
  5
48B
100
AcDbEntity
  8
0
100
AcDbLine
 62
2
  6
CONTINUOUS
 10
377.6310110871
 20
341.3100876722
 11
377.6310110871
 21
320.0218882556
  0
LINE
  5
48C
100
AcDbEntity
  8
0
100
AcDbLine
 62
2
  6
CONTINUOUS
 10
386.4810110871
 20
310.6100876722
 11
386.4810110871
 21
307.1100876722
  0
LINE
  5
48D
100
AcDbEntity
  8
0
100
AcDbLine
 62
2
  6
CONTINUOUS
 10
386.4810110871
 20
307.1100876722
 11
386.4810110871
 21
303.3294903009
  0
LINE
  5
48E
100
AcDbEntity
  8
0
100
AcDbLine
 62
2
  6
CONTINUOUS
 10
382.2310110871
 20
320.0243115897
 11
384.9810110871
 21
312.1100876722
  0
LINE
  5
48F
100
AcDbEntity
  8
0
100
AcDbLine
 62
2
  6
CONTINUOUS
 10
384.9810110871
 20
312.1100876722
 11
386.4810110871
 21
310.6100876722
  0
LINE
  5
490
100
AcDbEntity
  8
0
100
AcDbLine
 62
2
  6
CONTINUOUS
 10
375.5810110871
 20
344.794731268
 11
377.6310110871
 21
341.3100876722
  0
LINE
  5
491
100
AcDbEntity
  8
0
100
AcDbLine
 62
2
  6
CONTINUOUS
 10
356.2310110871
 20
320.0106144839
 11
360.8310110871
 21
320.013037818
  0
LINE
  5
492
100
AcDbEntity
  8
0
100
AcDbLine
 62
2
  6
CONTINUOUS
 10
377.6310110871
 20
320.0218882556
 11
382.2310110871
 21
320.0243115897
  0
LINE
  5
493
100
AcDbEntity
  8
0
100
AcDbLine
 62
2
  6
CONTINUOUS
 10
346.5879251403
 20
303.3294903009
 11
351.9810110871
 21
303.3294903009
  0
LINE
  5
494
100
AcDbEntity
  8
0
100
AcDbLine
 62
2
  6
CONTINUOUS
 10
386.4810110871
 20
303.3294903009
 11
392.1117735387
 21
303.3294903009
  0
LINE
  5
495
100
AcDbEntity
  8
0
100
AcDbLine
 62
2
  6
CONTINUOUS
 10
362.8810110871
 20
364.3147268114
 11
364.2310110871
 21
364.3151999535
  0
LINE
  5
496
100
AcDbEntity
  8
0
100
AcDbLine
 62
2
  6
CONTINUOUS
 10
374.2310110871
 20
364.3187047096
 11
375.5810110871
 21
364.3191778517
  0
LINE
  5
497
100
AcDbEntity
  8
0
100
AcDbLine
 62
2
  6
CONTINUOUS
 10
377.2308358493
 20
370.8197564743
 11
374.2310110871
 21
370.8187051089
  0
LINE
  5
498
100
AcDbEntity
  8
0
100
AcDbLine
 62
2
  6
CONTINUOUS
 10
364.2310110871
 20
370.8152003527
 11
361.2310110871
 21
370.8141489259
  0
ARC
  5
499
100
AcDbEntity
  8
0
100
AcDbCircle
 62
2
  6
CONTINUOUS
 10
232.3614975828
 20
363.5103972513
 40
129.129895892
100
AcDbArc
 50
332.8187112231
 51
356.3608241936
  0
ARC
  5
49A
100
AcDbEntity
  8
0
100
AcDbCircle
 62
2
  6
CONTINUOUS
 10
529.0356682066
 20
370.6448678839
 40
152.5762530349
100
AcDbArc
 50
185.7646415894
 51
206.179941501
  0
HATCH
  5
49B
100
AcDbEntity
  8
0
100
AcDbHatch
 62
2
  6
CONTINUOUS
 10
0.0
 20
0.0
 30
0.0
210
0.0
220
0.0
230
1.0
  2
dxsec_6
 70
0
 71
1
 91
2
 92
1
 93
15
 72
1
 10
351.9810110871
 20
307.095336943
 11
351.9810110871
 21
310.6100876722
 72
1
 10
351.9810110871
 20
310.6100876722
 11
353.4810110871
 21
312.1100876722
 72
1
 10
353.4810110871
 20
312.1100876722
 11
356.2310110871
 21
320.0106144839
 72
1
 10
356.2310110871
 20
320.0106144839
 11
360.8310110871
 21
320.013037818
 72
1
 10
360.8310110871
 20
320.013037818
 11
360.8310110871
 21
341.3100876722
 72
1
 10
360.8310110871
 20
341.3100876722
 11
362.8810110871
 21
344.8442788381
 72
1
 10
362.8810110871
 20
344.8442788381
 11
362.8810110871
 21
364.3147268114
 72
1
 10
362.8810110871
 20
364.3147268114
 11
364.2310110871
 21
364.3151999535
 72
1
 10
364.2310110871
 20
364.3151999535
 11
364.2310110871
 21
370.8152003527
 72
1
 10
364.2310110871
 20
370.8152003527
 11
361.2310110871
 21
370.8141489259
 72
1
 10
361.2310110871
 20
370.8141489259
 11
361.2310110871
 21
355.3141479739
 72
2
 10
232.3614975828
 20
363.5103972513
 40
129.129895892
 50
332.8187112231
 51
356.3608241936
 73
1
 72
1
 10
347.2310110871
 20
304.5228995901
 11
346.5879251403
 21
303.3294903009
 72
1
 10
346.5879251403
 20
303.3294903009
 11
351.9810110871
 21
303.3294903009
 72
1
 10
351.9810110871
 20
303.3294903009
 11
351.9810110871
 21
307.095336943
 97
30
330
47D
330
47E
330
47F
330
480
330
481
330
482
330
483
330
484
330
485
330
486
330
487
330
488
330
489
330
48A
330
48B
330
48C
330
48D
330
48E
330
48F
330
490
330
491
330
492
330
493
330
494
330
495
330
496
330
497
330
498
330
499
330
49A
 92
1
 93
15
 72
1
 10
377.2308358493
 20
370.8197564743
 11
374.2310110871
 21
370.8187051089
 72
1
 10
374.2310110871
 20
370.8187051089
 11
374.2310110871
 21
364.3187047096
 72
1
 10
374.2310110871
 20
364.3187047096
 11
375.5810110871
 21
364.3191778517
 72
1
 10
375.5810110871
 20
364.3191778517
 11
375.5810110871
 21
344.794731268
 72
1
 10
375.5810110871
 20
344.794731268
 11
377.6310110871
 21
341.3100876722
 72
1
 10
377.6310110871
 20
341.3100876722
 11
377.6310110871
 21
320.0218882556
 72
1
 10
377.6310110871
 20
320.0218882556
 11
382.2310110871
 21
320.0243115897
 72
1
 10
382.2310110871
 20
320.0243115897
 11
384.9810110871
 21
312.1100876722
 72
1
 10
384.9810110871
 20
312.1100876722
 11
386.4810110871
 21
310.6100876722
 72
1
 10
386.4810110871
 20
310.6100876722
 11
386.4810110871
 21
307.1100876722
 72
1
 10
386.4810110871
 20
307.1100876722
 11
386.4810110871
 21
303.3294903009
 72
1
 10
386.4810110871
 20
303.3294903009
 11
392.1117735387
 21
303.3294903009
 72
2
 10
529.0356682066
 20
370.6448678839
 40
152.5762530349
 50
185.7646415894
 51
206.179941501
 73
1
 72
1
 10
377.2310110871
 20
355.3197555837
 11
377.2310110871
 21
370.319756505
 72
1
 10
377.2310110871
 20
370.319756505
 11
377.2308358493
 21
370.8197564743
 97
30
330
47D
330
47E
330
47F
330
480
330
481
330
482
330
483
330
484
330
485
330
486
330
487
330
488
330
489
330
48A
330
48B
330
48C
330
48D
330
48E
330
48F
330
490
330
491
330
492
330
493
330
494
330
495
330
496
330
497
330
498
330
499
330
49A
 75
0
 76
0
 52
60.0
 41
1.25
 77
0
 78
1
 53
60.0
 43
0.0
 44
0.0
 45
-1.0825317547
 46
0.625
 79
0
 98
1
 10
0.0
 20
0.0
  0
LINE
  5
49C
100
AcDbEntity
  8
0
100
AcDbLine
 62
2
  6
CONTINUOUS
 10
353.481011
 20
312.110088
 11
353.481011
 21
306.241656
  0
LINE
  5
49D
100
AcDbEntity
  8
0
100
AcDbLine
 62
7
  6
CONTINUOUS
 10
353.481011
 20
306.241656
 11
353.481011
 21
303.32949
  0
LINE
  5
49E
100
AcDbEntity
  8
0
100
AcDbLine
 62
2
  6
CONTINUOUS
 10
353.481011
 20
298.596446
 11
353.481011
 21
297.096446
  0
LINE
  5
49F
100
AcDbEntity
  8
0
100
AcDbLine
 62
7
  6
CONTINUOUS
 10
355.231011
 20
269.596446
 11
355.231011
 21
312.110088
  0
LINE
  5
4A0
100
AcDbEntity
  8
0
100
AcDbLine
 62
7
  6
CONTINUOUS
 10
357.231011
 20
305.824838
 11
357.231011
 21
308.524838
  0
LINE
  5
4A1
100
AcDbEntity
  8
0
100
AcDbLine
 62
7
  6
CONTINUOUS
 10
357.231011
 20
311.024838
 11
357.231011
 21
313.024838
  0
LINE
  5
4A2
100
AcDbEntity
  8
0
100
AcDbLine
 62
2
  6
CONTINUOUS
 10
357.731011
 20
310.736163
 11
357.731011
 21
313.313514
  0
LINE
  5
4A3
100
AcDbEntity
  8
0
100
AcDbLine
 62
7
  6
CONTINUOUS
 10
358.231011
 20
294.990569
 11
358.231011
 21
269.596446
  0
LINE
  5
4A4
100
AcDbEntity
  8
0
100
AcDbLine
 62
7
  6
CONTINUOUS
 10
358.231011
 20
308.524838
 11
358.231011
 21
310.524838
  0
LINE
  5
4A5
100
AcDbEntity
  8
0
100
AcDbLine
 62
2
  6
CONTINUOUS
 10
358.731011
 20
303.824838
 11
358.731011
 21
303.103151
  0
LINE
  5
4A6
100
AcDbEntity
  8
0
100
AcDbLine
 62
7
  6
CONTINUOUS
 10
358.731011
 20
303.103151
 11
358.731011
 21
297.546526
  0
LINE
  5
4A7
100
AcDbEntity
  8
0
100
AcDbLine
 62
2
  6
CONTINUOUS
 10
358.731011
 20
297.546526
 11
358.731011
 21
295.279244
  0
LINE
  5
4A8
100
AcDbEntity
  8
0
100
AcDbLine
 62
7
  6
CONTINUOUS
 10
359.416057
 20
313.497468
 11
359.416057
 21
317.497468
  0
LINE
  5
4A9
100
AcDbEntity
  8
0
100
AcDbLine
 62
2
  6
CONTINUOUS
 10
359.681011
 20
303.824838
 11
359.681011
 21
295.827726
  0
LINE
  5
4AA
100
AcDbEntity
  8
0
100
AcDbLine
 62
2
  6
CONTINUOUS
 10
359.731011
 20
303.680501
 11
359.731011
 21
296.969176
  0
LINE
  5
4AB
100
AcDbEntity
  8
0
100
AcDbLine
 62
7
  6
CONTINUOUS
 10
359.981011
 20
305.824838
 11
359.981011
 21
303.824838
  0
LINE
  5
4AC
100
AcDbEntity
  8
0
100
AcDbLine
 62
7
  6
CONTINUOUS
 10
359.981011
 20
292.824838
 11
359.981011
 21
284.824838
  0
LINE
  5
4AD
100
AcDbEntity
  8
0
100
AcDbLine
 62
7
  6
CONTINUOUS
 10
360.731011
 20
284.824838
 11
360.731011
 21
283.824838
  0
LINE
  5
4AE
100
AcDbEntity
  8
0
100
AcDbLine
 62
7
  6
CONTINUOUS
 10
360.731011
 20
273.824838
 11
360.731011
 21
271.824838
  0
LINE
  5
4AF
100
AcDbEntity
  8
0
100
AcDbLine
 62
7
  6
CONTINUOUS
 10
360.831011
 20
341.310088
 11
360.831011
 21
320.013038
  0
LINE
  5
4B0
100
AcDbEntity
  8
0
100
AcDbLine
 62
7
  6
CONTINUOUS
 10
361.231011
 20
370.814149
 11
361.231011
 21
355.314148
  0
LINE
  5
4B1
100
AcDbEntity
  8
0
100
AcDbLine
 62
7
  6
CONTINUOUS
 10
361.231011
 20
293.624838
 11
361.231011
 21
292.824838
  0
LINE
  5
4B2
100
AcDbEntity
  8
0
100
AcDbLine
 62
7
  6
CONTINUOUS
 10
361.429259
 20
375.314219
 11
361.429259
 21
375.414192
  0
LINE
  5
4B3
100
AcDbEntity
  8
0
100
AcDbLine
 62
7
  6
CONTINUOUS
 10
361.431011
 20
283.724838
 11
361.431011
 21
273.824838
  0
LINE
  5
4B4
100
AcDbEntity
  8
0
100
AcDbLine
 62
7
  6
CONTINUOUS
 10
362.481011
 20
332.840666
 11
362.481011
 21
325.840666
  0
LINE
  5
4B5
100
AcDbEntity
  8
0
100
AcDbLine
 62
7
  6
CONTINUOUS
 10
362.881011
 20
371.314727
 11
362.881011
 21
370.814727
  0
LINE
  5
4B6
100
AcDbEntity
  8
0
100
AcDbLine
 62
7
  6
CONTINUOUS
 10
362.881011
 20
364.314727
 11
362.881011
 21
344.844279
  0
LINE
  5
4B7
100
AcDbEntity
  8
0
100
AcDbLine
 62
7
  6
CONTINUOUS
 10
363.231011
 20
296.824838
 11
363.231011
 21
293.624838
  0
LINE
  5
4B8
100
AcDbEntity
  8
0
100
AcDbLine
 62
7
  6
CONTINUOUS
 10
363.323534
 20
313.497468
 11
363.323534
 21
317.497468
  0
LINE
  5
4B9
100
AcDbEntity
  8
0
100
AcDbLine
 62
7
  6
CONTINUOUS
 10
363.731011
 20
282.824838
 11
363.731011
 21
269.596446
  0
LINE
  5
4BA
100
AcDbEntity
  8
0
100
AcDbLine
 62
7
  6
CONTINUOUS
 10
363.981011
 20
337.640666
 11
363.981011
 21
324.340666
  0
LINE
  5
4BB
100
AcDbEntity
  8
0
100
AcDbLine
 62
7
  6
CONTINUOUS
 10
364.231011
 20
370.8152
 11
364.231011
 21
364.3152
  0
LINE
  5
4BC
100
AcDbEntity
  8
0
100
AcDbLine
 62
7
  6
CONTINUOUS
 10
364.231011
 20
296.824838
 11
364.231011
 21
293.624838
  0
LINE
  5
4BD
100
AcDbEntity
  8
0
100
AcDbLine
 62
7
  6
CONTINUOUS
 10
364.323534
 20
313.497468
 11
364.323534
 21
317.497468
  0
LINE
  5
4BE
100
AcDbEntity
  8
0
100
AcDbLine
 62
7
  6
CONTINUOUS
 10
364.381011
 20
361.815252
 11
364.381011
 21
354.815252
  0
LINE
  5
4BF
100
AcDbEntity
  8
0
100
AcDbLine
 62
7
  6
CONTINUOUS
 10
364.731011
 20
324.340666
 11
364.731011
 21
318.497468
  0
LINE
  5
4C0
100
AcDbEntity
  8
0
100
AcDbLine
 62
7
  6
CONTINUOUS
 10
364.931011
 20
365.115445
 11
364.931011
 21
363.315445
  0
LINE
  5
4C1
100
AcDbEntity
  8
0
100
AcDbLine
 62
7
  6
CONTINUOUS
 10
365.231011
 20
378.415551
 11
365.231011
 21
367.415551
  0
LINE
  5
4C2
100
AcDbEntity
  8
0
100
AcDbLine
 62
7
  6
CONTINUOUS
 10
365.231011
 20
353.040666
 11
365.231011
 21
337.640666
  0
LINE
  5
4C3
100
AcDbEntity
  8
0
100
AcDbLine
 62
7
  6
CONTINUOUS
 10
365.231011
 20
296.824838
 11
365.231011
 21
292.824838
  0
LINE
  5
4C4
100
AcDbEntity
  8
0
100
AcDbLine
 62
7
  6
CONTINUOUS
 10
365.431011
 20
335.324838
 11
365.431011
 21
324.61444
  0
LINE
  5
4C5
100
AcDbEntity
  8
0
100
AcDbLine
 62
7
  6
CONTINUOUS
 10
347.233499
 20
298.596446
 11
347.231011
 21
297.310088
  0
LINE
  5
4C6
100
AcDbEntity
  8
0
100
AcDbLine
 62
7
  6
CONTINUOUS
 10
353.481011
 20
312.110088
 11
356.231011
 21
320.010614
  0
LINE
  5
4C7
100
AcDbEntity
  8
0
100
AcDbLine
 62
7
  6
CONTINUOUS
 10
347.231011
 20
304.5229
 11
346.587925
 21
303.32949
  0
LINE
  5
4C8
100
AcDbEntity
  8
0
100
AcDbLine
 62
7
  6
CONTINUOUS
 10
360.831011
 20
341.310088
 11
362.881011
 21
344.844279
  0
LINE
  5
4C9
100
AcDbEntity
  8
0
100
AcDbLine
 62
2
  6
CONTINUOUS
 10
364.381011
 20
359.626423
 11
367.181011
 21
362.426423
  0
LINE
  5
4CA
100
AcDbEntity
  8
0
100
AcDbLine
 62
2
  6
CONTINUOUS
 10
371.281011
 20
366.526423
 11
373.231011
 21
368.476423
  0
LINE
  5
4CB
100
AcDbEntity
  8
0
100
AcDbLine
 62
2
  6
CONTINUOUS
 10
364.381011
 20
357.858656
 11
367.181011
 21
360.658656
  0
LINE
  5
4CC
100
AcDbEntity
  8
0
100
AcDbLine
 62
2
  6
CONTINUOUS
 10
371.281011
 20
364.758656
 11
372.531011
 21
366.008656
  0
LINE
  5
4CD
100
AcDbEntity
  8
0
100
AcDbLine
 62
2
  6
CONTINUOUS
 10
362.881011
 20
354.590889
 11
363.104926
 21
354.814804
  0
LINE
  5
4CE
100
AcDbEntity
  8
0
100
AcDbLine
 62
2
  6
CONTINUOUS
 10
364.381011
 20
356.090889
 11
367.181011
 21
358.890889
  0
LINE
  5
4CF
100
AcDbEntity
  8
0
100
AcDbLine
 62
2
  6
CONTINUOUS
 10
371.281011
 20
362.990889
 11
373.408538
 21
365.118416
  0
LINE
  5
4D0
100
AcDbEntity
  8
0
100
AcDbLine
 62
2
  6
CONTINUOUS
 10
362.881011
 20
352.823122
 11
367.181011
 21
357.123122
  0
LINE
  5
4D1
100
AcDbEntity
  8
0
100
AcDbLine
 62
2
  6
CONTINUOUS
 10
371.281011
 20
361.223122
 11
373.531011
 21
363.473122
  0
LINE
  5
4D2
100
AcDbEntity
  8
0
100
AcDbLine
 62
2
  6
CONTINUOUS
 10
362.881011
 20
351.055355
 11
367.181011
 21
355.355355
  0
LINE
  5
4D3
100
AcDbEntity
  8
0
100
AcDbLine
 62
2
  6
CONTINUOUS
 10
371.281011
 20
359.455355
 11
375.14468
 21
363.319024
  0
LINE
  5
4D4
100
AcDbEntity
  8
0
100
AcDbLine
 62
2
  6
CONTINUOUS
 10
362.881011
 20
349.287588
 11
365.231011
 21
351.637588
  0
LINE
  5
4D5
100
AcDbEntity
  8
0
100
AcDbLine
 62
2
  6
CONTINUOUS
 10
371.281011
 20
357.687588
 11
374.081011
 21
360.487588
  0
LINE
  5
4D6
100
AcDbEntity
  8
0
100
AcDbLine
 62
2
  6
CONTINUOUS
 10
375.412541
 20
361.819118
 11
375.581011
 21
361.987588
  0
LINE
  5
4D7
100
AcDbEntity
  8
0
100
AcDbLine
 62
2
  6
CONTINUOUS
 10
362.881011
 20
347.519821
 11
365.231011
 21
349.869821
  0
LINE
  5
4D8
100
AcDbEntity
  8
0
100
AcDbLine
 62
2
  6
CONTINUOUS
 10
371.281011
 20
355.919821
 11
374.081011
 21
358.719821
  0
LINE
  5
4D9
100
AcDbEntity
  8
0
100
AcDbLine
 62
2
  6
CONTINUOUS
 10
362.881011
 20
345.752054
 11
365.231011
 21
348.102054
  0
LINE
  5
4DA
100
AcDbEntity
  8
0
100
AcDbLine
 62
2
  6
CONTINUOUS
 10
371.610276
 20
354.481319
 11
374.081011
 21
356.952054
  0
LINE
  5
4DB
100
AcDbEntity
  8
0
100
AcDbLine
 62
2
  6
CONTINUOUS
 10
372.546152
 20
353.649429
 11
374.081011
 21
355.184287
  0
LINE
  5
4DC
100
AcDbEntity
  8
0
100
AcDbLine
 62
2
  6
CONTINUOUS
 10
361.69317
 20
342.796447
 11
365.231011
 21
346.334287
  0
LINE
  5
4DD
100
AcDbEntity
  8
0
100
AcDbLine
 62
2
  6
CONTINUOUS
 10
360.831011
 20
340.16652
 11
365.231011
 21
344.56652
  0
LINE
  5
4DE
100
AcDbEntity
  8
0
100
AcDbLine
 62
2
  6
CONTINUOUS
 10
373.231011
 20
352.56652
 11
375.483633
 21
354.819143
  0
LINE
  5
4DF
100
AcDbEntity
  8
0
100
AcDbLine
 62
2
  6
CONTINUOUS
 10
360.831011
 20
338.398753
 11
365.231011
 21
342.798753
  0
LINE
  5
4E0
100
AcDbEntity
  8
0
100
AcDbLine
 62
2
  6
CONTINUOUS
 10
373.231011
 20
350.798753
 11
375.581011
 21
353.148753
  0
LINE
  5
4E1
100
AcDbEntity
  8
0
100
AcDbLine
 62
2
  6
CONTINUOUS
 10
360.831011
 20
336.630986
 11
365.231011
 21
341.030986
  0
LINE
  5
4E2
100
AcDbEntity
  8
0
100
AcDbLine
 62
2
  6
CONTINUOUS
 10
373.231011
 20
349.030986
 11
375.581011
 21
351.380986
  0
LINE
  5
4E3
100
AcDbEntity
  8
0
100
AcDbLine
 62
2
  6
CONTINUOUS
 10
360.831011
 20
334.863219
 11
365.231011
 21
339.263219
  0
LINE
  5
4E4
100
AcDbEntity
  8
0
100
AcDbLine
 62
2
  6
CONTINUOUS
 10
373.231011
 20
347.263219
 11
375.581011
 21
349.613219
  0
LINE
  5
4E5
100
AcDbEntity
  8
0
100
AcDbLine
 62
2
  6
CONTINUOUS
 10
360.831011
 20
333.095452
 11
363.981011
 21
336.245452
  0
LINE
  5
4E6
100
AcDbEntity
  8
0
100
AcDbLine
 62
2
  6
CONTINUOUS
 10
373.231011
 20
345.495452
 11
375.581011
 21
347.845452
  0
LINE
  5
4E7
100
AcDbEntity
  8
0
100
AcDbLine
 62
2
  6
CONTINUOUS
 10
373.231011
 20
343.727685
 11
375.581011
 21
346.077685
  0
LINE
  5
4E8
100
AcDbEntity
  8
0
100
AcDbLine
 62
2
  6
CONTINUOUS
 10
362.343991
 20
332.840666
 11
363.981011
 21
334.477685
  0
LINE
  5
4E9
100
AcDbEntity
  8
0
100
AcDbLine
 62
7
  6
CONTINUOUS
 10
366.431011
 20
336.324838
 11
365.431011
 21
335.324838
  0
LINE
  5
4EA
100
AcDbEntity
  8
0
100
AcDbLine
 62
2
  6
CONTINUOUS
 10
365.431011
 20
334.789826
 11
366.966024
 21
336.324838
  0
LINE
  5
4EB
100
AcDbEntity
  8
0
100
AcDbLine
 62
2
  6
CONTINUOUS
 10
362.481011
 20
331.209918
 11
363.981011
 21
332.709918
  0
LINE
  5
4EC
100
AcDbEntity
  8
0
100
AcDbLine
 62
2
  6
CONTINUOUS
 10
373.231011
 20
341.959918
 11
375.760583
 21
344.48949
  0
LINE
  5
4ED
100
AcDbEntity
  8
0
100
AcDbLine
 62
2
  6
CONTINUOUS
 10
365.431011
 20
333.729166
 11
367.231011
 21
335.529166
  0
LINE
  5
4EE
100
AcDbEntity
  8
0
100
AcDbLine
 62
2
  6
CONTINUOUS
 10
365.431011
 20
332.668506
 11
367.231011
 21
334.468506
  0
LINE
  5
4EF
100
AcDbEntity
  8
0
100
AcDbLine
 62
2
  6
CONTINUOUS
 10
362.481011
 20
329.442151
 11
363.981011
 21
330.942151
  0
LINE
  5
4F0
100
AcDbEntity
  8
0
100
AcDbLine
 62
2
  6
CONTINUOUS
 10
373.231011
 20
340.192151
 11
376.415353
 21
343.376494
  0
LINE
  5
4F1
100
AcDbEntity
  8
0
100
AcDbLine
 62
2
  6
CONTINUOUS
 10
365.431011
 20
331.607845
 11
367.231011
 21
333.407845
  0
LINE
  5
4F2
100
AcDbEntity
  8
0
100
AcDbLine
 62
2
  6
CONTINUOUS
 10
362.481011
 20
327.674384
 11
363.981011
 21
329.174384
  0
LINE
  5
4F3
100
AcDbEntity
  8
0
100
AcDbLine
 62
2
  6
CONTINUOUS
 10
373.231011
 20
338.424384
 11
377.070124
 21
342.263498
  0
LINE
  5
4F4
100
AcDbEntity
  8
0
100
AcDbLine
 62
2
  6
CONTINUOUS
 10
365.431011
 20
330.547185
 11
367.231011
 21
332.347185
  0
LINE
  5
4F5
100
AcDbEntity
  8
0
100
AcDbLine
 62
2
  6
CONTINUOUS
 10
365.431011
 20
329.486525
 11
367.231011
 21
331.286525
  0
LINE
  5
4F6
100
AcDbEntity
  8
0
100
AcDbLine
 62
2
  6
CONTINUOUS
 10
371.231011
 20
335.286525
 11
372.150168
 21
336.205682
  0
LINE
  5
4F7
100
AcDbEntity
  8
0
100
AcDbLine
 62
2
  6
CONTINUOUS
 10
360.915059
 20
324.340666
 11
362.415059
 21
325.840666
  0
LINE
  5
4F8
100
AcDbEntity
  8
0
100
AcDbLine
 62
2
  6
CONTINUOUS
 10
362.481011
 20
325.906618
 11
363.981011
 21
327.406618
  0
LINE
  5
4F9
100
AcDbEntity
  8
0
100
AcDbLine
 62
2
  6
CONTINUOUS
 10
374.215059
 20
337.640666
 11
377.631011
 21
341.056618
  0
LINE
  5
4FA
100
AcDbEntity
  8
0
100
AcDbLine
 62
2
  6
CONTINUOUS
 10
365.431011
 20
328.425865
 11
367.231011
 21
330.225865
  0
LINE
  5
4FB
100
AcDbEntity
  8
0
100
AcDbLine
 62
2
  6
CONTINUOUS
 10
371.231011
 20
334.225865
 11
372.680498
 21
335.675352
  0
LINE
  5
4FC
100
AcDbEntity
  8
0
100
AcDbLine
 62
2
  6
CONTINUOUS
 10
365.431011
 20
327.365205
 11
367.231011
 21
329.165205
  0
LINE
  5
4FD
100
AcDbEntity
  8
0
100
AcDbLine
 62
2
  6
CONTINUOUS
 10
371.231011
 20
333.165205
 11
373.031011
 21
334.965205
  0
LINE
  5
4FE
100
AcDbEntity
  8
0
100
AcDbLine
 62
2
  6
CONTINUOUS
 10
362.682826
 20
324.340666
 11
363.981011
 21
325.638851
  0
LINE
  5
4FF
100
AcDbEntity
  8
0
100
AcDbLine
 62
2
  6
CONTINUOUS
 10
374.481011
 20
336.138851
 11
377.631011
 21
339.288851
  0
LINE
  5
500
100
AcDbEntity
  8
0
100
AcDbLine
 62
2
  6
CONTINUOUS
 10
365.9049
 20
326.778434
 11
367.581011
 21
328.454545
  0
LINE
  5
501
100
AcDbEntity
  8
0
100
AcDbLine
 62
2
  6
CONTINUOUS
 10
371.231011
 20
332.104545
 11
373.031011
 21
333.904545
  0
LINE
  5
502
100
AcDbEntity
  8
0
100
AcDbLine
 62
2
  6
CONTINUOUS
 10
374.481011
 20
334.371084
 11
377.631011
 21
337.521084
  0
LINE
  5
503
100
AcDbEntity
  8
0
100
AcDbLine
 62
2
  6
CONTINUOUS
 10
366.357346
 20
326.170219
 11
367.581011
 21
327.393884
  0
LINE
  5
504
100
AcDbEntity
  8
0
100
AcDbLine
 62
2
  6
CONTINUOUS
 10
371.231011
 20
331.043884
 11
373.031011
 21
332.843884
  0
LINE
  5
505
100
AcDbEntity
  8
0
100
AcDbLine
 62
2
  6
CONTINUOUS
 10
367.210345
 20
325.962558
 11
368.209669
 21
326.961882
  0
LINE
  5
506
100
AcDbEntity
  8
0
100
AcDbLine
 62
2
  6
CONTINUOUS
 10
371.231011
 20
329.983224
 11
373.031011
 21
331.783224
  0
LINE
  5
507
100
AcDbEntity
  8
0
100
AcDbLine
 62
7
  6
CONTINUOUS
 10
353.481011
 20
312.110088
 11
351.981011
 21
310.610088
  0
LINE
  5
508
100
AcDbEntity
  8
0
100
AcDbLine
 62
2
  6
CONTINUOUS
 10
374.481011
 20
332.603317
 11
377.631011
 21
335.753317
  0
LINE
  5
509
100
AcDbEntity
  8
0
100
AcDbLine
 62
7
  6
CONTINUOUS
 10
359.416057
 20
317.497468
 11
360.416057
 21
318.497468
  0
LINE
  5
50A
100
AcDbEntity
  8
0
100
AcDbLine
 62
2
  6
CONTINUOUS
 10
368.063343
 20
325.754896
 11
368.882101
 21
326.573654
  0
LINE
  5
50B
100
AcDbEntity
  8
0
100
AcDbLine
 62
2
  6
CONTINUOUS
 10
371.231011
 20
328.922564
 11
373.031011
 21
330.722564
  0
LINE
  5
50C
100
AcDbEntity
  8
0
100
AcDbLine
 62
2
  6
CONTINUOUS
 10
371.231011
 20
328.824838
 11
370.881011
 21
328.474838
  0
LINE
  5
50D
100
AcDbEntity
  8
0
100
AcDbLine
 62
2
  6
CONTINUOUS
 10
368.916342
 20
325.547234
 11
370.438409
 21
327.069302
  0
LINE
  5
50E
100
AcDbEntity
  8
0
100
AcDbLine
 62
2
  6
CONTINUOUS
 10
370.881011
 20
327.511904
 11
373.031011
 21
329.661904
  0
LINE
  5
50F
100
AcDbEntity
  8
0
100
AcDbLine
 62
2
  6
CONTINUOUS
 10
374.481011
 20
330.83555
 11
375.981011
 21
332.33555
  0
LINE
  5
510
100
AcDbEntity
  8
0
100
AcDbLine
 62
2
  6
CONTINUOUS
 10
376.486127
 20
332.840666
 11
377.631011
 21
333.98555
  0
LINE
  5
511
100
AcDbEntity
  8
0
100
AcDbLine
 62
2
  6
CONTINUOUS
 10
369.901154
 20
325.471386
 11
373.031011
 21
328.601244
  0
LINE
  5
512
100
AcDbEntity
  8
0
100
AcDbLine
 62
2
  6
CONTINUOUS
 10
374.481011
 20
329.067783
 11
375.981011
 21
330.567783
  0
LINE
  5
513
100
AcDbEntity
  8
0
100
AcDbLine
 62
2
  6
CONTINUOUS
 10
371.71349
 20
326.223063
 11
373.031011
 21
327.540584
  0
LINE
  5
514
100
AcDbEntity
  8
0
100
AcDbLine
 62
7
  6
CONTINUOUS
 10
373.031011
 20
327.324838
 11
372.807357
 21
327.101184
  0
LINE
  5
515
100
AcDbEntity
  8
0
100
AcDbLine
 62
7
  6
CONTINUOUS
 10
367.481011
 20
355.040666
 11
365.231011
 21
353.040666
  0
LINE
  5
516
100
AcDbEntity
  8
0
100
AcDbLine
 62
7
  6
CONTINUOUS
 10
365.431011
 20
335.11444
 11
363.981011
 21
333.912112
  0
LINE
  5
517
100
AcDbEntity
  8
0
100
AcDbLine
 62
7
  6
CONTINUOUS
 10
256.809257
 20
314.569904
 11
256.713964
 21
314.529752
  0
LINE
  5
518
100
AcDbEntity
  8
0
100
AcDbLine
 62
7
  6
CONTINUOUS
 10
256.629238
 20
314.658109
 11
256.691726
 21
314.681128
  0
LINE
  5
519
100
AcDbEntity
  8
0
100
AcDbLine
 62
7
  6
CONTINUOUS
 10
245.447841
 20
313.396189
 11
245.295815
 21
313.342284
  0
LINE
  5
51A
100
AcDbEntity
  8
0
100
AcDbLine
 62
7
  6
CONTINUOUS
 10
244.681566
 20
315.595138
 11
244.547746
 21
315.548385
  0
LINE
  5
51B
100
AcDbEntity
  8
0
100
AcDbLine
 62
7
  6
CONTINUOUS
 10
245.258426
 20
313.48914
 11
245.392343
 21
313.535893
  0
LINE
  5
51C
100
AcDbEntity
  8
0
100
AcDbLine
 62
7
  6
CONTINUOUS
 10
244.487762
 20
315.68939
 11
244.640503
 21
315.742677
  0
LINE
  5
51D
100
AcDbEntity
  8
0
100
AcDbLine
 62
7
  6
CONTINUOUS
 10
245.517644
 20
315.485182
 11
245.392343
 21
315.548385
  0
LINE
  5
51E
100
AcDbEntity
  8
0
100
AcDbLine
 62
7
  6
CONTINUOUS
 10
244.42251
 20
313.599096
 11
244.547746
 21
313.535893
  0
LINE
  5
51F
100
AcDbEntity
  8
0
100
AcDbLine
 62
7
  6
CONTINUOUS
 10
245.447841
 20
315.68939
 11
245.590504
 21
315.617376
  0
LINE
  5
520
100
AcDbEntity
  8
0
100
AcDbLine
 62
7
  6
CONTINUOUS
 10
244.487762
 20
313.396189
 11
244.344936
 21
313.468983
  0
LINE
  5
521
100
AcDbEntity
  8
0
100
AcDbLine
 62
7
  6
CONTINUOUS
 10
256.747126
 20
315.513403
 11
256.691726
 21
315.543249
  0
LINE
  5
522
100
AcDbEntity
  8
0
100
AcDbLine
 62
7
  6
CONTINUOUS
 10
241.35975
 20
314.4078
 11
242.986292
 21
313.345177
  0
LINE
  5
523
100
AcDbEntity
  8
0
100
AcDbLine
 62
7
  6
CONTINUOUS
 10
245.590504
 20
315.617376
 11
245.722177
 21
315.528065
  0
LINE
  5
524
100
AcDbEntity
  8
0
100
AcDbLine
 62
7
  6
CONTINUOUS
 10
245.632997
 20
315.406796
 11
245.517644
 21
315.485182
  0
LINE
  5
525
100
AcDbEntity
  8
0
100
AcDbLine
 62
7
  6
CONTINUOUS
 10
257.161459
 20
313.345177
 11
255.648481
 21
314.465021
  0
LINE
  5
526
100
AcDbEntity
  8
0
100
AcDbLine
 62
7
  6
CONTINUOUS
 10
256.825253
 20
315.645694
 11
256.90016
 21
315.589123
  0
LINE
  5
527
100
AcDbEntity
  8
0
100
AcDbLine
 62
2
  6
CONTINUOUS
 10
358.231011
 20
269.993196
 11
355.231011
 21
272.993196
  0
LINE
  5
528
100
AcDbEntity
  8
0
100
AcDbLine
 62
2
  6
CONTINUOUS
 10
358.231011
 20
271.760963
 11
355.231011
 21
274.760963
  0
LINE
  5
529
100
AcDbEntity
  8
0
100
AcDbLine
 62
2
  6
CONTINUOUS
 10
358.231011
 20
273.52873
 11
355.231011
 21
276.52873
  0
LINE
  5
52A
100
AcDbEntity
  8
0
100
AcDbLine
 62
7
  6
CONTINUOUS
 10
360.731011
 20
271.824838
 11
361.731011
 21
270.824838
  0
LINE
  5
52B
100
AcDbEntity
  8
0
100
AcDbLine
 62
2
  6
CONTINUOUS
 10
358.231011
 20
275.296497
 11
355.231011
 21
278.296497
  0
LINE
  5
52C
100
AcDbEntity
  8
0
100
AcDbLine
 62
2
  6
CONTINUOUS
 10
358.231011
 20
277.064264
 11
355.231011
 21
280.064264
  0
LINE
  5
52D
100
AcDbEntity
  8
0
100
AcDbLine
 62
2
  6
CONTINUOUS
 10
358.231011
 20
278.832031
 11
355.231011
 21
281.832031
  0
LINE
  5
52E
100
AcDbEntity
  8
0
100
AcDbLine
 62
2
  6
CONTINUOUS
 10
358.231011
 20
280.599798
 11
355.231011
 21
283.599798
  0
LINE
  5
52F
100
AcDbEntity
  8
0
100
AcDbLine
 62
2
  6
CONTINUOUS
 10
356.8616489127
 20
269.590316285
 11
355.231011
 21
271.225429
  0
LINE
  5
530
100
AcDbEntity
  8
0
100
AcDbLine
 62
7
  6
CONTINUOUS
 10
358.031011
 20
305.824838
 11
358.631011
 21
303.824838
  0
LINE
  5
531
100
AcDbEntity
  8
0
100
AcDbLine
 62
7
  6
CONTINUOUS
 10
377.229072
 20
375.851219
 11
377.229083
 21
375.819756
  0
LINE
  5
532
100
AcDbEntity
  8
0
100
AcDbLine
 62
7
  6
CONTINUOUS
 10
377.231011
 20
370.319757
 11
377.230836
 21
370.819756
  0
LINE
  5
533
100
AcDbEntity
  8
0
100
AcDbLine
 62
7
  6
CONTINUOUS
 10
377.721984
 20
396.077633
 11
377.724968
 21
387.562228
  0
LINE
  5
534
100
AcDbEntity
  8
0
100
AcDbLine
 62
7
  6
CONTINUOUS
 10
365.931011
 20
367.415796
 11
365.931011
 21
365.115796
  0
LINE
  5
535
100
AcDbEntity
  8
0
100
AcDbLine
 62
7
  6
CONTINUOUS
 10
366.231011
 20
296.824838
 11
366.231011
 21
292.824838
  0
LINE
  5
536
100
AcDbEntity
  8
0
100
AcDbLine
 62
7
  6
CONTINUOUS
 10
367.181011
 20
378.416235
 11
367.181011
 21
354.774
  0
LINE
  5
537
100
AcDbEntity
  8
0
100
AcDbLine
 62
2
  6
CONTINUOUS
 10
367.231011
 20
336.324838
 11
367.231011
 21
328.824838
  0
LINE
  5
538
100
AcDbEntity
  8
0
100
AcDbLine
 62
7
  6
CONTINUOUS
 10
367.481011
 20
378.41634
 11
367.481011
 21
355.040666
  0
LINE
  5
539
100
AcDbEntity
  8
0
100
AcDbLine
 62
2
  6
CONTINUOUS
 10
367.481011
 20
378.41634
 11
367.481011
 21
383.587425
  0
LINE
  5
53A
100
AcDbEntity
  8
0
100
AcDbLine
 62
2
  6
CONTINUOUS
 10
367.581011
 20
336.324838
 11
367.581011
 21
328.824838
  0
LINE
  5
53B
100
AcDbEntity
  8
0
100
AcDbLine
 62
7
  6
CONTINUOUS
 10
367.581011
 20
327.324838
 11
367.581011
 21
328.824838
  0
LINE
  5
53C
100
AcDbEntity
  8
0
100
AcDbLine
 62
2
  6
CONTINUOUS
 10
367.781011
 20
378.416445
 11
367.781011
 21
355.040666
  0
LINE
  5
53D
100
AcDbEntity
  8
0
100
AcDbLine
 62
7
  6
CONTINUOUS
 10
367.781011
 20
378.416445
 11
367.781011
 21
385.254859
  0
LINE
  5
53E
100
AcDbEntity
  8
0
100
AcDbLine
 62
7
  6
CENTER
 10
369.231011
 20
406.513392
 11
369.231011
 21
355.040666
  0
LINE
  5
53F
100
AcDbEntity
  8
0
100
AcDbLine
 62
2
  6
CONTINUOUS
 10
370.681011
 20
378.417461
 11
370.681011
 21
355.040666
  0
LINE
  5
540
100
AcDbEntity
  8
0
100
AcDbLine
 62
7
  6
CONTINUOUS
 10
370.681011
 20
378.417461
 11
370.681011
 21
385.254859
  0
LINE
  5
541
100
AcDbEntity
  8
0
100
AcDbLine
 62
2
  6
CONTINUOUS
 10
370.881011
 20
336.324838
 11
370.881011
 21
328.824838
  0
LINE
  5
542
100
AcDbEntity
  8
0
100
AcDbLine
 62
7
  6
CONTINUOUS
 10
370.881011
 20
327.324838
 11
370.881011
 21
328.824838
  0
LINE
  5
543
100
AcDbEntity
  8
0
100
AcDbLine
 62
7
  6
CONTINUOUS
 10
370.981011
 20
378.417567
 11
370.981011
 21
355.040666
  0
LINE
  5
544
100
AcDbEntity
  8
0
100
AcDbLine
 62
2
  6
CONTINUOUS
 10
370.981011
 20
378.417567
 11
370.981011
 21
383.587425
  0
LINE
  5
545
100
AcDbEntity
  8
0
100
AcDbLine
 62
2
  6
CONTINUOUS
 10
371.231011
 20
336.324838
 11
371.231011
 21
328.824838
  0
LINE
  5
546
100
AcDbEntity
  8
0
100
AcDbLine
 62
7
  6
CONTINUOUS
 10
371.281011
 20
378.417672
 11
371.281011
 21
354.774
  0
LINE
  5
547
100
AcDbEntity
  8
0
100
AcDbLine
 62
7
  6
CONTINUOUS
 10
372.231011
 20
296.824838
 11
372.231011
 21
292.824838
  0
LINE
  5
548
100
AcDbEntity
  8
0
100
AcDbLine
 62
7
  6
CONTINUOUS
 10
372.531011
 20
367.418109
 11
372.531011
 21
365.118109
  0
LINE
  5
549
100
AcDbEntity
  8
0
100
AcDbLine
 62
7
  6
CONTINUOUS
 10
373.031011
 20
335.324838
 11
373.031011
 21
324.61444
  0
LINE
  5
54A
100
AcDbEntity
  8
0
100
AcDbLine
 62
7
  6
CONTINUOUS
 10
373.231011
 20
378.418355
 11
373.231011
 21
367.418354
  0
LINE
  5
54B
100
AcDbEntity
  8
0
100
AcDbLine
 62
7
  6
CONTINUOUS
 10
373.231011
 20
353.040666
 11
373.231011
 21
337.640666
  0
LINE
  5
54C
100
AcDbEntity
  8
0
100
AcDbLine
 62
7
  6
CONTINUOUS
 10
373.231011
 20
296.824838
 11
373.231011
 21
292.824838
  0
LINE
  5
54D
100
AcDbEntity
  8
0
100
AcDbLine
 62
7
  6
CONTINUOUS
 10
373.531011
 20
365.118459
 11
373.531011
 21
363.318459
  0
LINE
  5
54E
100
AcDbEntity
  8
0
100
AcDbLine
 62
7
  6
CONTINUOUS
 10
373.731011
 20
324.340666
 11
373.731011
 21
318.497468
  0
LINE
  5
54F
100
AcDbEntity
  8
0
100
AcDbLine
 62
7
  6
CONTINUOUS
 10
374.081011
 20
361.818652
 11
374.081011
 21
354.818652
  0
LINE
  5
550
100
AcDbEntity
  8
0
100
AcDbLine
 62
7
  6
CONTINUOUS
 10
374.138488
 20
313.497468
 11
374.138488
 21
317.497468
  0
LINE
  5
551
100
AcDbEntity
  8
0
100
AcDbLine
 62
7
  6
CONTINUOUS
 10
374.231011
 20
370.818705
 11
374.231011
 21
364.318705
  0
LINE
  5
552
100
AcDbEntity
  8
0
100
AcDbLine
 62
7
  6
CONTINUOUS
 10
374.231011
 20
296.824838
 11
374.231011
 21
293.624838
  0
LINE
  5
553
100
AcDbEntity
  8
0
100
AcDbLine
 62
7
  6
CONTINUOUS
 10
374.481011
 20
337.640666
 11
374.481011
 21
324.340666
  0
LINE
  5
554
100
AcDbEntity
  8
0
100
AcDbLine
 62
7
  6
CONTINUOUS
 10
374.731011
 20
282.824838
 11
374.731011
 21
269.596446
  0
LINE
  5
555
100
AcDbEntity
  8
0
100
AcDbLine
 62
7
  6
CONTINUOUS
 10
375.138488
 20
313.497468
 11
375.138488
 21
317.497468
  0
LINE
  5
556
100
AcDbEntity
  8
0
100
AcDbLine
 62
7
  6
CONTINUOUS
 10
375.231011
 20
296.824838
 11
375.231011
 21
293.624838
  0
LINE
  5
557
100
AcDbEntity
  8
0
100
AcDbLine
 62
7
  6
CONTINUOUS
 10
375.581011
 20
371.319178
 11
375.581011
 21
370.819178
  0
LINE
  5
558
100
AcDbEntity
  8
0
100
AcDbLine
 62
7
  6
CONTINUOUS
 10
375.581011
 20
364.319178
 11
375.581011
 21
344.794731
  0
LINE
  5
559
100
AcDbEntity
  8
0
100
AcDbLine
 62
7
  6
CONTINUOUS
 10
375.981011
 20
332.840666
 11
375.981011
 21
325.840666
  0
LINE
  5
55A
100
AcDbEntity
  8
0
100
AcDbLine
 62
7
  6
CONTINUOUS
 10
376.731011
 20
270.824838
 11
376.731011
 21
269.596446
  0
LINE
  5
55B
100
AcDbEntity
  8
0
100
AcDbLine
 62
7
  6
CONTINUOUS
 10
377.029259
 20
375.319581
 11
377.029259
 21
375.419712
  0
LINE
  5
55C
100
AcDbEntity
  8
0
100
AcDbLine
 62
7
  6
CONTINUOUS
 10
377.031011
 20
283.724838
 11
377.031011
 21
273.824838
  0
LINE
  5
55D
100
AcDbEntity
  8
0
100
AcDbLine
 62
7
  6
CONTINUOUS
 10
377.231011
 20
370.319757
 11
377.231011
 21
355.319756
  0
LINE
  5
55E
100
AcDbEntity
  8
0
100
AcDbLine
 62
7
  6
CONTINUOUS
 10
377.231011
 20
293.624838
 11
377.231011
 21
292.824838
  0
LINE
  5
55F
100
AcDbEntity
  8
0
100
AcDbLine
 62
7
  6
CONTINUOUS
 10
377.631011
 20
341.310088
 11
377.631011
 21
320.021888
  0
LINE
  5
560
100
AcDbEntity
  8
0
100
AcDbLine
 62
7
  6
CONTINUOUS
 10
377.731011
 20
284.824838
 11
377.731011
 21
283.824838
  0
LINE
  5
561
100
AcDbEntity
  8
0
100
AcDbLine
 62
7
  6
CONTINUOUS
 10
377.731011
 20
273.824838
 11
377.731011
 21
271.824838
  0
LINE
  5
562
100
AcDbEntity
  8
0
100
AcDbLine
 62
7
  6
CONTINUOUS
 10
378.481011
 20
305.824838
 11
378.481011
 21
303.824838
  0
LINE
  5
563
100
AcDbEntity
  8
0
100
AcDbLine
 62
7
  6
CONTINUOUS
 10
378.481011
 20
292.824838
 11
378.481011
 21
284.824838
  0
LINE
  5
564
100
AcDbEntity
  8
0
100
AcDbLine
 62
2
  6
CONTINUOUS
 10
378.731011
 20
303.680501
 11
378.731011
 21
296.969176
  0
LINE
  5
565
100
AcDbEntity
  8
0
100
AcDbLine
 62
2
  6
CONTINUOUS
 10
378.781011
 20
303.824838
 11
378.781011
 21
295.827726
  0
LINE
  5
566
100
AcDbEntity
  8
0
100
AcDbLine
 62
7
  6
CONTINUOUS
 10
379.045966
 20
313.524838
 11
379.045966
 21
317.497468
  0
LINE
  5
567
100
AcDbEntity
  8
0
100
AcDbLine
 62
2
  6
CONTINUOUS
 10
379.731011
 20
303.824838
 11
379.731011
 21
303.103151
  0
LINE
  5
568
100
AcDbEntity
  8
0
100
AcDbLine
 62
7
  6
CONTINUOUS
 10
379.731011
 20
303.103151
 11
379.731011
 21
297.546526
  0
LINE
  5
569
100
AcDbEntity
  8
0
100
AcDbLine
 62
2
  6
CONTINUOUS
 10
379.731011
 20
297.546526
 11
379.731011
 21
295.279244
  0
LINE
  5
56A
100
AcDbEntity
  8
0
100
AcDbLine
 62
7
  6
CONTINUOUS
 10
380.231011
 20
294.990569
 11
380.231011
 21
269.6223610587
  0
LINE
  5
56B
100
AcDbEntity
  8
0
100
AcDbLine
 62
7
  6
CONTINUOUS
 10
380.231011
 20
308.524838
 11
380.231011
 21
310.524838
  0
LINE
  5
56C
100
AcDbEntity
  8
0
100
AcDbLine
 62
2
  6
CONTINUOUS
 10
380.731011
 20
310.736163
 11
380.731011
 21
313.313514
  0
LINE
  5
56D
100
AcDbEntity
  8
0
100
AcDbLine
 62
7
  6
CONTINUOUS
 10
381.231011
 20
397.321511
 11
381.231011
 21
386.321159
  0
LINE
  5
56E
100
AcDbEntity
  8
0
100
AcDbLine
 62
7
  6
CONTINUOUS
 10
381.231011
 20
305.824838
 11
381.231011
 21
313.024838
  0
LINE
  5
56F
100
AcDbEntity
  8
0
100
AcDbLine
 62
7
  6
CONTINUOUS
 10
383.231011
 20
397.321861
 11
383.231011
 21
386.32151
  0
LINE
  5
570
100
AcDbEntity
  8
0
100
AcDbLine
 62
7
  6
CONTINUOUS
 10
383.231011
 20
269.596446
 11
383.231011
 21
312.110088
  0
LINE
  5
571
100
AcDbEntity
  8
0
100
AcDbLine
 62
2
  6
CONTINUOUS
 10
384.981011
 20
312.110088
 11
384.981011
 21
306.236868
  0
LINE
  5
572
100
AcDbEntity
  8
0
100
AcDbLine
 62
7
  6
CONTINUOUS
 10
384.981011
 20
306.236868
 11
384.981011
 21
303.32949
  0
LINE
  5
573
100
AcDbEntity
  8
0
100
AcDbLine
 62
2
  6
CONTINUOUS
 10
384.981011
 20
298.596446
 11
384.981011
 21
297.096446
  0
LINE
  5
574
100
AcDbEntity
  8
0
100
AcDbLine
 62
2
  6
CONTINUOUS
 10
384.9810110871
 20
297.0964459329
 11
384.9810110871
 21
298.5964459329
  0
LINE
  5
575
100
AcDbEntity
  8
0
100
AcDbLine
 62
2
  6
CONTINUOUS
 10
388.7310110871
 20
298.5964459329
 11
388.7310110871
 21
297.0964459329
  0
LINE
  5
576
100
AcDbEntity
  8
0
100
AcDbLine
 62
2
  6
CONTINUOUS
 10
388.7310110871
 20
297.0964459329
 11
384.9810110871
 21
297.0964459329
  0
LINE
  5
577
100
AcDbEntity
  8
0
100
AcDbLine
 62
2
  6
CONTINUOUS
 10
384.9810110871
 20
298.5964459329
 11
388.7310110871
 21
298.5964459329
  0
HATCH
  5
578
100
AcDbEntity
  8
0
100
AcDbHatch
 62
2
  6
CONTINUOUS
 10
0.0
 20
0.0
 30
0.0
210
0.0
220
0.0
230
1.0
  2
dxsec_10
 70
0
 71
1
 91
1
 92
1
 93
4
 72
1
 10
384.9810110871
 20
298.5964459329
 11
388.7310110871
 21
298.5964459329
 72
1
 10
388.7310110871
 20
298.5964459329
 11
388.7310110871
 21
297.0964459329
 72
1
 10
388.7310110871
 20
297.0964459329
 11
384.9810110871
 21
297.0964459329
 72
1
 10
384.9810110871
 20
297.0964459329
 11
384.9810110871
 21
298.5964459329
 97
4
330
574
330
575
330
576
330
577
 75
0
 76
0
 52
135.0
 41
0.125
 77
0
 78
1
 53
135.0
 43
-566.7306701932
 44
-566.7306701932
 45
-0.0883883476
 46
-0.0883883476
 79
0
 98
1
 10
0.0
 20
0.0
  0
LINE
  5
579
100
AcDbEntity
  8
0
100
AcDbLine
 62
7
  6
CONTINUOUS
 10
386.481011
 20
310.610088
 11
386.481011
 21
307.110088
  0
LINE
  5
57A
100
AcDbEntity
  8
0
100
AcDbLine
 62
2
  6
CONTINUOUS
 10
386.481011
 20
307.110088
 11
386.481011
 21
303.32949
  0
LINE
  5
57B
100
AcDbEntity
  8
0
100
AcDbLine
 62
2
  6
CONTINUOUS
 10
388.731011
 20
298.596446
 11
388.731011
 21
297.096446
  0
LINE
  5
57C
100
AcDbEntity
  8
0
100
AcDbLine
 62
7
  6
CONTINUOUS
 10
391.231011
 20
298.596446
 11
391.231011
 21
297.324838
  0
LINE
  5
57D
100
AcDbEntity
  8
0
100
AcDbLine
 62
7
  6
CONTINUOUS
 10
380.431011
 20
305.824838
 11
379.831011
 21
303.824838
  0
LINE
  5
57E
100
AcDbEntity
  8
0
100
AcDbLine
 62
2
  6
CONTINUOUS
 10
374.481011
 20
327.300016
 11
375.981011
 21
328.800016
  0
LINE
  5
57F
100
AcDbEntity
  8
0
100
AcDbLine
 62
2
  6
CONTINUOUS
 10
374.481011
 20
325.532249
 11
375.981011
 21
327.032249
  0
LINE
  5
580
100
AcDbEntity
  8
0
100
AcDbLine
 62
2
  6
CONTINUOUS
 10
375.057195
 20
324.340666
 11
376.557195
 21
325.840666
  0
LINE
  5
581
100
AcDbEntity
  8
0
100
AcDbLine
 62
7
  6
CONTINUOUS
 10
356.731011
 20
305.824838
 11
355.231011
 21
304.324838
  0
LINE
  5
582
100
AcDbEntity
  8
0
100
AcDbLine
 62
2
  6
CONTINUOUS
 10
376.824962
 20
324.340666
 11
377.631011
 21
325.146715
  0
LINE
  5
583
100
AcDbEntity
  8
0
100
AcDbLine
 62
7
  6
CONTINUOUS
 10
361.531011
 20
283.824838
 11
361.431011
 21
283.724838
  0
LINE
  5
584
100
AcDbEntity
  8
0
100
AcDbLine
 62
7
  6
CONTINUOUS
 10
378.6386121112
 20
305.139805247
 11
379.2260897309
 21
305.7267104878
  0
LINE
  5
585
100
AcDbEntity
  8
0
100
AcDbLine
 62
7
  6
CONTINUOUS
 10
378.5209464376
 20
304.8455646608
 11
379.4774981211
 21
305.8011827494
  0
LINE
  5
586
100
AcDbEntity
  8
0
100
AcDbLine
 62
7
  6
CONTINUOUS
 10
378.4841782319
 20
304.632141587
 11
379.6557638263
 21
305.8025837134
  0
LINE
  5
587
100
AcDbEntity
  8
0
100
AcDbLine
 62
7
  6
CONTINUOUS
 10
378.4860938993
 20
304.4573646309
 11
379.7933366783
 21
305.7633315404
  0
LINE
  5
588
100
AcDbEntity
  8
0
100
AcDbLine
 62
7
  6
CONTINUOUS
 10
378.5156920725
 20
304.3102431624
 11
379.9033901046
 21
305.6965878002
  0
LINE
  5
589
100
AcDbEntity
  8
0
100
AcDbLine
 62
7
  6
CONTINUOUS
 10
378.5658062555
 20
304.1836186796
 11
379.9909705662
 21
305.6073920294
  0
LINE
  5
58A
100
AcDbEntity
  8
0
100
AcDbLine
 62
7
  6
CONTINUOUS
 10
378.6360332512
 20
304.0770873794
 11
380.0562691569
 21
305.4959361348
  0
LINE
  5
58B
100
AcDbEntity
  8
0
100
AcDbLine
 62
7
  6
CONTINUOUS
 10
378.7284680807
 20
303.9927402391
 11
380.1023103528
 21
305.3652426402
  0
LINE
  5
58C
100
AcDbEntity
  8
0
100
AcDbLine
 62
7
  6
CONTINUOUS
 10
378.8439471541
 20
303.9314168505
 11
380.1263378082
 21
305.2125558908
  0
LINE
  5
58D
100
AcDbEntity
  8
0
100
AcDbLine
 62
7
  6
CONTINUOUS
 10
378.9892957997
 20
303.8999328819
 11
380.121310088
 21
305.0308423239
  0
LINE
  5
58E
100
AcDbEntity
  8
0
100
AcDbLine
 62
7
  6
CONTINUOUS
 10
379.1784768303
 20
303.912238518
 11
380.0715655514
 21
304.8044555841
  0
LINE
  5
58F
100
AcDbEntity
  8
0
100
AcDbLine
 62
7
  6
CONTINUOUS
 10
379.4655906405
 20
304.0223813511
 11
379.9173130278
 21
304.4736638567
  0
LINE
  5
590
100
AcDbEntity
  8
0
100
AcDbLine
 62
7
  6
CONTINUOUS
 10
386.481011
 20
307.110088
 11
384.981011
 21
306.236868
  0
LINE
  5
591
100
AcDbEntity
  8
0
100
AcDbLine
 62
7
  6
CONTINUOUS
 10
369.231011
 20
326.37221
 11
370.881011
 21
327.324838
  0
LINE
  5
592
100
AcDbEntity
  8
0
100
AcDbLine
 62
7
  6
CONTINUOUS
 10
357.231011
 20
313.024838
 11
358.097036
 21
313.524838
  0
LINE
  5
593
100
AcDbEntity
  8
0
100
AcDbLine
 62
7
  6
CONTINUOUS
 10
359.981011
 20
303.824838
 11
358.731011
 21
303.103151
  0
LINE
  5
594
100
AcDbEntity
  8
0
100
AcDbLine
 62
7
  6
CONTINUOUS
 10
381.231011
 20
311.024838
 11
380.364986
 21
310.524838
  0
LINE
  5
595
100
AcDbEntity
  8
0
100
AcDbLine
 62
7
  6
CONTINUOUS
 10
359.681011
 20
295.827726
 11
358.231011
 21
294.990569
  0
LINE
  5
596
100
AcDbEntity
  8
0
100
AcDbLine
 62
7
  6
CONTINUOUS
 10
373.031011
 20
324.61444
 11
374.481011
 21
325.449544
  0
LINE
  5
597
100
AcDbEntity
  8
0
100
AcDbLine
 62
2
  6
CONTINUOUS
 10
370.40868
 20
325.626161
 11
372.449092
 21
326.559573
  0
LINE
  5
598
100
AcDbEntity
  8
0
100
AcDbLine
 62
7
  6
CONTINUOUS
 10
106.731011
 20
268.596446
 11
151.731011
 21
268.596446
  0
LINE
  5
599
100
AcDbEntity
  8
0
100
AcDbLine
 62
2
  6
CONTINUOUS
 10
274.231011
 20
269.594299
 11
279.951388
 21
269.594091
  0
LINE
  5
59A
100
AcDbEntity
  8
0
100
AcDbLine
 62
2
  6
CONTINUOUS
 10
215.148582
 20
269.596446
 11
224.231011
 21
269.596116
  0
LINE
  5
59B
100
AcDbEntity
  8
0
100
AcDbLine
 62
7
  6
CONTINUOUS
 10
224.231011
 20
269.596116
 11
274.231011
 21
269.594299
  0
LINE
  5
59C
100
AcDbEntity
  8
0
100
AcDbLine
 62
7
  6
CONTINUOUS
 10
355.231011
 20
269.596446
 11
383.6146014887
 21
269.5958347171
  0
LINE
  5
59D
100
AcDbEntity
  8
0
100
AcDbLine
 62
7
  6
CONTINUOUS
 10
391.731011
 20
269.596446
 11
383.231011
 21
269.596446
  0
LINE
  5
59E
100
AcDbEntity
  8
0
100
AcDbLine
 62
7
  6
CONTINUOUS
 10
358.231011
 20
269.596446
 11
355.231011
 21
269.596446
  0
LINE
  5
59F
100
AcDbEntity
  8
0
100
AcDbLine
 62
7
  6
CONTINUOUS
 10
355.231011
 20
269.596446
 11
346.731011
 21
269.596446
  0
LINE
  5
5A0
100
AcDbEntity
  8
0
100
AcDbLine
 62
2
  6
CONTINUOUS
 10
106.731011
 20
269.596446
 11
96.912477
 21
269.596446
  0
LINE
  5
5A1
100
AcDbEntity
  8
0
100
AcDbLine
 62
7
  6
CONTINUOUS
 10
106.731011
 20
269.596446
 11
151.731011
 21
269.596446
  0
LINE
  5
5A2
100
AcDbEntity
  8
0
100
AcDbLine
 62
2
  6
CONTINUOUS
 10
151.731011
 20
269.596446
 11
191.876485
 21
269.596446
  0
LINE
  5
5A3
100
AcDbEntity
  8
0
100
AcDbLine
 62
2
  6
CONTINUOUS
 10
198.593492
 20
269.596446
 11
215.148582
 21
269.596446
  0
LINE
  5
5A4
100
AcDbEntity
  8
0
100
AcDbLine
 62
2
  6
CONTINUOUS
 10
391.731011
 20
269.596446
 11
403.031052
 21
269.596446
  0
LINE
  5
5A5
100
AcDbEntity
  8
0
100
AcDbLine
 62
7
  6
CONTINUOUS
 10
228.394881
 20
269.649254
 11
249.225608
 21
269.649254
  0
LINE
  5
5A6
100
AcDbEntity
  8
0
100
AcDbLine
 62
7
  6
CONTINUOUS
 10
249.394881
 20
269.649254
 11
270.394881
 21
269.649254
  0
LINE
  5
5A7
100
AcDbEntity
  8
0
100
AcDbLine
 62
7
  6
CONTINUOUS
 10
46.0587425045
 20
266.2551641506
 11
452.1462305081
 21
266.2233127668
  0
LINE
  5
5A8
100
AcDbEntity
  8
0
100
AcDbLine
 62
2
  6
CONTINUOUS
 10
294.831926
 20
269.589829
 11
279.951388
 21
269.594091
  0
LINE
  5
5A9
100
AcDbEntity
  8
0
100
AcDbLine
 62
2
  6
CONTINUOUS
 10
346.731011
 20
269.580691
 11
300.685859
 21
269.593881
  0
LINE
  5
5AA
100
AcDbEntity
  8
DEFAULT_2
100
AcDbLine
 62
8
  6
CONTINUOUS
 10
126.106718
 20
326.231234
 11
129.103599
 21
325.501646
  0
LINE
  5
5AB
100
AcDbEntity
  8
0
100
AcDbLine
 62
2
  6
CONTINUOUS
 10
361.731011
 20
270.529574
 11
363.731011
 21
269.993675
  0
LINE
  5
5AC
100
AcDbEntity
  8
0
100
AcDbLine
 62
2
  6
CONTINUOUS
 10
360.731011
 20
272.091618
 11
363.731011
 21
271.287771
  0
LINE
  5
5AD
100
AcDbEntity
  8
0
100
AcDbLine
 62
2
  6
CONTINUOUS
 10
360.731011
 20
273.385714
 11
363.731011
 21
272.581866
  0
LINE
  5
5AE
100
AcDbEntity
  8
0
100
AcDbLine
 62
2
  6
CONTINUOUS
 10
361.431011
 20
274.492244
 11
363.731011
 21
273.875961
  0
LINE
  5
5AF
100
AcDbEntity
  8
0
100
AcDbLine
 62
2
  6
CONTINUOUS
 10
374.731011
 20
270.92852
 11
376.731011
 21
270.392622
  0
LINE
  5
5B0
100
AcDbEntity
  8
0
100
AcDbLine
 62
2
  6
CONTINUOUS
 10
361.431011
 20
275.78634
 11
363.731011
 21
275.170056
  0
LINE
  5
5B1
100
AcDbEntity
  8
0
100
AcDbLine
 62
2
  6
CONTINUOUS
 10
374.731011
 20
272.222615
 11
377.410754
 21
271.50458
  0
LINE
  5
5B2
100
AcDbEntity
  8
0
100
AcDbLine
 62
2
  6
CONTINUOUS
 10
361.431011
 20
277.080435
 11
363.731011
 21
276.464152
  0
LINE
  5
5B3
100
AcDbEntity
  8
0
100
AcDbLine
 62
2
  6
CONTINUOUS
 10
374.731011
 20
273.51671
 11
377.731011
 21
272.712863
  0
LINE
  5
5B4
100
AcDbEntity
  8
0
100
AcDbLine
 62
2
  6
CONTINUOUS
 10
361.431011
 20
278.37453
 11
363.731011
 21
277.758247
  0
LINE
  5
5B5
100
AcDbEntity
  8
0
100
AcDbLine
 62
2
  6
CONTINUOUS
 10
374.731011
 20
274.810806
 11
377.031011
 21
274.194523
  0
LINE
  5
5B6
100
AcDbEntity
  8
0
100
AcDbLine
 62
2
  6
CONTINUOUS
 10
361.431011
 20
279.668625
 11
363.731011
 21
279.052342
  0
LINE
  5
5B7
100
AcDbEntity
  8
0
100
AcDbLine
 62
2
  6
CONTINUOUS
 10
374.731011
 20
276.104901
 11
377.031011
 21
275.488618
  0
LINE
  5
5B8
100
AcDbEntity
  8
0
100
AcDbLine
 62
2
  6
CONTINUOUS
 10
374.731011
 20
277.398996
 11
377.031011
 21
276.782713
  0
LINE
  5
5B9
100
AcDbEntity
  8
0
100
AcDbLine
 62
2
  6
CONTINUOUS
 10
361.431011
 20
280.96272
 11
363.731011
 21
280.346437
  0
LINE
  5
5BA
100
AcDbEntity
  8
0
100
AcDbLine
 62
2
  6
CONTINUOUS
 10
361.431011
 20
282.256816
 11
363.731011
 21
281.640533
  0
LINE
  5
5BB
100
AcDbEntity
  8
0
100
AcDbLine
 62
2
  6
CONTINUOUS
 10
374.731011
 20
278.693091
 11
377.031011
 21
278.076808
  0
LINE
  5
5BC
100
AcDbEntity
  8
0
100
AcDbLine
 62
2
  6
CONTINUOUS
 10
374.731011
 20
279.987187
 11
377.031011
 21
279.370903
  0
LINE
  5
5BD
100
AcDbEntity
  8
0
100
AcDbLine
 62
2
  6
CONTINUOUS
 10
361.431011
 20
283.550911
 11
363.72478
 21
282.936297
  0
LINE
  5
5BE
100
AcDbEntity
  8
0
100
AcDbLine
 62
2
  6
CONTINUOUS
 10
374.731011
 20
281.281282
 11
377.031011
 21
280.664999
  0
LINE
  5
5BF
100
AcDbEntity
  8
0
100
AcDbLine
 62
2
  6
CONTINUOUS
 10
374.731011
 20
282.575377
 11
377.031011
 21
281.959094
  0
LINE
  5
5C0
100
AcDbEntity
  8
0
100
AcDbLine
 62
7
  6
CONTINUOUS
 10
245.392343
 20
315.548385
 11
245.258426
 21
315.595138
  0
LINE
  5
5C1
100
AcDbEntity
  8
0
100
AcDbLine
 62
7
  6
CONTINUOUS
 10
244.547746
 20
313.535893
 11
244.681566
 21
313.48914
  0
LINE
  5
5C2
100
AcDbEntity
  8
0
100
AcDbLine
 62
7
  6
CONTINUOUS
 10
245.295815
 20
315.742677
 11
245.447841
 21
315.68939
  0
LINE
  5
5C3
100
AcDbEntity
  8
0
100
AcDbLine
 62
7
  6
CONTINUOUS
 10
244.640503
 20
313.342284
 11
244.487762
 21
313.396189
  0
LINE
  5
5C4
100
AcDbEntity
  8
0
100
AcDbLine
 62
7
  6
CONTINUOUS
 10
256.691726
 20
315.543249
 11
256.629238
 21
315.566267
  0
LINE
  5
5C5
100
AcDbEntity
  8
0
100
AcDbLine
 62
7
  6
CONTINUOUS
 10
256.732561
 20
315.690203
 11
256.825253
 21
315.645694
  0
LINE
  5
5C6
100
AcDbEntity
  8
0
100
AcDbLine
 62
7
  6
CONTINUOUS
 10
359.981011
 20
296.824838
 11
358.731011
 21
297.546526
  0
LINE
  5
5C7
100
AcDbEntity
  8
0
100
AcDbLine
 62
2
  6
CONTINUOUS
 10
358.231011
 20
282.367565
 11
355.231011
 21
285.367565
  0
LINE
  5
5C8
100
AcDbEntity
  8
0
100
AcDbLine
 62
2
  6
CONTINUOUS
 10
358.231011
 20
284.135332
 11
355.231011
 21
287.135332
  0
LINE
  5
5C9
100
AcDbEntity
  8
0
100
AcDbLine
 62
2
  6
CONTINUOUS
 10
358.231011
 20
285.903099
 11
355.231011
 21
288.903099
  0
LINE
  5
5CA
100
AcDbEntity
  8
0
100
AcDbLine
 62
2
  6
CONTINUOUS
 10
358.231011
 20
287.670866
 11
355.231011
 21
290.670866
  0
LINE
  5
5CB
100
AcDbEntity
  8
0
100
AcDbLine
 62
2
  6
CONTINUOUS
 10
358.231011
 20
289.438633
 11
355.231011
 21
292.438633
  0
LINE
  5
5CC
100
AcDbEntity
  8
0
100
AcDbLine
 62
2
  6
CONTINUOUS
 10
358.231011
 20
291.2064
 11
355.231011
 21
294.2064
  0
LINE
  5
5CD
100
AcDbEntity
  8
0
100
AcDbLine
 62
2
  6
CONTINUOUS
 10
358.231011
 20
292.974167
 11
355.231011
 21
295.974167
  0
LINE
  5
5CE
100
AcDbEntity
  8
0
100
AcDbLine
 62
2
  6
CONTINUOUS
 10
383.231011
 20
269.741934
 11
380.231011
 21
272.741934
  0
LINE
  5
5CF
100
AcDbEntity
  8
0
100
AcDbLine
 62
2
  6
CONTINUOUS
 10
358.231011
 20
294.741934
 11
355.231011
 21
297.741934
  0
LINE
  5
5D0
100
AcDbEntity
  8
0
100
AcDbLine
 62
2
  6
CONTINUOUS
 10
383.231011
 20
271.509701
 11
380.231011
 21
274.509701
  0
LINE
  5
5D1
100
AcDbEntity
  8
0
100
AcDbLine
 62
2
  6
CONTINUOUS
 10
358.731011
 20
296.009701
 11
355.231011
 21
299.509701
  0
LINE
  5
5D2
100
AcDbEntity
  8
0
100
AcDbLine
 62
2
  6
CONTINUOUS
 10
383.231011
 20
273.277468
 11
380.231011
 21
276.277468
  0
LINE
  5
5D3
100
AcDbEntity
  8
0
100
AcDbLine
 62
2
  6
CONTINUOUS
 10
358.731011
 20
297.777468
 11
355.231011
 21
301.277468
  0
LINE
  5
5D4
100
AcDbEntity
  8
0
100
AcDbLine
 62
2
  6
CONTINUOUS
 10
383.231011
 20
275.045235
 11
380.231011
 21
278.045235
  0
LINE
  5
5D5
100
AcDbEntity
  8
0
100
AcDbLine
 62
2
  6
CONTINUOUS
 10
358.731011
 20
299.545235
 11
355.231011
 21
303.045235
  0
LINE
  5
5D6
100
AcDbEntity
  8
0
100
AcDbLine
 62
2
  6
CONTINUOUS
 10
383.231011
 20
276.813002
 11
380.231011
 21
279.813002
  0
LINE
  5
5D7
100
AcDbEntity
  8
0
100
AcDbLine
 62
2
  6
CONTINUOUS
 10
358.731011
 20
301.313002
 11
355.475093
 21
304.56892
  0
LINE
  5
5D8
100
AcDbEntity
  8
0
100
AcDbLine
 62
7
  6
CONTINUOUS
 10
376.931011
 20
283.824838
 11
377.031011
 21
283.724838
  0
LINE
  5
5D9
100
AcDbEntity
  8
0
100
AcDbLine
 62
2
  6
CONTINUOUS
 10
383.231011
 20
278.580769
 11
380.231011
 21
281.580769
  0
LINE
  5
5DA
100
AcDbEntity
  8
0
100
AcDbLine
 62
2
  6
CONTINUOUS
 10
358.731011
 20
303.080769
 11
356.358976
 21
305.452803
  0
LINE
  5
5DB
100
AcDbEntity
  8
0
100
AcDbLine
 62
7
  6
CONTINUOUS
 10
358.99653
 20
304.02738
 11
358.545028
 21
304.478883
  0
LINE
  5
5DC
100
AcDbEntity
  8
0
100
AcDbLine
 62
7
  6
CONTINUOUS
 10
359.28359
 20
303.917097
 11
358.390937
 21
304.80975
  0
LINE
  5
5DD
100
AcDbEntity
  8
0
100
AcDbLine
 62
7
  6
CONTINUOUS
 10
359.472765
 20
303.904699
 11
358.341303
 21
305.036161
  0
LINE
  5
5DE
100
AcDbEntity
  8
0
100
AcDbLine
 62
7
  6
CONTINUOUS
 10
359.618129
 20
303.936112
 11
358.336364
 21
305.217877
  0
LINE
  5
5DF
100
AcDbEntity
  8
0
100
AcDbLine
 62
2
  6
CONTINUOUS
 10
383.231011
 20
280.348535
 11
380.231011
 21
283.348535
  0
LINE
  5
5E0
100
AcDbEntity
  8
0
100
AcDbLine
 62
2
  6
CONTINUOUS
 10
358.149426
 20
305.43012
 11
357.754708
 21
305.824838
  0
LINE
  5
5E1
100
AcDbEntity
  8
0
100
AcDbLine
 62
7
  6
CONTINUOUS
 10
359.733638
 20
303.997379
 11
358.360466
 21
305.370552
  0
LINE
  5
5E2
100
AcDbEntity
  8
0
100
AcDbLine
 62
7
  6
CONTINUOUS
 10
359.826114
 20
304.081681
 11
358.406571
 21
305.501223
  0
LINE
  5
5E3
100
AcDbEntity
  8
0
100
AcDbLine
 62
7
  6
CONTINUOUS
 10
359.896393
 20
304.188178
 11
358.471924
 21
305.612647
  0
LINE
  5
5E4
100
AcDbEntity
  8
0
100
AcDbLine
 62
7
  6
CONTINUOUS
 10
359.946569
 20
304.314778
 11
358.559548
 21
305.7018
  0
LINE
  5
5E5
100
AcDbEntity
  8
0
100
AcDbLine
 62
7
  6
CONTINUOUS
 10
359.976239
 20
304.461885
 11
358.669634
 21
305.76849
  0
LINE
  5
5E6
100
AcDbEntity
  8
0
100
AcDbLine
 62
7
  6
CONTINUOUS
 10
359.97824
 20
304.636661
 11
358.807226
 21
305.807675
  0
LINE
  5
5E7
100
AcDbEntity
  8
0
100
AcDbLine
 62
7
  6
CONTINUOUS
 10
359.941576
 20
304.850102
 11
358.985491
 21
305.806187
  0
LINE
  5
5E8
100
AcDbEntity
  8
0
100
AcDbLine
 62
7
  6
CONTINUOUS
 10
359.824054
 20
305.1444
 11
359.236863
 21
305.731592
  0
LINE
  5
5E9
100
AcDbEntity
  8
0
100
AcDbLine
 62
2
  6
CONTINUOUS
 10
383.231011
 20
282.116302
 11
380.231011
 21
285.116302
  0
LINE
  5
5EA
100
AcDbEntity
  8
0
100
AcDbLine
 62
2
  6
CONTINUOUS
 10
383.231011
 20
283.884069
 11
380.231011
 21
286.884069
  0
LINE
  5
5EB
100
AcDbEntity
  8
0
100
AcDbLine
 62
2
  6
CONTINUOUS
 10
383.231011
 20
285.651836
 11
380.231011
 21
288.651836
  0
LINE
  5
5EC
100
AcDbEntity
  8
0
100
AcDbLine
 62
2
  6
CONTINUOUS
 10
383.231011
 20
287.419603
 11
380.231011
 21
290.419603
  0
LINE
  5
5ED
100
AcDbEntity
  8
0
100
AcDbLine
 62
2
  6
CONTINUOUS
 10
383.231011
 20
289.18737
 11
380.231011
 21
292.18737
  0
LINE
  5
5EE
100
AcDbEntity
  8
0
100
AcDbLine
 62
2
  6
CONTINUOUS
 10
383.231011
 20
290.955137
 11
380.231011
 21
293.955137
  0
LINE
  5
5EF
100
AcDbEntity
  8
0
100
AcDbLine
 62
2
  6
CONTINUOUS
 10
383.231011
 20
292.722904
 11
379.731011
 21
296.222904
  0
LINE
  5
5F0
100
AcDbEntity
  8
0
100
AcDbLine
 62
2
  6
CONTINUOUS
 10
383.231011
 20
294.490671
 11
379.731011
 21
297.990671
  0
LINE
  5
5F1
100
AcDbEntity
  8
0
100
AcDbLine
 62
2
  6
CONTINUOUS
 10
383.231011
 20
296.258438
 11
379.731011
 21
299.758438
  0
LINE
  5
5F2
100
AcDbEntity
  8
0
100
AcDbLine
 62
2
  6
CONTINUOUS
 10
383.231011
 20
298.026205
 11
379.731011
 21
301.526205
  0
LINE
  5
5F3
100
AcDbEntity
  8
0
100
AcDbLine
 62
7
  6
CONTINUOUS
 10
384.981011
 20
312.110088
 11
382.231011
 21
320.024312
  0
LINE
  5
5F4
100
AcDbEntity
  8
0
100
AcDbLine
 62
7
  6
CONTINUOUS
 10
377.731011
 20
271.824838
 11
376.731011
 21
270.824838
  0
LINE
  5
5F5
100
AcDbEntity
  8
0
100
AcDbLine
 62
7
  6
CONTINUOUS
 10
378.481011
 20
296.824838
 11
379.731011
 21
297.546526
  0
LINE
  5
5F6
100
AcDbEntity
  8
0
100
AcDbLine
 62
7
  6
CONTINUOUS
 10
235.731011
 20
293.810348
 11
262.731011
 21
293.824571
  0
LINE
  5
5F7
100
AcDbEntity
  8
0
100
AcDbLine
 62
7
  6
CONTINUOUS
 10
229.679817
 20
297.307161
 11
263.231482
 21
297.324835
  0
LINE
  5
5F8
100
AcDbEntity
  8
0
100
AcDbLine
 62
7
  6
CONTINUOUS
 10
115.229773
 20
297.310088
 11
143.231011
 21
297.324838
  0
LINE
  5
5F9
100
AcDbEntity
  8
0
100
AcDbLine
 62
7
  6
CONTINUOUS
 10
360.731011
 20
273.824838
 11
361.431011
 21
273.824838
  0
LINE
  5
5FA
100
AcDbEntity
  8
0
100
AcDbLine
 62
7
  6
CONTINUOUS
 10
377.031011
 20
273.824838
 11
377.731011
 21
273.824838
  0
LINE
  5
5FB
100
AcDbEntity
  8
DEFAULT_2
100
AcDbLine
 62
8
  6
CONTINUOUS
 10
137.731011
 20
283.824838
 11
120.731011
 21
283.824838
  0
LINE
  5
5FC
100
AcDbEntity
  8
0
100
AcDbLine
 62
7
  6
CONTINUOUS
 10
360.731011
 20
283.824838
 11
377.731011
 21
283.824838
  0
LINE
  5
5FD
100
AcDbEntity
  8
DEFAULT_2
100
AcDbLine
 62
8
  6
CONTINUOUS
 10
119.981011
 20
284.824838
 11
138.481011
 21
284.824838
  0
LINE
  5
5FE
100
AcDbEntity
  8
0
100
AcDbLine
 62
7
  6
CONTINUOUS
 10
359.981011
 20
284.824838
 11
378.481011
 21
284.824838
  0
LINE
  5
5FF
100
AcDbEntity
  8
0
100
AcDbLine
 62
7
  6
CONTINUOUS
 10
378.481011
 20
292.824838
 11
372.231011
 21
292.824838
  0
LINE
  5
600
100
AcDbEntity
  8
0
100
AcDbLine
 62
7
  6
CONTINUOUS
 10
366.231011
 20
292.824838
 11
359.981011
 21
292.824838
  0
LINE
  5
601
100
AcDbEntity
  8
DEFAULT_2
100
AcDbLine
 62
8
  6
CONTINUOUS
 10
138.481011
 20
292.824838
 11
132.231011
 21
292.824838
  0
LINE
  5
602
100
AcDbEntity
  8
DEFAULT_2
100
AcDbLine
 62
8
  6
CONTINUOUS
 10
126.231011
 20
292.824838
 11
119.981011
 21
292.824838
  0
LINE
  5
603
100
AcDbEntity
  8
0
100
AcDbLine
 62
7
  6
CONTINUOUS
 10
365.231011
 20
293.624838
 11
361.231011
 21
293.624838
  0
LINE
  5
604
100
AcDbEntity
  8
DEFAULT_2
100
AcDbLine
 62
8
  6
CONTINUOUS
 10
125.231011
 20
293.624838
 11
121.231011
 21
293.624838
  0
LINE
  5
605
100
AcDbEntity
  8
DEFAULT_2
100
AcDbLine
 62
8
  6
CONTINUOUS
 10
133.231011
 20
293.624838
 11
137.231011
 21
293.624838
  0
LINE
  5
606
100
AcDbEntity
  8
0
100
AcDbLine
 62
7
  6
CONTINUOUS
 10
373.231011
 20
293.624838
 11
377.231011
 21
293.624838
  0
LINE
  5
607
100
AcDbEntity
  8
0
100
AcDbLine
 62
2
  6
CONTINUOUS
 10
340.231011
 20
296.596446
 11
302.732525
 21
296.596446
  0
LINE
  5
608
100
AcDbEntity
  8
0
100
AcDbLine
 62
2
  6
CONTINUOUS
 10
91.695459
 20
296.596446
 11
192.791575
 21
296.596446
  0
LINE
  5
609
100
AcDbEntity
  8
0
100
AcDbLine
 62
2
  6
CONTINUOUS
 10
199.279786
 20
296.596446
 11
295.872334
 21
296.596443
  0
LINE
  5
60A
100
AcDbEntity
  8
0
100
AcDbLine
 62
7
  6
CONTINUOUS
 10
340.231011
 20
296.596446
 11
355.231011
 21
296.596446
  0
LINE
  5
60B
100
AcDbEntity
  8
0
100
AcDbLine
 62
7
  6
CONTINUOUS
 10
383.231011
 20
296.596446
 11
398.231011
 21
296.596446
  0
LINE
  5
60C
100
AcDbEntity
  8
0
100
AcDbLine
 62
2
  6
CONTINUOUS
 10
398.231011
 20
296.596446
 11
407.083104
 21
296.596446
  0
LINE
  5
60D
100
AcDbEntity
  8
0
100
AcDbLine
 62
7
  6
CONTINUOUS
 10
378.481011
 20
296.824838
 11
359.981011
 21
296.824838
  0
LINE
  5
60E
100
AcDbEntity
  8
DEFAULT_2
100
AcDbLine
 62
8
  6
CONTINUOUS
 10
138.481011
 20
296.824838
 11
119.981011
 21
296.824838
  0
LINE
  5
60F
100
AcDbEntity
  8
0
100
AcDbLine
 62
7
  6
CONTINUOUS
 10
388.731011
 20
297.096446
 11
384.981011
 21
297.096446
  0
LINE
  5
610
100
AcDbEntity
  8
0
100
AcDbLine
 62
7
  6
CONTINUOUS
 10
349.731011
 20
297.096446
 11
353.481011
 21
297.096446
  0
LINE
  5
611
100
AcDbEntity
  8
0
100
AcDbLine
 62
7
  6
CONTINUOUS
 10
229.679817
 20
297.310084
 11
221.386685
 21
297.310084
  0
LINE
  5
612
100
AcDbEntity
  8
0
100
AcDbLine
 62
7
  6
CONTINUOUS
 10
101.386215
 20
297.310088
 11
115.229773
 21
297.310088
  0
LINE
  5
613
100
AcDbEntity
  8
0
100
AcDbLine
 62
7
  6
CONTINUOUS
 10
343.231011
 20
297.310088
 11
349.731011
 21
297.310088
  0
LINE
  5
614
100
AcDbEntity
  8
0
100
AcDbLine
 62
7
  6
CONTINUOUS
 10
353.481011
 20
297.310088
 11
355.231011
 21
297.310088
  0
LINE
  5
615
100
AcDbEntity
  8
0
100
AcDbLine
 62
7
  6
CONTINUOUS
 10
277.231482
 20
297.324835
 11
263.231482
 21
297.324835
  0
LINE
  5
616
100
AcDbEntity
  8
0
100
AcDbLine
 62
7
  6
CONTINUOUS
 10
397.271178
 20
297.324838
 11
391.231011
 21
297.324838
  0
LINE
  5
617
100
AcDbEntity
  8
0
100
AcDbLine
 62
7
  6
CONTINUOUS
 10
157.231011
 20
297.324838
 11
143.231011
 21
297.324838
  0
LINE
  5
618
100
AcDbEntity
  8
0
100
AcDbLine
 62
7
  6
CONTINUOUS
 10
391.231011
 20
297.381944
 11
388.731011
 21
297.381944
  0
LINE
  5
619
100
AcDbEntity
  8
0
100
AcDbLine
 62
7
  6
CONTINUOUS
 10
384.981011
 20
297.381944
 11
383.231011
 21
297.381944
  0
LINE
  5
61A
100
AcDbEntity
  8
DEFAULT_2
100
AcDbLine
 62
8
  6
CONTINUOUS
 10
118.731011
 20
297.546526
 11
139.731011
 21
297.546526
  0
LINE
  5
61B
100
AcDbEntity
  8
0
100
AcDbLine
 62
7
  6
CONTINUOUS
 10
358.731011
 20
297.546526
 11
379.731011
 21
297.546526
  0
LINE
  5
61C
100
AcDbEntity
  8
0
100
AcDbLine
 62
7
  6
CONTINUOUS
 10
391.231011
 20
298.596446
 11
383.231011
 21
298.596446
  0
LINE
  5
61D
100
AcDbEntity
  8
0
100
AcDbLine
 62
7
  6
CONTINUOUS
 10
347.233499
 20
298.596446
 11
355.231011
 21
298.596446
  0
LINE
  5
61E
100
AcDbEntity
  8
0
100
AcDbLine
 62
7
  6
CONTINUOUS
 10
275.634209
 20
299.324835
 11
223.139217
 21
299.324835
  0
LINE
  5
61F
100
AcDbEntity
  8
0
100
AcDbLine
 62
7
  6
CONTINUOUS
 10
395.685403
 20
299.324838
 11
395.123749
 21
299.324838
  0
LINE
  5
620
100
AcDbEntity
  8
0
100
AcDbLine
 62
7
  6
CONTINUOUS
 10
155.633739
 20
299.324838
 11
103.138746
 21
299.324838
  0
LINE
  5
621
100
AcDbEntity
  8
0
100
AcDbLine
 62
7
  6
CONTINUOUS
 10
343.569631
 20
299.348815
 11
343.18067
 21
299.348815
  0
LINE
  5
622
100
AcDbEntity
  8
0
100
AcDbLine
 62
7
  6
CONTINUOUS
 10
343.231011
 20
297.310088
 11
341.428139
 21
297.334064
  0
LINE
  5
623
100
AcDbEntity
  8
0
100
AcDbLine
 62
7
  6
CONTINUOUS
 10
256.559825
 20
315.582588
 11
256.483519
 21
315.592277
  0
LINE
  5
624
100
AcDbEntity
  8
0
100
AcDbLine
 62
7
  6
CONTINUOUS
 10
245.258426
 20
315.595138
 11
245.117129
 21
315.624138
  0
LINE
  5
625
100
AcDbEntity
  8
0
100
AcDbLine
 62
7
  6
CONTINUOUS
 10
244.681566
 20
313.48914
 11
244.822668
 21
313.46014
  0
LINE
  5
626
100
AcDbEntity
  8
0
100
AcDbLine
 62
7
  6
CONTINUOUS
 10
245.135921
 20
315.775709
 11
245.295815
 21
315.742677
  0
LINE
  5
627
100
AcDbEntity
  8
0
100
AcDbLine
 62
7
  6
CONTINUOUS
 10
244.801632
 20
313.308764
 11
244.640503
 21
313.342284
  0
LINE
  5
628
100
AcDbEntity
  8
0
100
AcDbLine
 62
7
  6
CONTINUOUS
 10
256.629238
 20
315.566267
 11
256.559825
 21
315.582588
  0
LINE
  5
629
100
AcDbEntity
  8
0
100
AcDbLine
 62
7
  6
CONTINUOUS
 10
256.6202
 20
315.719366
 11
256.732561
 21
315.690203
  0
LINE
  5
62A
100
AcDbEntity
  8
0
100
AcDbLine
 62
2
  6
CONTINUOUS
 10
375.286524
 20
283.720623
 11
377.031011
 21
283.253189
  0
LINE
  5
62B
100
AcDbEntity
  8
0
100
AcDbLine
 62
7
  6
CONTINUOUS
 10
351.981011
 20
307.095337
 11
353.481011
 21
306.241656
  0
LINE
  5
62C
100
AcDbEntity
  8
0
100
AcDbLine
 62
7
  6
CONTINUOUS
 10
365.431011
 20
324.61444
 11
363.981011
 21
325.447206
  0
LINE
  5
62D
100
AcDbEntity
  8
0
100
AcDbLine
 62
7
  6
CONTINUOUS
 10
378.781011
 20
295.827726
 11
380.231011
 21
294.990569
  0
LINE
  5
62E
100
AcDbEntity
  8
0
100
AcDbLine
 62
7
  6
CONTINUOUS
 10
357.231011
 20
311.024838
 11
358.097036
 21
310.524838
  0
LINE
  5
62F
100
AcDbEntity
  8
0
100
AcDbLine
 62
7
  6
CONTINUOUS
 10
378.481011
 20
303.824838
 11
379.731011
 21
303.103151
  0
LINE
  5
630
100
AcDbEntity
  8
0
100
AcDbLine
 62
7
  6
CONTINUOUS
 10
381.231011
 20
313.024838
 11
380.364986
 21
313.524838
  0
LINE
  5
631
100
AcDbEntity
  8
0
100
AcDbLine
 62
7
  6
CONTINUOUS
 10
367.581011
 20
327.324838
 11
369.231011
 21
326.37221
  0
LINE
  5
632
100
AcDbEntity
  8
0
100
AcDbLine
 62
7
  6
CONTINUOUS
 10
373.031011
 20
335.11444
 11
374.481011
 21
333.902572
  0
LINE
  5
633
100
AcDbEntity
  8
0
100
AcDbLine
 62
2
  6
CONTINUOUS
 10
383.231011
 20
299.793972
 11
379.731011
 21
303.293972
  0
LINE
  5
634
100
AcDbEntity
  8
0
100
AcDbLine
 62
2
  6
CONTINUOUS
 10
383.231011
 20
301.561739
 11
380.093373
 21
304.699377
  0
LINE
  5
635
100
AcDbEntity
  8
0
100
AcDbLine
 62
2
  6
CONTINUOUS
 10
383.231011
 20
303.329506
 11
380.735679
 21
305.824838
  0
LINE
  5
636
100
AcDbEntity
  8
0
100
AcDbLine
 62
7
  6
CONTINUOUS
 10
381.731011
 20
305.824838
 11
383.231011
 21
304.324838
  0
LINE
  5
637
100
AcDbEntity
  8
0
100
AcDbLine
 62
2
  6
CONTINUOUS
 10
362.271119
 20
325.840666
 11
360.831011
 21
327.280774
  0
LINE
  5
638
100
AcDbEntity
  8
0
100
AcDbLine
 62
2
  6
CONTINUOUS
 10
365.041282
 20
324.838269
 11
363.981011
 21
325.898541
  0
LINE
  5
639
100
AcDbEntity
  8
0
100
AcDbLine
 62
2
  6
CONTINUOUS
 10
362.481011
 20
327.398541
 11
360.831011
 21
329.048541
  0
LINE
  5
63A
100
AcDbEntity
  8
0
100
AcDbLine
 62
2
  6
CONTINUOUS
 10
365.431011
 20
326.216308
 11
363.981011
 21
327.666308
  0
LINE
  5
63B
100
AcDbEntity
  8
0
100
AcDbLine
 62
2
  6
CONTINUOUS
 10
362.481011
 20
329.166308
 11
360.831011
 21
330.816308
  0
LINE
  5
63C
100
AcDbEntity
  8
0
100
AcDbLine
 62
7
  6
CONTINUOUS
 10
365.431011
 20
327.324838
 11
365.654665
 21
327.101184
  0
LINE
  5
63D
100
AcDbEntity
  8
0
100
AcDbLine
 62
2
  6
CONTINUOUS
 10
365.431011
 20
327.984075
 11
363.981011
 21
329.434075
  0
LINE
  5
63E
100
AcDbEntity
  8
0
100
AcDbLine
 62
2
  6
CONTINUOUS
 10
362.481011
 20
330.934075
 11
360.831011
 21
332.584075
  0
LINE
  5
63F
100
AcDbEntity
  8
0
100
AcDbLine
 62
2
  6
CONTINUOUS
 10
365.431011
 20
329.751842
 11
363.981011
 21
331.201842
  0
LINE
  5
640
100
AcDbEntity
  8
0
100
AcDbLine
 62
2
  6
CONTINUOUS
 10
362.481011
 20
332.701842
 11
362.342187
 21
332.840666
  0
LINE
  5
641
100
AcDbEntity
  8
0
100
AcDbLine
 62
2
  6
CONTINUOUS
 10
367.231011
 20
328.824838
 11
367.581011
 21
328.474838
  0
LINE
  5
642
100
AcDbEntity
  8
0
100
AcDbLine
 62
7
  6
CONTINUOUS
 10
378.045966
 20
318.497468
 11
379.045966
 21
317.497468
  0
LINE
  5
643
100
AcDbEntity
  8
0
100
AcDbLine
 62
2
  6
CONTINUOUS
 10
365.431011
 20
331.519609
 11
363.981011
 21
332.969609
  0
LINE
  5
644
100
AcDbEntity
  8
0
100
AcDbLine
 62
7
  6
CONTINUOUS
 10
384.981011
 20
312.110088
 11
386.481011
 21
310.610088
  0
LINE
  5
645
100
AcDbEntity
  8
0
100
AcDbLine
 62
2
  6
CONTINUOUS
 10
373.711836
 20
325.00655
 11
373.031011
 21
325.687375
  0
LINE
  5
646
100
AcDbEntity
  8
0
100
AcDbLine
 62
2
  6
CONTINUOUS
 10
365.431011
 20
333.287375
 11
364.432174
 21
334.286212
  0
LINE
  5
647
100
AcDbEntity
  8
0
100
AcDbLine
 62
2
  6
CONTINUOUS
 10
365.431011
 20
335.055142
 11
365.398594
 21
335.08756
  0
LINE
  5
648
100
AcDbEntity
  8
0
100
AcDbLine
 62
2
  6
CONTINUOUS
 10
374.481011
 20
326.005142
 11
373.031011
 21
327.455142
  0
LINE
  5
649
100
AcDbEntity
  8
0
100
AcDbLine
 62
2
  6
CONTINUOUS
 10
376.413254
 20
325.840666
 11
375.981011
 21
326.272909
  0
LINE
  5
64A
100
AcDbEntity
  8
0
100
AcDbLine
 62
2
  6
CONTINUOUS
 10
374.481011
 20
327.772909
 11
373.031011
 21
329.222909
  0
LINE
  5
64B
100
AcDbEntity
  8
0
100
AcDbLine
 62
2
  6
CONTINUOUS
 10
377.631011
 20
326.390676
 11
375.981011
 21
328.040676
  0
LINE
  5
64C
100
AcDbEntity
  8
0
100
AcDbLine
 62
2
  6
CONTINUOUS
 10
374.481011
 20
329.540676
 11
373.031011
 21
330.990676
  0
LINE
  5
64D
100
AcDbEntity
  8
0
100
AcDbLine
 62
2
  6
CONTINUOUS
 10
377.631011
 20
328.158443
 11
375.981011
 21
329.808443
  0
LINE
  5
64E
100
AcDbEntity
  8
0
100
AcDbLine
 62
2
  6
CONTINUOUS
 10
374.481011
 20
331.308443
 11
373.031011
 21
332.758443
  0
LINE
  5
64F
100
AcDbEntity
  8
0
100
AcDbLine
 62
2
  6
CONTINUOUS
 10
377.631011
 20
329.92621
 11
375.981011
 21
331.57621
  0
LINE
  5
650
100
AcDbEntity
  8
0
100
AcDbLine
 62
2
  6
CONTINUOUS
 10
374.481011
 20
333.07621
 11
373.031011
 21
334.52621
  0
LINE
  5
651
100
AcDbEntity
  8
0
100
AcDbLine
 62
7
  6
CONTINUOUS
 10
372.031011
 20
336.324838
 11
373.031011
 21
335.324838
  0
LINE
  5
652
100
AcDbEntity
  8
0
100
AcDbLine
 62
2
  6
CONTINUOUS
 10
377.631011
 20
331.693977
 11
376.484322
 21
332.840666
  0
LINE
  5
653
100
AcDbEntity
  8
0
100
AcDbLine
 62
2
  6
CONTINUOUS
 10
363.348933
 20
354.81489
 11
362.881011
 21
355.282812
  0
LINE
  5
654
100
AcDbEntity
  8
0
100
AcDbLine
 62
2
  6
CONTINUOUS
 10
364.381011
 20
355.550579
 11
362.881011
 21
357.050579
  0
LINE
  5
655
100
AcDbEntity
  8
0
100
AcDbLine
 62
2
  6
CONTINUOUS
 10
364.381011
 20
357.318346
 11
362.881011
 21
358.818346
  0
LINE
  5
656
100
AcDbEntity
  8
0
100
AcDbLine
 62
7
  6
CONTINUOUS
 10
377.631011
 20
341.310088
 11
375.581011
 21
344.794731
  0
LINE
  5
657
100
AcDbEntity
  8
0
100
AcDbLine
 62
7
  6
CONTINUOUS
 10
441.231011
 20
397.342539
 11
441.231011
 21
386.342188
  0
LINE
  5
658
100
AcDbEntity
  8
0
100
AcDbLine
 62
7
  6
CONTINUOUS
 10
443.231011
 20
397.342539
 11
443.231011
 21
386.342188
  0
LINE
  5
659
100
AcDbEntity
  8
0
100
AcDbLine
 62
7
  6
CONTINUOUS
 10
452.1462305081
 20
266.2233127668
 11
452.1622519484
 21
470.4877953885
  0
LINE
  5
65A
100
AcDbEntity
  8
0
100
AcDbLine
 62
7
  6
CONTINUOUS
 10
245.135921
 20
313.308764
 11
244.969752
 21
313.297255
  0
LINE
  5
65B
100
AcDbEntity
  8
0
100
AcDbLine
 62
7
  6
CONTINUOUS
 10
256.599132
 20
314.503612
 11
256.462874
 21
314.494281
  0
LINE
  5
65C
100
AcDbEntity
  8
0
100
AcDbLine
 62
7
  6
CONTINUOUS
 10
244.969752
 20
315.634087
 11
244.822668
 21
315.624138
  0
LINE
  5
65D
100
AcDbEntity
  8
0
100
AcDbLine
 62
7
  6
CONTINUOUS
 10
244.969752
 20
313.450191
 11
245.117129
 21
313.46014
  0
LINE
  5
65E
100
AcDbEntity
  8
0
100
AcDbLine
 62
7
  6
CONTINUOUS
 10
244.801632
 20
315.775709
 11
244.969752
 21
315.787024
  0
LINE
  5
65F
100
AcDbEntity
  8
0
100
AcDbLine
 62
7
  6
CONTINUOUS
 10
256.400386
 20
314.628588
 11
256.483519
 21
314.63184
  0
LINE
  5
660
100
AcDbEntity
  8
0
100
AcDbLine
 62
7
  6
CONTINUOUS
 10
346.282998
 20
303.32933
 11
346.587925
 21
303.32949
  0
LINE
  5
661
100
AcDbEntity
  8
0
100
AcDbLine
 62
7
  6
CONTINUOUS
 10
226.241544
 20
303.30535
 11
272.06058
 21
303.329487
  0
LINE
  5
662
100
AcDbEntity
  8
0
100
AcDbLine
 62
7
  6
CONTINUOUS
 10
106.241073
 20
303.305353
 11
152.060109
 21
303.32949
  0
LINE
  5
663
100
AcDbEntity
  8
0
100
AcDbLine
 62
7
  6
CONTINUOUS
 10
377.631011
 20
320.021888
 11
382.231011
 21
320.024312
  0
LINE
  5
664
100
AcDbEntity
  8
0
100
AcDbLine
 62
7
  6
CONTINUOUS
 10
356.231011
 20
320.010614
 11
360.831011
 21
320.013038
  0
LINE
  5
665
100
AcDbEntity
  8
0
100
AcDbLine
 62
7
  6
CONTINUOUS
 10
273.824308
 20
301.324835
 11
224.961479
 21
301.324835
  0
LINE
  5
666
100
AcDbEntity
  8
0
100
AcDbLine
 62
7
  6
CONTINUOUS
 10
393.875502
 20
301.324838
 11
393.435509
 21
301.324838
  0
LINE
  5
667
100
AcDbEntity
  8
0
100
AcDbLine
 62
7
  6
CONTINUOUS
 10
153.823837
 20
301.324838
 11
104.961008
 21
301.324838
  0
LINE
  5
668
100
AcDbEntity
  8
0
100
AcDbLine
 62
7
  6
CONTINUOUS
 10
345.250896
 20
301.348815
 11
345.002932
 21
301.348815
  0
LINE
  5
669
100
AcDbEntity
  8
DEFAULT_2
100
AcDbLine
 62
8
  6
CONTINUOUS
 10
118.731011
 20
303.10315
 11
139.731011
 21
303.10315
  0
LINE
  5
66A
100
AcDbEntity
  8
0
100
AcDbLine
 62
7
  6
CONTINUOUS
 10
358.731011
 20
303.103151
 11
379.731011
 21
303.103151
  0
LINE
  5
66B
100
AcDbEntity
  8
0
100
AcDbLine
 62
7
  6
CONTINUOUS
 10
353.481011
 20
303.32949
 11
346.587925
 21
303.32949
  0
LINE
  5
66C
100
AcDbEntity
  8
0
100
AcDbLine
 62
7
  6
CONTINUOUS
 10
384.981011
 20
303.32949
 11
392.41529
 21
303.32949
  0
LINE
  5
66D
100
AcDbEntity
  8
0
100
AcDbLine
 62
7
  6
CONTINUOUS
 10
379.831011
 20
303.824838
 11
378.781011
 21
303.824838
  0
LINE
  5
66E
100
AcDbEntity
  8
0
100
AcDbLine
 62
7
  6
CONTINUOUS
 10
378.481011
 20
303.824838
 11
359.981011
 21
303.824838
  0
LINE
  5
66F
100
AcDbEntity
  8
0
100
AcDbLine
 62
7
  6
CONTINUOUS
 10
359.681011
 20
303.824838
 11
358.631011
 21
303.824838
  0
LINE
  5
670
100
AcDbEntity
  8
DEFAULT_2
100
AcDbLine
 62
8
  6
CONTINUOUS
 10
138.481011
 20
303.824838
 11
119.981011
 21
303.824838
  0
LINE
  5
671
100
AcDbEntity
  8
0
100
AcDbLine
 62
7
  6
CONTINUOUS
 10
383.231011
 20
305.824838
 11
355.231011
 21
305.824838
  0
LINE
  5
672
100
AcDbEntity
  8
DEFAULT_2
100
AcDbLine
 62
8
  6
CONTINUOUS
 10
141.231011
 20
305.824838
 11
117.231011
 21
305.824838
  0
LINE
  5
673
100
AcDbEntity
  8
DEFAULT_2
100
AcDbLine
 62
8
  6
CONTINUOUS
 10
117.231011
 20
308.524838
 11
141.231011
 21
308.524838
  0
LINE
  5
674
100
AcDbEntity
  8
0
100
AcDbLine
 62
7
  6
CONTINUOUS
 10
357.231011
 20
308.524838
 11
381.231011
 21
308.524838
  0
LINE
  5
675
100
AcDbEntity
  8
0
100
AcDbLine
 62
7
  6
CONTINUOUS
 10
380.231011
 20
310.524838
 11
358.097036
 21
310.524838
  0
LINE
  5
676
100
AcDbEntity
  8
DEFAULT_2
100
AcDbLine
 62
8
  6
CONTINUOUS
 10
140.231011
 20
310.524838
 11
118.097036
 21
310.524838
  0
LINE
  5
677
100
AcDbEntity
  8
0
100
AcDbLine
 62
7
  6
CONTINUOUS
 10
384.981011
 20
312.110088
 11
381.231011
 21
312.110088
  0
LINE
  5
678
100
AcDbEntity
  8
0
100
AcDbLine
 62
7
  6
CONTINUOUS
 10
357.231011
 20
312.110088
 11
353.481011
 21
312.110088
  0
LINE
  5
679
100
AcDbEntity
  8
0
100
AcDbLine
 62
7
  6
CONTINUOUS
 10
257.388231
 20
313.345177
 11
257.161459
 21
313.345177
  0
LINE
  5
67A
100
AcDbEntity
  8
0
100
AcDbLine
 62
7
  6
CONTINUOUS
 10
255.648481
 20
313.345177
 11
255.505851
 21
313.345177
  0
LINE
  5
67B
100
AcDbEntity
  8
0
100
AcDbLine
 62
7
  6
CONTINUOUS
 10
241.216989
 20
313.345177
 11
241.35975
 21
313.345177
  0
LINE
  5
67C
100
AcDbEntity
  8
0
100
AcDbLine
 62
7
  6
CONTINUOUS
 10
242.986292
 20
313.345177
 11
243.214819
 21
313.345177
  0
LINE
  5
67D
100
AcDbEntity
  8
0
100
AcDbLine
 62
7
  6
CONTINUOUS
 10
247.258694
 20
313.345177
 11
247.401422
 21
313.345177
  0
LINE
  5
67E
100
AcDbEntity
  8
0
100
AcDbLine
 62
7
  6
CONTINUOUS
 10
248.863519
 20
313.345177
 11
249.006247
 21
313.345177
  0
LINE
  5
67F
100
AcDbEntity
  8
0
100
AcDbLine
 62
7
  6
CONTINUOUS
 10
250.360404
 20
313.345177
 11
251.957914
 21
313.345177
  0
LINE
  5
680
100
AcDbEntity
  8
0
100
AcDbLine
 62
7
  6
CONTINUOUS
 10
252.842013
 20
313.345177
 11
254.402556
 21
313.345177
  0
LINE
  5
681
100
AcDbEntity
  8
0
100
AcDbLine
 62
7
  6
CONTINUOUS
 10
254.402556
 20
313.48875
 11
252.918708
 21
313.48875
  0
LINE
  5
682
100
AcDbEntity
  8
0
100
AcDbLine
 62
7
  6
CONTINUOUS
 10
251.957914
 20
313.48875
 11
250.435767
 21
313.48875
  0
LINE
  5
683
100
AcDbEntity
  8
DEFAULT_2
100
AcDbLine
 62
8
  6
CONTINUOUS
 10
118.097036
 20
313.524838
 11
140.364986
 21
313.524838
  0
LINE
  5
684
100
AcDbEntity
  8
0
100
AcDbLine
 62
7
  6
CONTINUOUS
 10
358.097036
 20
313.524838
 11
380.364986
 21
313.524838
  0
LINE
  5
685
100
AcDbEntity
  8
0
100
AcDbLine
 62
7
  6
CONTINUOUS
 10
256.462874
 20
314.494281
 11
255.867904
 21
314.494281
  0
LINE
  5
686
100
AcDbEntity
  8
0
100
AcDbLine
 62
7
  6
CONTINUOUS
 10
247.297026
 20
314.5714
 11
248.952635
 21
314.5714
  0
LINE
  5
687
100
AcDbEntity
  8
0
100
AcDbLine
 62
7
  6
CONTINUOUS
 10
252.918708
 20
314.5714
 11
254.402556
 21
314.5714
  0
LINE
  5
688
100
AcDbEntity
  8
0
100
AcDbLine
 62
7
  6
CONTINUOUS
 10
255.648481
 20
314.628588
 11
256.400386
 21
314.628588
  0
LINE
  5
689
100
AcDbEntity
  8
0
100
AcDbLine
 62
7
  6
CONTINUOUS
 10
248.952635
 20
314.715038
 11
247.297026
 21
314.715038
  0
LINE
  5
68A
100
AcDbEntity
  8
0
100
AcDbLine
 62
7
  6
CONTINUOUS
 10
254.402556
 20
314.724336
 11
252.918708
 21
314.724336
  0
LINE
  5
68B
100
AcDbEntity
  8
0
100
AcDbLine
 62
7
  6
CONTINUOUS
 10
252.918708
 20
315.586197
 11
254.402556
 21
315.586197
  0
LINE
  5
68C
100
AcDbEntity
  8
0
100
AcDbLine
 62
7
  6
CONTINUOUS
 10
256.400386
 20
315.595495
 11
255.648481
 21
315.595495
  0
LINE
  5
68D
100
AcDbEntity
  8
0
100
AcDbLine
 62
7
  6
CONTINUOUS
 10
254.402556
 20
315.729835
 11
252.842013
 21
315.729835
  0
LINE
  5
68E
100
AcDbEntity
  8
0
100
AcDbLine
 62
7
  6
CONTINUOUS
 10
250.506253
 20
315.729835
 11
250.360404
 21
315.729835
  0
LINE
  5
68F
100
AcDbEntity
  8
0
100
AcDbLine
 62
7
  6
CONTINUOUS
 10
249.006247
 20
315.729835
 11
248.863519
 21
315.729835
  0
LINE
  5
690
100
AcDbEntity
  8
0
100
AcDbLine
 62
7
  6
CONTINUOUS
 10
247.401422
 20
315.729835
 11
247.258694
 21
315.729835
  0
LINE
  5
691
100
AcDbEntity
  8
0
100
AcDbLine
 62
7
  6
CONTINUOUS
 10
243.148755
 20
315.729835
 11
242.929494
 21
315.729835
  0
LINE
  5
692
100
AcDbEntity
  8
0
100
AcDbLine
 62
7
  6
CONTINUOUS
 10
241.35975
 20
315.729835
 11
241.216989
 21
315.729835
  0
LINE
  5
693
100
AcDbEntity
  8
0
100
AcDbLine
 62
7
  6
CONTINUOUS
 10
255.505851
 20
315.729835
 11
256.48625
 21
315.729835
  0
LINE
  5
694
100
AcDbEntity
  8
0
100
AcDbLine
 62
7
  6
CONTINUOUS
 10
375.138488
 20
317.497468
 11
374.138488
 21
317.497468
  0
LINE
  5
695
100
AcDbEntity
  8
DEFAULT_2
100
AcDbLine
 62
8
  6
CONTINUOUS
 10
135.138488
 20
317.497468
 11
134.138488
 21
317.497468
  0
LINE
  5
696
100
AcDbEntity
  8
DEFAULT_2
100
AcDbLine
 62
8
  6
CONTINUOUS
 10
123.323534
 20
317.497468
 11
124.323534
 21
317.497468
  0
LINE
  5
697
100
AcDbEntity
  8
0
100
AcDbLine
 62
7
  6
CONTINUOUS
 10
363.323534
 20
317.497468
 11
364.323534
 21
317.497468
  0
LINE
  5
698
100
AcDbEntity
  8
DEFAULT_2
100
AcDbLine
 62
8
  6
CONTINUOUS
 10
120.416056
 20
318.497468
 11
138.045966
 21
318.497468
  0
LINE
  5
699
100
AcDbEntity
  8
0
100
AcDbLine
 62
7
  6
CONTINUOUS
 10
360.416057
 20
318.497468
 11
378.045966
 21
318.497468
  0
LINE
  5
69A
100
AcDbEntity
  8
0
100
AcDbLine
 62
7
  6
CONTINUOUS
 10
373.731011
 20
320.324838
 11
364.731011
 21
320.324838
  0
LINE
  5
69B
100
AcDbEntity
  8
DEFAULT_2
100
AcDbLine
 62
8
  6
CONTINUOUS
 10
133.731011
 20
320.324838
 11
124.731011
 21
320.324838
  0
LINE
  5
69C
100
AcDbEntity
  8
0
100
AcDbLine
 62
7
  6
CONTINUOUS
 10
360.831011
 20
324.340666
 11
363.981011
 21
324.340666
  0
LINE
  5
69D
100
AcDbEntity
  8
0
100
AcDbLine
 62
7
  6
CONTINUOUS
 10
374.481011
 20
324.340666
 11
377.631011
 21
324.340666
  0
LINE
  5
69E
100
AcDbEntity
  8
0
100
AcDbLine
 62
7
  6
CONTINUOUS
 10
360.831011
 20
325.840666
 11
362.481011
 21
325.840666
  0
LINE
  5
69F
100
AcDbEntity
  8
0
100
AcDbLine
 62
7
  6
CONTINUOUS
 10
375.981011
 20
325.840666
 11
377.631011
 21
325.840666
  0
LINE
  5
6A0
100
AcDbEntity
  8
0
100
AcDbLine
 62
7
  6
CONTINUOUS
 10
370.881011
 20
327.324838
 11
367.581011
 21
327.324838
  0
LINE
  5
6A1
100
AcDbEntity
  8
DEFAULT_2
100
AcDbLine
 62
8
  6
CONTINUOUS
 10
130.881011
 20
327.324838
 11
127.581011
 21
327.324838
  0
LINE
  5
6A2
100
AcDbEntity
  8
0
100
AcDbLine
 62
7
  6
CONTINUOUS
 10
371.231011
 20
328.824838
 11
367.231011
 21
328.824838
  0
LINE
  5
6A3
100
AcDbEntity
  8
DEFAULT_2
100
AcDbLine
 62
8
  6
CONTINUOUS
 10
131.231011
 20
328.824838
 11
127.231011
 21
328.824838
  0
LINE
  5
6A4
100
AcDbEntity
  8
0
100
AcDbLine
 62
7
  6
CONTINUOUS
 10
226.231482
 20
303.319265
 11
272.231482
 21
303.315657
  0
LINE
  5
6A5
100
AcDbEntity
  8
0
100
AcDbLine
 62
7
  6
CONTINUOUS
 10
256.483519
 20
315.592277
 11
256.400386
 21
315.595495
  0
LINE
  5
6A6
100
AcDbEntity
  8
0
100
AcDbLine
 62
7
  6
CONTINUOUS
 10
245.117129
 20
315.624138
 11
244.969752
 21
315.634087
  0
LINE
  5
6A7
100
AcDbEntity
  8
0
100
AcDbLine
 62
7
  6
CONTINUOUS
 10
244.822668
 20
313.46014
 11
244.969752
 21
313.450191
  0
LINE
  5
6A8
100
AcDbEntity
  8
0
100
AcDbLine
 62
7
  6
CONTINUOUS
 10
244.969752
 20
315.787024
 11
245.135921
 21
315.775709
  0
LINE
  5
6A9
100
AcDbEntity
  8
0
100
AcDbLine
 62
7
  6
CONTINUOUS
 10
244.969752
 20
313.297255
 11
244.801632
 21
313.308764
  0
LINE
  5
6AA
100
AcDbEntity
  8
0
100
AcDbLine
 62
7
  6
CONTINUOUS
 10
256.48625
 20
315.729835
 11
256.6202
 21
315.719366
  0
LINE
  5
6AB
100
AcDbEntity
  8
0
100
AcDbLine
 62
2
  6
CONTINUOUS
 10
366.106718
 20
326.231234
 11
369.103599
 21
325.501647
  0
LINE
  5
6AC
100
AcDbEntity
  8
0
100
AcDbLine
 62
7
  6
CONTINUOUS
 10
370.981011
 20
355.040666
 11
373.231011
 21
353.040666
  0
LINE
  5
6AD
100
AcDbEntity
  8
0
100
AcDbLine
 62
7
  6
CONTINUOUS
 10
375.977998
 20
385.129042
 11
373.301045
 21
387.804296
  0
LINE
  5
6AE
100
AcDbEntity
  8
0
100
AcDbLine
 62
2
  6
CONTINUOUS
 10
364.381011
 20
359.086113
 11
362.881011
 21
360.586113
  0
LINE
  5
6AF
100
AcDbEntity
  8
0
100
AcDbLine
 62
2
  6
CONTINUOUS
 10
364.381011
 20
360.85388
 11
363.419975
 21
361.814915
  0
LINE
  5
6B0
100
AcDbEntity
  8
0
100
AcDbLine
 62
2
  6
CONTINUOUS
 10
375.581011
 20
354.957181
 11
374.081011
 21
356.457181
  0
LINE
  5
6B1
100
AcDbEntity
  8
0
100
AcDbLine
 62
2
  6
CONTINUOUS
 10
375.581011
 20
356.724948
 11
374.081011
 21
358.224948
  0
LINE
  5
6B2
100
AcDbEntity
  8
0
100
AcDbLine
 62
2
  6
CONTINUOUS
 10
375.581011
 20
358.492715
 11
374.081011
 21
359.992715
  0
LINE
  5
6B3
100
AcDbEntity
  8
0
100
AcDbLine
 62
2
  6
CONTINUOUS
 10
375.581011
 20
360.260481
 11
374.081011
 21
361.760481
  0
LINE
  5
6B4
100
AcDbEntity
  8
0
100
AcDbLine
 62
7
  6
CONTINUOUS
 10
256.559825
 20
314.641691
 11
256.629238
 21
314.658109
  0
LINE
  5
6B5
100
AcDbEntity
  8
0
100
AcDbLine
 62
7
  6
CONTINUOUS
 10
256.713964
 20
314.529752
 11
256.599132
 21
314.503612
  0
LINE
  5
6B6
100
AcDbEntity
  8
0
100
AcDbLine
 62
7
  6
CONTINUOUS
 10
245.295815
 20
313.342284
 11
245.135921
 21
313.308764
  0
LINE
  5
6B7
100
AcDbEntity
  8
0
100
AcDbLine
 62
7
  6
CONTINUOUS
 10
244.822668
 20
315.624138
 11
244.681566
 21
315.595138
  0
LINE
  5
6B8
100
AcDbEntity
  8
0
100
AcDbLine
 62
7
  6
CONTINUOUS
 10
245.117129
 20
313.46014
 11
245.258426
 21
313.48914
  0
LINE
  5
6B9
100
AcDbEntity
  8
0
100
AcDbLine
 62
7
  6
CONTINUOUS
 10
244.640503
 20
315.742677
 11
244.801632
 21
315.775709
  0
LINE
  5
6BA
100
AcDbEntity
  8
0
100
AcDbLine
 62
7
  6
CONTINUOUS
 10
256.483519
 20
314.63184
 11
256.559825
 21
314.641691
  0
LINE
  5
6BB
100
AcDbEntity
  8
0
100
AcDbLine
 62
7
  6
CONTINUOUS
 10
374.081011
 20
354.818652
 11
375.584341
 21
354.819178
  0
LINE
  5
6BC
100
AcDbEntity
  8
0
100
AcDbLine
 62
7
  6
CONTINUOUS
 10
362.884341
 20
354.814727
 11
364.381011
 21
354.815252
  0
LINE
  5
6BD
100
AcDbEntity
  8
0
100
AcDbLine
 62
7
  6
CONTINUOUS
 10
360.831011
 20
332.840666
 11
362.481011
 21
332.840666
  0
LINE
  5
6BE
100
AcDbEntity
  8
0
100
AcDbLine
 62
7
  6
CONTINUOUS
 10
375.981011
 20
332.840666
 11
377.631011
 21
332.840666
  0
LINE
  5
6BF
100
AcDbEntity
  8
0
100
AcDbLine
 62
7
  6
CONTINUOUS
 10
372.031011
 20
336.324838
 11
366.431011
 21
336.324838
  0
LINE
  5
6C0
100
AcDbEntity
  8
DEFAULT_2
100
AcDbLine
 62
8
  6
CONTINUOUS
 10
132.031011
 20
336.324838
 11
126.431011
 21
336.324838
  0
LINE
  5
6C1
100
AcDbEntity
  8
0
100
AcDbLine
 62
7
  6
CONTINUOUS
 10
363.981011
 20
337.640666
 11
365.231011
 21
337.640666
  0
LINE
  5
6C2
100
AcDbEntity
  8
0
100
AcDbLine
 62
7
  6
CONTINUOUS
 10
373.231011
 20
337.640666
 11
374.481011
 21
337.640666
  0
LINE
  5
6C3
100
AcDbEntity
  8
0
100
AcDbLine
 62
7
  6
CONTINUOUS
 10
365.231011
 20
353.040666
 11
373.231011
 21
353.040666
  0
LINE
  5
6C4
100
AcDbEntity
  8
0
100
AcDbLine
 62
7
  6
CONTINUOUS
 10
367.481011
 20
355.040666
 11
370.981011
 21
355.040666
  0
LINE
  5
6C5
100
AcDbEntity
  8
0
100
AcDbLine
 62
7
  6
CONTINUOUS
 10
370.681011
 20
385.254859
 11
369.231011
 21
386.096195
  0
LINE
  5
6C6
100
AcDbEntity
  8
0
100
AcDbLine
 62
7
  6
CONTINUOUS
 10
362.881887
 20
361.814727
 11
364.381011
 21
361.815252
  0
LINE
  5
6C7
100
AcDbEntity
  8
0
100
AcDbLine
 62
7
  6
CONTINUOUS
 10
374.081011
 20
361.818652
 11
375.581887
 21
361.819178
  0
LINE
  5
6C8
100
AcDbEntity
  8
0
100
AcDbLine
 62
7
  6
CONTINUOUS
 10
362.881362
 20
363.314727
 11
364.931011
 21
363.315445
  0
LINE
  5
6C9
100
AcDbEntity
  8
0
100
AcDbLine
 62
7
  6
CONTINUOUS
 10
373.531011
 20
363.318459
 11
375.581362
 21
363.319178
  0
LINE
  5
6CA
100
AcDbEntity
  8
0
100
AcDbLine
 62
7
  6
CONTINUOUS
 10
362.881186
 20
363.814727
 11
364.931011
 21
363.815445
  0
LINE
  5
6CB
100
AcDbEntity
  8
0
100
AcDbLine
 62
7
  6
CONTINUOUS
 10
373.531011
 20
363.818459
 11
375.581186
 21
363.819178
  0
LINE
  5
6CC
100
AcDbEntity
  8
0
100
AcDbLine
 62
7
  6
CONTINUOUS
 10
362.881011
 20
364.314727
 11
364.931011
 21
364.315445
  0
LINE
  5
6CD
100
AcDbEntity
  8
0
100
AcDbLine
 62
7
  6
CONTINUOUS
 10
373.531011
 20
364.318459
 11
375.581011
 21
364.319178
  0
LINE
  5
6CE
100
AcDbEntity
  8
0
100
AcDbLine
 62
7
  6
CONTINUOUS
 10
372.531011
 20
365.118109
 11
373.531011
 21
365.118459
  0
LINE
  5
6CF
100
AcDbEntity
  8
0
100
AcDbLine
 62
7
  6
CONTINUOUS
 10
364.931011
 20
365.115445
 11
365.931011
 21
365.115796
  0
LINE
  5
6D0
100
AcDbEntity
  8
0
100
AcDbLine
 62
7
  6
CONTINUOUS
 10
365.231011
 20
367.415551
 11
365.931011
 21
367.415796
  0
LINE
  5
6D1
100
AcDbEntity
  8
0
100
AcDbLine
 62
7
  6
CONTINUOUS
 10
372.531011
 20
367.418109
 11
373.231011
 21
367.418354
  0
LINE
  5
6D2
100
AcDbEntity
  8
0
100
AcDbLine
 62
7
  6
CONTINUOUS
 10
121.179347
 20
370.314149
 11
137.179347
 21
370.319757
  0
LINE
  5
6D3
100
AcDbEntity
  8
0
100
AcDbLine
 62
7
  6
CONTINUOUS
 10
373.231011
 20
370.818355
 11
377.230836
 21
370.819756
  0
LINE
  5
6D4
100
AcDbEntity
  8
0
100
AcDbLine
 62
7
  6
CONTINUOUS
 10
361.230836
 20
370.814149
 11
365.231011
 21
370.815551
  0
LINE
  5
6D5
100
AcDbEntity
  8
0
100
AcDbLine
 62
7
  6
CONTINUOUS
 10
373.231011
 20
371.318355
 11
377.230661
 21
371.319756
  0
LINE
  5
6D6
100
AcDbEntity
  8
0
100
AcDbLine
 62
7
  6
CONTINUOUS
 10
361.230661
 20
371.314149
 11
365.231011
 21
371.315551
  0
LINE
  5
6D7
100
AcDbEntity
  8
0
100
AcDbLine
 62
7
  6
CONTINUOUS
 10
361.229259
 20
375.314149
 11
361.429259
 21
375.314219
  0
LINE
  5
6D8
100
AcDbEntity
  8
0
100
AcDbLine
 62
7
  6
CONTINUOUS
 10
377.029259
 20
375.319686
 11
377.229259
 21
375.319756
  0
LINE
  5
6D9
100
AcDbEntity
  8
0
100
AcDbLine
 62
7
  6
CONTINUOUS
 10
361.728908
 20
376.314324
 11
361.737232
 21
376.314327
  0
LINE
  5
6DA
100
AcDbEntity
  8
0
100
AcDbLine
 62
7
  6
CONTINUOUS
 10
365.231011
 20
378.415551
 11
373.231011
 21
378.418355
  0
LINE
  5
6DB
100
AcDbEntity
  8
0
100
AcDbLine
 62
7
  6
CONTINUOUS
 10
137.179347
 20
370.314149
 11
121.179347
 21
370.314149
  0
LINE
  5
6DC
100
AcDbEntity
  8
0
100
AcDbLine
 62
2
  6
CONTINUOUS
 10
367.481011
 20
383.587425
 11
370.981011
 21
383.587425
  0
LINE
  5
6DD
100
AcDbEntity
  8
0
100
AcDbLine
 62
7
  6
CONTINUOUS
 10
137.231186
 20
370.311345
 11
121.231186
 21
370.316953
  0
LINE
  5
6DE
100
AcDbEntity
  8
0
100
AcDbLine
 62
7
  6
CONTINUOUS
 10
137.231362
 20
370.811345
 11
121.231362
 21
370.816953
  0
LINE
  5
6DF
100
AcDbEntity
  8
0
100
AcDbLine
 62
7
  6
CONTINUOUS
 10
137.232763
 20
374.811345
 11
137.032763
 21
374.811415
  0
LINE
  5
6E0
100
AcDbEntity
  8
0
100
AcDbLine
 62
7
  6
CONTINUOUS
 10
121.432763
 20
374.816882
 11
121.232763
 21
374.816952
  0
LINE
  5
6E1
100
AcDbEntity
  8
0
100
AcDbLine
 62
7
  6
CONTINUOUS
 10
136.733114
 20
375.81152
 11
136.72479
 21
375.811523
  0
LINE
  5
6E2
100
AcDbEntity
  8
0
100
AcDbLine
 62
7
  6
CONTINUOUS
 10
367.228083
 20
386.809357
 11
364.340935
 21
387.903784
  0
LINE
  5
6E3
100
AcDbEntity
  8
0
100
AcDbLine
 62
7
  6
CONTINUOUS
 10
373.301045
 20
387.804296
 11
367.228083
 21
386.809357
  0
LINE
  5
6E4
100
AcDbEntity
  8
0
100
AcDbLine
 62
7
  6
CONTINUOUS
 10
369.227682
 20
401.316953
 11
369.231011
 21
401.316955
  0
LINE
  5
6E5
100
AcDbEntity
  8
0
100
AcDbLine
 62
7
  6
CONTINUOUS
 10
129.234341
 20
400.81415
 11
129.231011
 21
400.814151
  0
LINE
  5
6E6
100
AcDbEntity
  8
0
100
AcDbLine
 62
7
  6
CONTINUOUS
 10
46.0747639448
 20
470.5196467723
 11
452.1622519484
 21
470.4877953885
  0
ARC
  5
6E7
100
AcDbEntity
  8
0
100
AcDbCircle
 62
7
  6
CONTINUOUS
 10
-7.690167
 20
363.510397
 40
129.129896
100
AcDbArc
 50
332.209818
 51
356.360824
  0
ARC
  5
6E8
100
AcDbEntity
  8
0
100
AcDbCircle
 62
7
  6
CONTINUOUS
 10
-7.690167
 20
363.510397
 40
129.129896
100
AcDbArc
 50
329.158528
 51
329.16615
  0
ARC
  5
6E9
100
AcDbEntity
  8
0
100
AcDbCircle
 62
7
  6
CONTINUOUS
 10
232.361498
 20
363.510397
 40
129.129896
100
AcDbArc
 50
332.818711
 51
356.360824
  0
ARC
  5
6EA
100
AcDbEntity
  8
0
100
AcDbCircle
 62
7
  6
CONTINUOUS
 10
81.965653
 20
325.221701
 40
75.768695
100
AcDbArc
 50
68.096283
 51
109.053407
  0
ARC
  5
6EB
100
AcDbEntity
  8
0
100
AcDbCircle
 62
2
  6
CONTINUOUS
 10
37.4911194651
 20
272.1188768744
 40
59.4748871685
100
AcDbArc
 50
10.6050967854
 51
24.3029861555
  0
ARC
  5
6EC
100
AcDbEntity
  8
0
100
AcDbCircle
 62
2
  6
CONTINUOUS
 10
37.4922474674
 20
272.1189784293
 40
59.4737492308
100
AcDbArc
 50
357.5691152299
 51
4.0871586252
  0
ARC
  5
6ED
100
AcDbEntity
  8
0
100
AcDbCircle
 62
2
  6
CONTINUOUS
 10
37.4922483764
 20
272.1190717739
 40
59.4737416712
100
AcDbArc
 50
4.0870689901
 51
10.6051123855
  0
ARC
  5
6EE
100
AcDbEntity
  8
0
100
AcDbCircle
 62
7
  6
CONTINUOUS
 10
172.408977
 20
315.62412
 40
23.774658
100
AcDbArc
 50
216.901566
 51
216.973857
  0
ARC
  5
6EF
100
AcDbEntity
  8
0
100
AcDbCircle
 62
7
  6
CONTINUOUS
 10
172.408977
 20
315.62412
 40
23.774658
100
AcDbArc
 50
223.201427
 51
223.280746
  0
ARC
  5
6F0
100
AcDbEntity
  8
0
100
AcDbCircle
 62
7
  6
CONTINUOUS
 10
172.408977
 20
315.62412
 40
23.774658
100
AcDbArc
 50
230.291869
 51
230.326682
  0
ARC
  5
6F1
100
AcDbEntity
  8
0
100
AcDbCircle
 62
2
  6
CONTINUOUS
 10
184.932122109
 20
283.4524120468
 40
19.4581933751
100
AcDbArc
 50
356.3405037064
 51
42.4931367662
  0
ARC
  5
6F2
100
AcDbEntity
  8
0
100
AcDbCircle
 62
2
  6
CONTINUOUS
 10
184.9322025904
 20
283.4523810227
 40
19.4581027771
100
AcDbArc
 50
314.5947198033
 51
356.3405154067
  0
ARC
  5
6F3
100
AcDbEntity
  8
0
100
AcDbCircle
 62
2
  6
CONTINUOUS
 10
180.9126538172
 20
283.4835061298
 40
17.6933895355
100
AcDbArc
 50
308.2910849467
 51
47.8265855102
  0
ARC
  5
6F4
100
AcDbEntity
  8
DEFAULT_2
100
AcDbCircle
 62
8
  6
CONTINUOUS
 10
129.227272
 20
305.974149
 40
12.52332
100
AcDbArc
 50
66.91068
 51
113.052137
  0
ARC
  5
6F5
100
AcDbEntity
  8
DEFAULT_2
100
AcDbCircle
 62
8
  6
CONTINUOUS
 10
121.369795
 20
316.089991
 40
2.407922
100
AcDbArc
 50
35.769055
 51
144.230945
  0
ARC
  5
6F6
100
AcDbEntity
  8
DEFAULT_2
100
AcDbCircle
 62
8
  6
CONTINUOUS
 10
137.092227
 20
316.089991
 40
2.407922
100
AcDbArc
 50
35.769055
 51
144.230945
  0
ARC
  5
6F7
100
AcDbEntity
  8
DEFAULT_2
100
AcDbCircle
 62
8
  6
CONTINUOUS
 10
129.5766781578
 20
327.4448944488
 40
2.0000046059
100
AcDbArc
 50
256.3176390544
 51
294.5823047193
  0
ARC
  5
6F8
100
AcDbEntity
  8
0
100
AcDbCircle
 62
7
  6
CONTINUOUS
 10
103.333226
 20
297.386074
 40
1.948494
100
AcDbArc
 50
95.728266
 51
182.234969
  0
ARC
  5
6F9
100
AcDbEntity
  8
0
100
AcDbCircle
 62
7
  6
CONTINUOUS
 10
155.272884
 20
297.410051
 40
1.948494
100
AcDbArc
 50
357.493518
 51
79.327379
  0
ARC
  5
6FA
100
AcDbEntity
  8
0
100
AcDbCircle
 62
7
  6
CONTINUOUS
 10
223.333697
 20
297.386071
 40
1.948494
100
AcDbArc
 50
95.728266
 51
182.234969
  0
ARC
  5
6FB
100
AcDbEntity
  8
DEFAULT_2
100
AcDbCircle
 62
8
  6
CONTINUOUS
 10
124.504665
 20
325.951184
 40
1.626346
100
AcDbArc
 50
278.000072
 51
45.0
  0
ARC
  5
6FC
100
AcDbEntity
  8
DEFAULT_2
100
AcDbCircle
 62
8
  6
CONTINUOUS
 10
133.957357
 20
325.951184
 40
1.626346
100
AcDbArc
 50
135.0
 51
261.999928
  0
ARC
  5
6FD
100
AcDbEntity
  8
0
100
AcDbCircle
 62
7
  6
CONTINUOUS
 10
105.08499
 20
299.722399
 40
1.607229
100
AcDbArc
 50
94.424195
 51
194.321201
  0
ARC
  5
6FE
100
AcDbEntity
  8
0
100
AcDbCircle
 62
7
  6
CONTINUOUS
 10
153.52112
 20
299.746375
 40
1.607229
100
AcDbArc
 50
344.794883
 51
79.143646
  0
ARC
  5
6FF
100
AcDbEntity
  8
0
100
AcDbCircle
 62
7
  6
CONTINUOUS
 10
225.08546
 20
299.722395
 40
1.607229
100
AcDbArc
 50
94.424195
 51
194.321201
  0
ARC
  5
700
100
AcDbEntity
  8
0
100
AcDbCircle
 62
7
  6
CONTINUOUS
 10
106.394243
 20
301.966347
 40
1.347739
100
AcDbArc
 50
96.525708
 51
208.423728
  0
ARC
  5
701
100
AcDbEntity
  8
0
100
AcDbCircle
 62
7
  6
CONTINUOUS
 10
152.211867
 20
301.990323
 40
1.347739
100
AcDbArc
 50
330.410765
 51
96.465342
  0
ARC
  5
702
100
AcDbEntity
  8
0
100
AcDbCircle
 62
7
  6
CONTINUOUS
 10
152.211867
 20
301.990323
 40
1.347739
100
AcDbArc
 50
209.511328
 51
209.589235
  0
ARC
  5
703
100
AcDbEntity
  8
0
100
AcDbCircle
 62
7
  6
CONTINUOUS
 10
226.394713
 20
301.966343
 40
1.347739
100
AcDbArc
 50
96.525708
 51
208.423728
  0
ARC
  5
704
100
AcDbEntity
  8
0
100
AcDbCircle
 62
7
  6
CONTINUOUS
 10
136.729328
 20
407.918611
 40
13.644895
100
AcDbArc
 50
274.246073
 51
298.500266
  0
ARC
  5
705
100
AcDbEntity
  8
0
100
AcDbCircle
 62
7
  6
CONTINUOUS
 10
136.727225
 20
374.703726
 40
13.644895
100
AcDbArc
 50
61.499734
 51
85.753927
  0
ARC
  5
706
100
AcDbEntity
  8
0
100
AcDbCircle
 62
7
  6
CONTINUOUS
 10
129.231011
 20
391.31415
 40
9.5
100
AcDbArc
 50
307.843566
 51
333.556517
  0
ARC
  5
707
100
AcDbEntity
  8
0
100
AcDbCircle
 62
7
  6
CONTINUOUS
 10
129.231011
 20
391.31415
 40
9.5
100
AcDbArc
 50
26.403322
 51
153.352993
  0
ARC
  5
708
100
AcDbEntity
  8
0
100
AcDbCircle
 62
7
  6
CONTINUOUS
 10
129.231011
 20
391.31415
 40
9.5
100
AcDbArc
 50
206.606846
 51
232.116273
  0
ARC
  5
709
100
AcDbEntity
  8
0
100
AcDbCircle
 62
7
  6
CONTINUOUS
 10
116.297155
 20
381.120598
 40
7.594746
100
AcDbArc
 50
315.704912
 51
20.789103
  0
ARC
  5
70A
100
AcDbEntity
  8
0
100
AcDbCircle
 62
7
  6
CONTINUOUS
 10
142.15961
 20
381.11651
 40
7.594746
100
AcDbArc
 50
229.55025
 51
229.556826
  0
ARC
  5
70B
100
AcDbEntity
  8
0
100
AcDbCircle
 62
7
  6
CONTINUOUS
 10
142.15961
 20
381.11651
 40
7.594746
100
AcDbArc
 50
159.210897
 51
224.397188
  0
ARC
  5
70C
100
AcDbEntity
  8
0
100
AcDbCircle
 62
7
  6
CONTINUOUS
 10
116.297155
 20
381.120598
 40
7.594746
100
AcDbArc
 50
310.533761
 51
310.54417
  0
ARC
  5
70D
100
AcDbEntity
  8
0
100
AcDbCircle
 62
7
  6
CONTINUOUS
 10
111.207357
 20
380.798571
 40
6.4339
100
AcDbArc
 50
51.289661
 51
98.728366
  0
ARC
  5
70E
100
AcDbEntity
  8
0
100
AcDbCircle
 62
7
  6
CONTINUOUS
 10
111.275848
 20
401.775607
 40
6.341465
100
AcDbArc
 50
321.388107
 51
321.393182
  0
ARC
  5
70F
100
AcDbEntity
  8
0
100
AcDbCircle
 62
7
  6
CONTINUOUS
 10
111.275848
 20
401.775607
 40
6.341465
100
AcDbArc
 50
260.51655
 51
308.591812
  0
ARC
  5
710
100
AcDbEntity
  8
0
100
AcDbCircle
 62
7
  6
CONTINUOUS
 10
121.514661
 20
400.251715
 40
5.489554
100
AcDbArc
 50
218.709425
 51
261.885207
  0
ARC
  5
711
100
AcDbEntity
  8
0
100
AcDbCircle
 62
7
  6
CONTINUOUS
 10
121.310026
 20
382.737641
 40
5.11167
100
AcDbArc
 50
96.432871
 51
142.937733
  0
ARC
  5
712
100
AcDbEntity
  8
0
100
AcDbCircle
 62
7
  6
CONTINUOUS
 10
50.922704
 20
398.245977
 40
4.532109
100
AcDbArc
 50
276.789721
 51
341.918984
  0
ARC
  5
713
100
AcDbEntity
  8
0
100
AcDbCircle
 62
7
  6
CONTINUOUS
 10
50.922704
 20
384.437523
 40
4.532109
100
AcDbArc
 50
18.080633
 51
83.210279
  0
ARC
  5
714
100
AcDbEntity
  8
0
100
AcDbCircle
 62
7
  6
CONTINUOUS
 10
50.922704
 20
398.245977
 40
4.532109
100
AcDbArc
 50
354.860848
 51
355.17831
  0
ARC
  5
715
100
AcDbEntity
  8
0
100
AcDbCircle
 62
7
  6
CONTINUOUS
 10
50.922704
 20
384.437523
 40
4.532109
100
AcDbArc
 50
4.82169
 51
5.09506
  0
ARC
  5
716
100
AcDbEntity
  8
0
100
AcDbCircle
 62
7
  6
CONTINUOUS
 10
50.481011
 20
391.34175
 40
3.25
100
AcDbArc
 50
90.0
 51
270.0
  0
ARC
  5
717
100
AcDbEntity
  8
0
100
AcDbCircle
 62
7
  6
CONTINUOUS
 10
136.85559
 20
372.811213
 40
1.546779
100
AcDbArc
 50
302.677169
 51
57.290536
  0
ARC
  5
718
100
AcDbEntity
  8
0
100
AcDbCircle
 62
7
  6
CONTINUOUS
 10
121.609586
 20
372.81682
 40
1.546779
100
AcDbArc
 50
122.709464
 51
237.250375
  0
ARC
  5
719
100
AcDbEntity
  8
0
100
AcDbCircle
 62
7
  6
CONTINUOUS
 10
144.237319
 20
387.808891
 40
1.5
100
AcDbArc
 50
227.534896
 51
359.979919
  0
ARC
  5
71A
100
AcDbEntity
  8
0
100
AcDbCircle
 62
7
  6
CONTINUOUS
 10
144.239773
 20
394.80889
 40
1.5
100
AcDbArc
 50
359.979919
 51
131.790234
  0
ARC
  5
71B
100
AcDbEntity
  8
0
100
AcDbCircle
 62
7
  6
CONTINUOUS
 10
51.469106
 20
394.745596
 40
1.0
100
AcDbArc
 50
188.849883
 51
288.35109
  0
ARC
  5
71C
100
AcDbEntity
  8
0
100
AcDbCircle
 62
7
  6
CONTINUOUS
 10
51.469106
 20
387.937904
 40
1.0
100
AcDbArc
 50
71.64891
 51
171.150117
  0
ARC
  5
71D
100
AcDbEntity
  8
0
100
AcDbCircle
 62
7
  6
CONTINUOUS
 10
56.231011
 20
396.839735
 40
1.0
100
AcDbArc
 50
359.9799189999
 51
180.0200809999
  0
ARC
  5
71E
100
AcDbEntity
  8
0
100
AcDbCircle
 62
7
  6
CONTINUOUS
 10
56.231011
 20
385.839735
 40
1.0
100
AcDbArc
 50
179.750641
 51
360.0
  0
ARC
  5
71F
100
AcDbEntity
  8
0
100
AcDbCircle
 62
7
  6
CONTINUOUS
 10
116.231011
 20
396.818707
 40
1.0
100
AcDbArc
 50
359.979919
 51
180.0
  0
ARC
  5
720
100
AcDbEntity
  8
0
100
AcDbCircle
 62
7
  6
CONTINUOUS
 10
116.231011
 20
385.818706
 40
1.0
100
AcDbArc
 50
179.979922
 51
360.0
  0
ARC
  5
721
100
AcDbEntity
  8
0
100
AcDbCircle
 62
7
  6
CONTINUOUS
 10
137.231537
 20
371.311345
 40
0.5
100
AcDbArc
 50
269.979919
 51
23.316349
  0
ARC
  5
722
100
AcDbEntity
  8
0
100
AcDbCircle
 62
7
  6
CONTINUOUS
 10
137.232588
 20
374.311345
 40
0.5
100
AcDbArc
 50
336.591837
 51
89.979919
  0
ARC
  5
723
100
AcDbEntity
  8
0
100
AcDbCircle
 62
7
  6
CONTINUOUS
 10
136.732939
 20
375.31152
 40
0.5
100
AcDbArc
 50
306.844801
 51
90.926185
  0
ARC
  5
724
100
AcDbEntity
  8
0
100
AcDbCircle
 62
7
  6
CONTINUOUS
 10
121.231537
 20
371.316953
 40
0.5
100
AcDbArc
 50
156.551676
 51
269.979919
  0
ARC
  5
725
100
AcDbEntity
  8
0
100
AcDbCircle
 62
7
  6
CONTINUOUS
 10
121.232588
 20
374.316952
 40
0.5
100
AcDbArc
 50
89.979919
 51
203.408163
  0
ARC
  5
726
100
AcDbEntity
  8
0
100
AcDbCircle
 62
7
  6
CONTINUOUS
 10
121.732939
 20
375.316777
 40
0.5
100
AcDbArc
 50
89.979919
 51
233.104997
  0
ARC
  5
727
100
AcDbEntity
  8
0
100
AcDbCircle
 62
7
  6
CONTINUOUS
 10
81.965653
 20
457.457068
 40
75.768695
100
AcDbArc
 50
250.946593
 51
291.903717
  0
ARC
  5
728
100
AcDbEntity
  8
0
100
AcDbCircle
 62
7
  6
CONTINUOUS
 10
152.03877
 20
385.961046
 40
6.563802
100
AcDbArc
 50
125.458615
 51
163.669703
  0
ARC
  5
729
100
AcDbEntity
  8
0
100
AcDbCircle
 62
7
  6
CONTINUOUS
 10
152.03877
 20
396.653936
 40
6.563802
100
AcDbArc
 50
196.330297
 51
234.541385
  0
ARC
  5
72A
100
AcDbEntity
  8
0
100
AcDbCircle
 62
7
  6
CONTINUOUS
 10
249.231158
 20
422.188458
 40
19.059243
100
AcDbArc
 50
12.507293
 51
167.483718
  0
ARC
  5
72B
100
AcDbEntity
  8
0
100
AcDbCircle
 62
7
  6
CONTINUOUS
 10
249.231407
 20
425.368166
 40
18.630814
100
AcDbArc
 50
2.91616
 51
177.074851
  0
ARC
  5
72C
100
AcDbEntity
  8
0
100
AcDbCircle
 62
7
  6
CONTINUOUS
 10
249.231482
 20
426.317461
 40
18.606613
100
AcDbArc
 50
179.995506
 51
359.995506
  0
ARC
  5
72D
100
AcDbEntity
  8
0
100
AcDbCircle
 62
7
  6
CONTINUOUS
 10
249.2311367067
 20
421.8886422911
 40
13.5558467505
100
AcDbArc
 50
71.2480933403
 51
108.7429112832
  0
ARC
  5
72E
100
AcDbEntity
  8
0
100
AcDbCircle
 62
7
  6
CONTINUOUS
 10
249.2318272933
 20
430.7462807089
 40
13.5558467505
100
AcDbArc
 50
251.2480933403
 51
288.7429112832
  0
ARC
  5
72F
100
AcDbEntity
  8
0
100
AcDbCircle
 62
7
  6
CONTINUOUS
 10
249.231482
 20
456.317461
 40
12.861819
100
AcDbArc
 50
359.995506
 51
179.995506
  0
ARC
  5
730
100
AcDbEntity
  8
0
100
AcDbCircle
 62
7
  6
CONTINUOUS
 10
248.495317351
 20
424.0571475302
 40
11.2659042424
100
AcDbArc
 50
108.7428898346
 51
129.3264517956
  0
ARC
  5
731
100
AcDbEntity
  8
0
100
AcDbCircle
 62
7
  6
CONTINUOUS
 10
249.967646649
 20
428.5777754698
 40
11.2659042424
100
AcDbArc
 50
288.7428898346
 51
309.3264517956
  0
ARC
  5
732
100
AcDbEntity
  8
0
100
AcDbCircle
 62
7
  6
CONTINUOUS
 10
248.4956685667
 20
428.5778923782
 40
11.2659040386
100
AcDbArc
 50
230.6645776046
 51
251.2481395655
  0
ARC
  5
733
100
AcDbEntity
  8
0
100
AcDbCircle
 62
7
  6
CONTINUOUS
 10
249.9672921797
 20
424.0570328754
 40
11.2659029506
100
AcDbArc
 50
50.6645582516
 51
71.2481202125
  0
ARC
  5
734
100
AcDbEntity
  8
0
100
AcDbCircle
 62
7
  6
CONTINUOUS
 10
249.231482
 20
426.317461
 40
11.138775
100
AcDbArc
 50
179.995506
 51
359.995506
  0
ARC
  5
735
100
AcDbEntity
  8
0
100
AcDbCircle
 62
7
  6
CONTINUOUS
 10
247.3649835405
 20
425.4368353599
 40
9.4823143145
100
AcDbArc
 50
129.3264128835
 51
153.1783281198
  0
ARC
  5
736
100
AcDbEntity
  8
0
100
AcDbCircle
 62
7
  6
CONTINUOUS
 10
251.0979804595
 20
427.1980876401
 40
9.4823143145
100
AcDbArc
 50
309.3264128835
 51
333.1783281198
  0
ARC
  5
737
100
AcDbEntity
  8
0
100
AcDbCircle
 62
7
  6
CONTINUOUS
 10
247.3651219718
 20
427.1983788101
 40
9.4823140387
100
AcDbArc
 50
206.8126758101
 51
230.6645910464
  0
ARC
  5
738
100
AcDbEntity
  8
0
100
AcDbCircle
 62
7
  6
CONTINUOUS
 10
251.0978438956
 20
425.4365413225
 40
9.4823136655
100
AcDbArc
 50
26.8126963626
 51
50.6646115989
  0
ARC
  5
739
100
AcDbEntity
  8
0
100
AcDbCircle
 62
7
  6
CONTINUOUS
 10
252.8402471446
 20
426.3171780209
 40
7.5300098785
100
AcDbArc
 50
333.1783197967
 51
26.8126908922
  0
ARC
  5
73A
100
AcDbEntity
  8
0
100
AcDbCircle
 62
7
  6
CONTINUOUS
 10
245.6227168554
 20
426.3177449791
 40
7.5300098785
100
AcDbArc
 50
153.1783197967
 51
206.8126908922
  0
ARC
  5
73B
100
AcDbEntity
  8
0
100
AcDbCircle
 62
2
  6
CONTINUOUS
 10
310.4783722029
 20
282.5103867522
 40
20.2917052085
100
AcDbArc
 50
136.0382340878
 51
178.1009620785
  0
ARC
  5
73C
100
AcDbEntity
  8
0
100
AcDbCircle
 62
2
  6
CONTINUOUS
 10
310.4782784171
 20
282.5103788271
 40
20.2915980592
100
AcDbArc
 50
178.1009490132
 51
219.5494412632
  0
ARC
  5
73D
100
AcDbEntity
  8
0
100
AcDbCircle
 62
2
  6
CONTINUOUS
 10
315.9853091988
 20
282.0131548853
 40
19.7056220461
100
AcDbArc
 50
177.9178943108
 51
219.0678414339
  0
ARC
  5
73E
100
AcDbEntity
  8
0
100
AcDbCircle
 62
2
  6
CONTINUOUS
 10
315.9851763701
 20
282.0131438991
 40
19.7054679849
100
AcDbArc
 50
132.2631554907
 51
177.9178762033
  0
ARC
  5
73F
100
AcDbEntity
  8
0
100
AcDbCircle
 62
7
  6
CONTINUOUS
 10
275.273354
 20
297.410048
 40
1.948494
100
AcDbArc
 50
357.493518
 51
79.327379
  0
ARC
  5
740
100
AcDbEntity
  8
0
100
AcDbCircle
 62
7
  6
CONTINUOUS
 10
343.375151
 20
297.410051
 40
1.948494
100
AcDbArc
 50
95.728266
 51
182.234969
  0
ARC
  5
741
100
AcDbEntity
  8
0
100
AcDbCircle
 62
7
  6
CONTINUOUS
 10
273.521591
 20
299.746372
 40
1.607229
100
AcDbArc
 50
344.794883
 51
79.143646
  0
ARC
  5
742
100
AcDbEntity
  8
0
100
AcDbCircle
 62
7
  6
CONTINUOUS
 10
345.126914
 20
299.746375
 40
1.607229
100
AcDbArc
 50
94.424195
 51
194.321201
  0
ARC
  5
743
100
AcDbEntity
  8
0
100
AcDbCircle
 62
7
  6
CONTINUOUS
 10
272.212338
 20
301.99032
 40
1.347739
100
AcDbArc
 50
209.511328
 51
209.589235
  0
ARC
  5
744
100
AcDbEntity
  8
0
100
AcDbCircle
 62
7
  6
CONTINUOUS
 10
272.212338
 20
301.99032
 40
1.347739
100
AcDbArc
 50
330.410765
 51
96.465342
  0
ARC
  5
745
100
AcDbEntity
  8
0
100
AcDbCircle
 62
7
  6
CONTINUOUS
 10
346.436167
 20
301.990323
 40
1.347739
100
AcDbArc
 50
96.525708
 51
208.423728
  0
ARC
  5
746
100
AcDbEntity
  8
0
100
AcDbCircle
 62
7
  6
CONTINUOUS
 10
292.409448
 20
315.624116
 40
23.774658
100
AcDbArc
 50
216.901566
 51
216.973857
  0
ARC
  5
747
100
AcDbEntity
  8
0
100
AcDbCircle
 62
7
  6
CONTINUOUS
 10
292.409448
 20
315.624116
 40
23.774658
100
AcDbArc
 50
230.291869
 51
230.326682
  0
ARC
  5
748
100
AcDbEntity
  8
0
100
AcDbCircle
 62
7
  6
CONTINUOUS
 10
292.409448
 20
315.624116
 40
23.774658
100
AcDbArc
 50
223.201427
 51
223.280746
  0
ARC
  5
749
100
AcDbEntity
  8
0
100
AcDbCircle
 62
2
  6
CONTINUOUS
 10
425.1117564369
 20
279.96792664
 40
24.5263246373
100
AcDbArc
 50
169.6257613105
 51
205.5635248092
  0
ARC
  5
74A
100
AcDbEntity
  8
0
100
AcDbCircle
 62
2
  6
CONTINUOUS
 10
425.1115996612
 20
279.9679998144
 40
24.5261468306
100
AcDbArc
 50
137.3133412198
 51
169.6257785758
  0
ARC
  5
74B
100
AcDbEntity
  8
0
100
AcDbCircle
 62
7
  6
CONTINUOUS
 10
395.324548
 20
297.410051
 40
1.948494
100
AcDbArc
 50
357.493518
 51
79.327379
  0
ARC
  5
74C
100
AcDbEntity
  8
0
100
AcDbCircle
 62
7
  6
CONTINUOUS
 10
393.572785
 20
299.746375
 40
1.607229
100
AcDbArc
 50
344.794883
 51
79.143646
  0
ARC
  5
74D
100
AcDbEntity
  8
0
100
AcDbCircle
 62
7
  6
CONTINUOUS
 10
392.263532
 20
301.990323
 40
1.347739
100
AcDbArc
 50
330.410765
 51
96.465342
  0
ARC
  5
74E
100
AcDbEntity
  8
0
100
AcDbCircle
 62
7
  6
CONTINUOUS
 10
375.731011
 20
282.824838
 40
1.0
100
AcDbArc
 50
90.0
 51
180.0
  0
ARC
  5
74F
100
AcDbEntity
  8
0
100
AcDbCircle
 62
7
  6
CONTINUOUS
 10
362.731011
 20
282.824838
 40
1.0
100
AcDbArc
 50
0.0
 51
90.0
  0
ARC
  5
750
100
AcDbEntity
  8
0
100
AcDbCircle
 62
7
  6
CONTINUOUS
 10
416.496369
 20
325.724505
 40
75.768695
100
AcDbArc
 50
70.946593
 51
111.903717
  0
ARC
  5
751
100
AcDbEntity
  8
0
100
AcDbCircle
 62
7
  6
CONTINUOUS
 10
369.227272
 20
305.974149
 40
12.52332
100
AcDbArc
 50
66.91068
 51
113.052137
  0
ARC
  5
752
100
AcDbEntity
  8
0
100
AcDbCircle
 62
7
  6
CONTINUOUS
 10
377.092227
 20
316.089991
 40
2.407922
100
AcDbArc
 50
35.769055
 51
144.230945
  0
ARC
  5
753
100
AcDbEntity
  8
0
100
AcDbCircle
 62
7
  6
CONTINUOUS
 10
361.369795
 20
316.089991
 40
2.407922
100
AcDbArc
 50
35.769055
 51
144.230945
  0
ARC
  5
754
100
AcDbEntity
  8
0
100
AcDbCircle
 62
2
  6
CONTINUOUS
 10
369.576679599
 20
327.4448949488
 40
2.000004461
100
AcDbArc
 50
256.3175955483
 51
294.5822612132
  0
ARC
  5
755
100
AcDbEntity
  8
0
100
AcDbCircle
 62
7
  6
CONTINUOUS
 10
373.957357
 20
325.951184
 40
1.626346
100
AcDbArc
 50
135.0
 51
261.999928
  0
ARC
  5
756
100
AcDbEntity
  8
0
100
AcDbCircle
 62
7
  6
CONTINUOUS
 10
364.504665
 20
325.951184
 40
1.626346
100
AcDbArc
 50
278.000072
 51
45.0
  0
ARC
  5
757
100
AcDbEntity
  8
0
100
AcDbCircle
 62
7
  6
CONTINUOUS
 10
379.9497346005
 20
304.4447069521
 40
1.4839844766
100
AcDbArc
 50
131.5872035383
 51
163.7343499027
  0
ARC
  5
758
100
AcDbEntity
  8
0
100
AcDbCircle
 62
7
  6
CONTINUOUS
 10
359.8030215207
 20
305.2660689657
 40
1.4839843639
100
AcDbArc
 50
196.2377780898
 51
228.3846847517
  0
ARC
  5
759
100
AcDbEntity
  8
0
100
AcDbCircle
 62
7
  6
CONTINUOUS
 10
358.5125930718
 20
304.4499372494
 40
1.4839842828
100
AcDbArc
 50
16.2377780897
 51
48.3847741486
  0
ARC
  5
75A
100
AcDbEntity
  8
0
100
AcDbCircle
 62
7
  6
CONTINUOUS
 10
378.6597029699
 20
305.2614645966
 40
1.4839839782
100
AcDbArc
 50
311.587308729
 51
343.7342240585
  0
ARC
  5
75B
100
AcDbEntity
  8
0
100
AcDbCircle
 62
7
  6
CONTINUOUS
 10
358.8878058583
 20
304.5592194376
 40
1.0931806986
100
AcDbArc
 50
357.4879040486
 51
16.2376015242
  0
ARC
  5
75C
100
AcDbEntity
  8
0
100
AcDbCircle
 62
7
  6
CONTINUOUS
 10
359.4278081417
 20
305.1567875624
 40
1.0931806986
100
AcDbArc
 50
177.4879040486
 51
196.2376015242
  0
ARC
  5
75D
100
AcDbEntity
  8
0
100
AcDbCircle
 62
7
  6
CONTINUOUS
 10
379.5745730431
 20
304.5541680062
 40
1.0931802846
100
AcDbArc
 50
163.7343621588
 51
182.4840596343
  0
ARC
  5
75E
100
AcDbEntity
  8
0
100
AcDbCircle
 62
7
  6
CONTINUOUS
 10
379.0348639569
 20
305.1520019938
 40
1.0931802846
100
AcDbArc
 50
343.7343621588
 51
2.4840596343
  0
ARC
  5
75F
100
AcDbEntity
  8
0
100
AcDbCircle
 62
7
  6
CONTINUOUS
 10
379.690332548
 20
304.7370052336
 40
1.0931792704
100
AcDbArc
 50
112.837559953
 51
131.5872574285
  0
ARC
  5
760
100
AcDbEntity
  8
0
100
AcDbCircle
 62
7
  6
CONTINUOUS
 10
378.919104452
 20
304.9691647664
 40
1.0931792704
100
AcDbArc
 50
292.837559953
 51
311.5872574285
  0
ARC
  5
761
100
AcDbEntity
  8
0
100
AcDbCircle
 62
7
  6
CONTINUOUS
 10
358.7721367618
 20
304.7421123846
 40
1.0931784017
100
AcDbArc
 50
48.3847579853
 51
67.1344554608
  0
ARC
  5
762
100
AcDbEntity
  8
0
100
AcDbCircle
 62
7
  6
CONTINUOUS
 10
359.5434772382
 20
304.9738936154
 40
1.0931784017
100
AcDbArc
 50
228.3847579853
 51
247.1344554608
  0
ARC
  5
763
100
AcDbEntity
  8
0
100
AcDbCircle
 62
7
  6
CONTINUOUS
 10
358.8846320387
 20
305.0088754175
 40
0.8036655297
100
AcDbArc
 50
67.1344001362
 51
91.5391199785
  0
ARC
  5
764
100
AcDbEntity
  8
0
100
AcDbCircle
 62
7
  6
CONTINUOUS
 10
359.4309796492
 20
304.7071310825
 40
0.803665092
100
AcDbArc
 50
247.1345658733
 51
271.5392857156
  0
ARC
  5
765
100
AcDbEntity
  8
0
100
AcDbCircle
 62
7
  6
CONTINUOUS
 10
379.577967084
 20
305.0038255536
 40
0.8036640192
100
AcDbArc
 50
88.4329286756
 51
112.8376485179
  0
ARC
  5
766
100
AcDbEntity
  8
0
100
AcDbCircle
 62
7
  6
CONTINUOUS
 10
379.031469916
 20
304.7023444464
 40
0.8036640192
100
AcDbArc
 50
268.4329286756
 51
292.8376485179
  0
ARC
  5
767
100
AcDbEntity
  8
0
100
AcDbCircle
 62
7
  6
CONTINUOUS
 10
379.3241086087
 20
305.1645500735
 40
0.8036635788
100
AcDbArc
 50
2.4840589807
 51
26.888778823
  0
ARC
  5
768
100
AcDbEntity
  8
0
100
AcDbCircle
 62
7
  6
CONTINUOUS
 10
359.1770447182
 20
304.5465278674
 40
0.8036635246
100
AcDbArc
 50
333.083323055
 51
357.4880428973
  0
ARC
  5
769
100
AcDbEntity
  8
0
100
AcDbCircle
 62
7
  6
CONTINUOUS
 10
359.1385692818
 20
305.1694791326
 40
0.8036635246
100
AcDbArc
 50
153.083323055
 51
177.4880428973
  0
ARC
  5
76A
100
AcDbEntity
  8
0
100
AcDbCircle
 62
7
  6
CONTINUOUS
 10
379.2853278913
 20
304.5416176144
 40
0.8036629791
100
AcDbArc
 50
182.4838958412
 51
206.8886156835
  0
ARC
  5
76B
100
AcDbEntity
  8
0
100
AcDbCircle
 62
7
  6
CONTINUOUS
 10
379.5859960872
 20
305.2973493729
 40
0.5100304084
100
AcDbArc
 50
26.8886461448
 51
88.432812074
  0
ARC
  5
76C
100
AcDbEntity
  8
0
100
AcDbCircle
 62
7
  6
CONTINUOUS
 10
379.0234409128
 20
304.4088206271
 40
0.5100304084
100
AcDbArc
 50
206.8888027887
 51
268.432812074
  0
ARC
  5
76D
100
AcDbEntity
  8
0
100
AcDbCircle
 62
7
  6
CONTINUOUS
 10
358.8767469744
 20
305.302405328
 40
0.5100297304
100
AcDbArc
 50
91.5393268425
 51
153.0831858541
  0
ARC
  5
76E
100
AcDbEntity
  8
0
100
AcDbCircle
 62
7
  6
CONTINUOUS
 10
359.4388688425
 20
304.413601172
 40
0.5100291818
100
AcDbArc
 50
271.5391243096
 51
333.0833283398
  0
ARC
  5
76F
100
AcDbEntity
  8
0
100
AcDbCircle
 62
7
  6
CONTINUOUS
 10
288.984004
 20
370.644868
 40
152.576253
100
AcDbArc
 50
185.764642
 51
206.179942
  0
ARC
  5
770
100
AcDbEntity
  8
0
100
AcDbCircle
 62
7
  6
CONTINUOUS
 10
361.734797
 20
375.20653
 40
13.644895
100
AcDbArc
 50
94.246073
 51
118.500266
  0
ARC
  5
771
100
AcDbEntity
  8
0
100
AcDbCircle
 62
7
  6
CONTINUOUS
 10
382.164867
 20
381.623401
 40
7.594746
100
AcDbArc
 50
229.45583
 51
229.466239
  0
ARC
  5
772
100
AcDbEntity
  8
0
100
AcDbCircle
 62
7
  6
CONTINUOUS
 10
382.164867
 20
381.623401
 40
7.594746
100
AcDbArc
 50
159.210897
 51
224.295088
  0
ARC
  5
773
100
AcDbEntity
  8
0
100
AcDbCircle
 62
7
  6
CONTINUOUS
 10
356.302412
 20
381.619314
 40
7.594746
100
AcDbArc
 50
310.443174
 51
310.44975
  0
ARC
  5
774
100
AcDbEntity
  8
0
100
AcDbCircle
 62
7
  6
CONTINUOUS
 10
356.302412
 20
381.619314
 40
7.594746
100
AcDbArc
 50
315.602812
 51
20.789103
  0
ARC
  5
775
100
AcDbEntity
  8
0
100
AcDbCircle
 62
7
  6
CONTINUOUS
 10
346.423252
 20
386.46385
 40
6.563802
100
AcDbArc
 50
16.330297
 51
54.541385
  0
ARC
  5
776
100
AcDbEntity
  8
0
100
AcDbCircle
 62
7
  6
CONTINUOUS
 10
387.254666
 20
381.301375
 40
6.4339
100
AcDbArc
 50
81.271634
 51
128.710339
  0
ARC
  5
777
100
AcDbEntity
  8
0
100
AcDbCircle
 62
7
  6
CONTINUOUS
 10
377.151996
 20
383.240445
 40
5.11167
100
AcDbArc
 50
37.062267
 51
83.567129
  0
ARC
  5
778
100
AcDbEntity
  8
0
100
AcDbCircle
 62
7
  6
CONTINUOUS
 10
376.852436
 20
373.319624
 40
1.546779
100
AcDbArc
 50
302.749625
 51
57.290536
  0
ARC
  5
779
100
AcDbEntity
  8
0
100
AcDbCircle
 62
7
  6
CONTINUOUS
 10
361.606432
 20
373.314016
 40
1.546779
100
AcDbArc
 50
122.709464
 51
237.322831
  0
ARC
  5
77A
100
AcDbEntity
  8
0
100
AcDbCircle
 62
7
  6
CONTINUOUS
 10
354.224703
 20
388.311694
 40
1.5
100
AcDbArc
 50
180.020081
 51
312.465104
  0
ARC
  5
77B
100
AcDbEntity
  8
0
100
AcDbCircle
 62
7
  6
CONTINUOUS
 10
382.231011
 20
386.32151
 40
1.0
100
AcDbArc
 50
180.0
 51
0.020078
  0
ARC
  5
77C
100
AcDbEntity
  8
0
100
AcDbCircle
 62
7
  6
CONTINUOUS
 10
377.230485
 20
371.819756
 40
0.5
100
AcDbArc
 50
270.020081
 51
23.448324
  0
ARC
  5
77D
100
AcDbEntity
  8
0
100
AcDbCircle
 62
7
  6
CONTINUOUS
 10
376.729084
 20
375.819581
 40
0.5
100
AcDbArc
 50
306.895003
 51
90.020081
  0
ARC
  5
77E
100
AcDbEntity
  8
0
100
AcDbCircle
 62
7
  6
CONTINUOUS
 10
377.229434
 20
374.819756
 40
0.5
100
AcDbArc
 50
336.591837
 51
90.020081
  0
ARC
  5
77F
100
AcDbEntity
  8
0
100
AcDbCircle
 62
7
  6
CONTINUOUS
 10
361.230485
 20
371.814149
 40
0.5
100
AcDbArc
 50
156.683651
 51
270.020081
  0
ARC
  5
780
100
AcDbEntity
  8
0
100
AcDbCircle
 62
7
  6
CONTINUOUS
 10
361.229434
 20
374.814149
 40
0.5
100
AcDbArc
 50
90.020081
 51
203.408163
  0
ARC
  5
781
100
AcDbEntity
  8
0
100
AcDbCircle
 62
7
  6
CONTINUOUS
 10
361.729083
 20
375.814324
 40
0.5
100
AcDbArc
 50
89.073815
 51
233.155199
  0
ARC
  5
782
100
AcDbEntity
  8
0
100
AcDbCircle
 62
7
  6
CONTINUOUS
 10
361.732694
 20
408.421415
 40
13.644895
100
AcDbArc
 50
241.499734
 51
265.753927
  0
ARC
  5
783
100
AcDbEntity
  8
0
100
AcDbCircle
 62
7
  6
CONTINUOUS
 10
369.231011
 20
391.816954
 40
9.5
100
AcDbArc
 50
307.883727
 51
333.393154
  0
ARC
  5
784
100
AcDbEntity
  8
0
100
AcDbCircle
 62
7
  6
CONTINUOUS
 10
369.231011
 20
391.816954
 40
9.5
100
AcDbArc
 50
206.443483
 51
232.156434
  0
ARC
  5
785
100
AcDbEntity
  8
0
100
AcDbCircle
 62
7
  6
CONTINUOUS
 10
369.231011
 20
391.816954
 40
9.5
100
AcDbArc
 50
259.384892
 51
280.615108
  0
ARC
  5
786
100
AcDbEntity
  8
0
100
AcDbCircle
 62
7
  6
CONTINUOUS
 10
369.231011
 20
391.816954
 40
9.5
100
AcDbArc
 50
26.647007
 51
153.596678
  0
ARC
  5
787
100
AcDbEntity
  8
0
100
AcDbCircle
 62
7
  6
CONTINUOUS
 10
346.423252
 20
397.15674
 40
6.563802
100
AcDbArc
 50
305.458615
 51
343.669703
  0
ARC
  5
788
100
AcDbEntity
  8
0
100
AcDbCircle
 62
7
  6
CONTINUOUS
 10
387.186174
 20
402.278411
 40
6.341465
100
AcDbArc
 50
218.606818
 51
218.611893
  0
ARC
  5
789
100
AcDbEntity
  8
0
100
AcDbCircle
 62
7
  6
CONTINUOUS
 10
387.186174
 20
402.278411
 40
6.341465
100
AcDbArc
 50
231.408188
 51
279.48345
  0
ARC
  5
78A
100
AcDbEntity
  8
0
100
AcDbCircle
 62
7
  6
CONTINUOUS
 10
376.947361
 20
400.754518
 40
5.489554
100
AcDbArc
 50
278.114793
 51
321.290575
  0
ARC
  5
78B
100
AcDbEntity
  8
0
100
AcDbCircle
 62
7
  6
CONTINUOUS
 10
354.22225
 20
395.311694
 40
1.5
100
AcDbArc
 50
48.209766
 51
180.020081
  0
ARC
  5
78C
100
AcDbEntity
  8
0
100
AcDbCircle
 62
7
  6
CONTINUOUS
 10
382.231011
 20
397.321511
 40
1.0
100
AcDbArc
 50
0.0
 51
180.020081
  0
ARC
  5
78D
100
AcDbEntity
  8
0
100
AcDbCircle
 62
7
  6
CONTINUOUS
 10
529.035668
 20
370.644868
 40
152.576253
100
AcDbArc
 50
185.764642
 51
206.179942
  0
ARC
  5
78E
100
AcDbEntity
  8
0
100
AcDbCircle
 62
7
  6
CONTINUOUS
 10
447.539319
 20
398.748781
 40
4.532109
100
AcDbArc
 50
198.081016
 51
263.210279
  0
ARC
  5
78F
100
AcDbEntity
  8
0
100
AcDbCircle
 62
7
  6
CONTINUOUS
 10
447.539319
 20
384.940327
 40
4.532109
100
AcDbArc
 50
96.789721
 51
161.919367
  0
ARC
  5
790
100
AcDbEntity
  8
0
100
AcDbCircle
 62
7
  6
CONTINUOUS
 10
447.539319
 20
398.748781
 40
4.532109
100
AcDbArc
 50
184.82169
 51
185.139152
  0
ARC
  5
791
100
AcDbEntity
  8
0
100
AcDbCircle
 62
7
  6
CONTINUOUS
 10
447.539319
 20
384.940327
 40
4.532109
100
AcDbArc
 50
174.90494
 51
175.17831
  0
ARC
  5
792
100
AcDbEntity
  8
0
100
AcDbCircle
 62
7
  6
CONTINUOUS
 10
447.981011
 20
391.844554
 40
3.25
100
AcDbArc
 50
270.0
 51
90.0
  0
ARC
  5
793
100
AcDbEntity
  8
0
100
AcDbCircle
 62
7
  6
CONTINUOUS
 10
442.231011
 20
397.342539
 40
1.0
100
AcDbArc
 50
359.979919
 51
180.020081
  0
ARC
  5
794
100
AcDbEntity
  8
0
100
AcDbCircle
 62
7
  6
CONTINUOUS
 10
442.231011
 20
386.342538
 40
1.0
100
AcDbArc
 50
180.0
 51
0.249359
  0
ARC
  5
795
100
AcDbEntity
  8
0
100
AcDbCircle
 62
7
  6
CONTINUOUS
 10
446.992916
 20
395.2484
 40
1.0
100
AcDbArc
 50
251.64891
 51
351.150117
  0
ARC
  5
796
100
AcDbEntity
  8
0
100
AcDbCircle
 62
7
  6
CONTINUOUS
 10
446.992916
 20
388.440708
 40
1.0
100
AcDbArc
 50
8.849883
 51
108.35109
  0
ARC
  5
797
100
AcDbEntity
  8
0
100
AcDbCircle
 62
7
  6
CONTINUOUS
 10
416.496369
 20
457.959871
 40
75.768695
100
AcDbArc
 50
248.096283
 51
289.053407
  0
ENDSEC
  0
SECTION
  2
OBJECTS
  0
DICTIONARY
  5
C
100
AcDbDictionary
280
0
281
1
  3
ACAD_GROUP
350
D
  3
ACAD_MLINESTYLE
350
17
  3
ACAD_LAYOUT
350
1A
  3
ACAD_PLOTSETTINGS
350
19
  3
ACAD_PLOTSTYLENAME
350
E
  0
DICTIONARY
  5
D
102
{ACAD_REACTORS
330
C
102
}
100
AcDbDictionary
280
0
281
1
  0
ACDBDICTIONARYWDFLT
  5
E
102
{ACAD_REACTORS
330
C
102
}
100
AcDbDictionary
281
1
  3
Normal
350
F
100
AcDbDictionaryWithDefault
340
F
  0
DICTIONARY
  5
17
102
{ACAD_REACTORS
330
C
102
}
100
AcDbDictionary
280
0
281
1
  3
Standard
350
18
  0
DICTIONARY
  5
19
102
{ACAD_REACTORS
330
C
102
}
100
AcDbDictionary
281
1
  0
DICTIONARY
  5
1A
102
{ACAD_REACTORS
330
C
102
}
100
AcDbDictionary
281
1
  3
Model
350
798
  3
Layout1
350
799
  0
ACDBPLACEHOLDER
  5
F
102
{ACAD_REACTORS
330
E
102
}
  0
MLINESTYLE
  5
18
102
{ACAD_REACTORS
330
17
102
}
100
AcDbMlineStyle
  2
STANDARD
 70
0
  3

 62
256
 51
90.0
 52
90.0
 71
2
 49
0.5
 62
256
  6
BYLAYER
 49
-0.5
 62
256
  6
BYLAYER
  0
LAYOUT
  5
798
102
{ACAD_REACTORS
330
1A
102
}
100
AcDbPlotSettings
  1

  2
none_device
  4
ISO_A1_(594.00_x_841.00_MM)
  6

 40
0.0
 41
0.0
 42
0.0
 43
0.0
 44
841.0
 45
594.0
 46
0.0
 47
0.0
 48
0.0
 49
0.0
140
0.0
141
0.0
142
1.0
143
1.0
 70
1024
 72
1
 73
0
 74
0
  7

 75
0
147
1.0
148
0.0
149
0.0
100
AcDbLayout
  1
Model
 70
0
 71
0
 10
0.0
 20
0.0
 11
841.0
 21
594.0
 12
0.0
 22
0.0
 32
0.0
 14
0.0
 24
0.0
 34
0.0
 15
0.0
 25
0.0
 35
0.0
146
0.0
 13
0.0
 23
0.0
 33
0.0
 16
1.0
 26
0.0
 36
0.0
 17
0.0
 27
1.0
 37
0.0
 76
0
330
20E
345
0
346
0
  0
LAYOUT
  5
799
102
{ACAD_REACTORS
330
1A
102
}
100
AcDbPlotSettings
  1

  2
none_device
  4
ISO_A1_(594.00_x_841.00_MM)
  6

 40
0.0
 41
0.0
 42
0.0
 43
0.0
 44
841.0
 45
594.0
 46
0.0
 47
0.0
 48
0.0
 49
0.0
140
0.0
141
0.0
142
1.0
143
1.0
 70
0
 72
1
 73
0
 74
0
  7

 75
0
147
1.0
148
0.0
149
0.0
100
AcDbLayout
  1
Layout1
 70
0
 71
1
 10
0.0
 20
0.0
 11
841.0
 21
594.0
 12
0.0
 22
0.0
 32
0.0
 14
0.0
 24
0.0
 34
0.0
 15
0.0
 25
0.0
 35
0.0
146
0.0
 13
0.0
 23
0.0
 33
0.0
 16
1.0
 26
0.0
 36
0.0
 17
0.0
 27
1.0
 37
0.0
 76
0
330
20F
345
0
346
0
  0
ENDSEC
  0
EOF
