999
DXF file: 37322in_2D.dxf
999
Pro/ENGINEER 2012070 by Parametric Technology Corporation
  0
SECTION
  2
HEADER
  9
$ACADVER
  1
AC1021
  9
$DWGCODEPAGE
  3
ANSI_1252
  9
$EXTMAX
 10
420.0
 20
297.0
 30
0.0
  9
$EXTMIN
 10
0.0
 20
0.0
 30
0.0
  9
$LIMMIN
 10
0.0
 20
0.0
  9
$LIMMAX
 10
420.0
 20
297.0
  9
$VIEWCTR
 10
210.0
 20
148.5
  9
$VIEWSIZE
 40
297.0
  9
$CLAYER
  8
0
  9
$LTSCALE
 40
23.1
  9
$CELTYPE
  6
BYLAYER
  9
$DIMSCALE
 40
1.0
  9
$DIMASZ
 40
3.5
  9
$DIMEXO
 40
1.0
  9
$DIMDLI
 40
15.96
  9
$DIMEXE
 40
1.5
  9
$DIMCEN
 40
3.78
  9
$DIMLFAC
 40
1.0
  9
$DIMBLK
  1
_FILLED
  9
$DIMTXT
 40
3.5
  9
$DIMTOL
 70
1
  9
$DIMLIM
 70
0
  9
$DIMTFAC
 40
1.0
  9
$DIMTP
 40
0.01
  9
$DIMTM
 40
0.01
  9
$DIMGAP
 40
0.625
  9
$DIMDSEP
 70
46
  9
$PDMODE
 70
3
  9
$PDSIZE
 40
0.3125
  9
$HANDSEED
  5
2E5
  9
$TILEMODE
 70
1
  9
$MEASUREMENT
 70
1
  9
$INSUNITS
 70
4
  0
ENDSEC
  0
SECTION
  2
CLASSES
  0
CLASS
  1
ACDBDICTIONARYWDFLT
  2
AcDbDictionaryWithDefault
  3
AutoCAD 2000
 90
0
 91
1
280
0
281
0
  0
CLASS
  1
ACDBPLACEHOLDER
  2
AcDbPlaceHolder
  3
AutoCAD 2000
 90
0
 91
1
280
0
281
0
  0
CLASS
  1
LAYOUT
  2
AcDbLayout
  3
AutoCAD 2000
 90
0
 91
0
280
0
281
0
  0
ENDSEC
  0
SECTION
  2
TABLES
  0
TABLE
  2
VPORT
  5
8
100
AcDbSymbolTable
 70
2
  0
VPORT
  5
1F4
100
AcDbSymbolTableRecord
100
AcDbViewportTableRecord
  2
*ACTIVE
 70
0
 10
0.0
 20
0.0
 11
1.0
 21
1.0
 12
210.0
 22
148.5
 13
0.0
 23
0.0
 14
1.0
 24
1.0
 15
0.0
 25
0.0
 16
0.0
 26
0.0
 36
1.0
 17
0.0
 27
0.0
 37
0.0
 40
297.0
 41
1.4141414141
 42
50.0
 43
0.0
 44
0.0
 50
0.0
 51
0.0
 71
0
 72
100
 73
1
 74
1
 75
0
 76
0
 77
0
 78
0
  0
ENDTAB
  0
TABLE
  2
LTYPE
  5
5
100
AcDbSymbolTable
 70
6
  0
LTYPE
  5
14
100
AcDbSymbolTableRecord
100
AcDbLinetypeTableRecord
  2
BYBLOCK
 70
0
  3

 72
65
 73
0
 40
0.0
  0
LTYPE
  5
15
100
AcDbSymbolTableRecord
100
AcDbLinetypeTableRecord
  2
BYLAYER
 70
0
  3

 72
65
 73
0
 40
0.0
  0
LTYPE
  5
16
100
AcDbSymbolTableRecord
100
AcDbLinetypeTableRecord
  2
CONTINUOUS
 70
64
  3
Solid line
 72
65
 73
0
 40
0.0
  0
LTYPE
  5
1F5
100
AcDbSymbolTableRecord
100
AcDbLinetypeTableRecord
  2
CENTER
 70
64
  3
____ _ ____ _ ____ _ ____ _ ____ _ ____ _ ____
 72
65
 73
4
 40
0.6
 49
0.375
 74
0
 49
-0.075
 74
0
 49
0.075
 74
0
 49
-0.075
 74
0
  0
LTYPE
  5
1F6
100
AcDbSymbolTableRecord
100
AcDbLinetypeTableRecord
  2
HIDDEN
 70
64
  3
- - - - - - - - - - - - - - - - - - - -
 72
65
 73
2
 40
0.2
 49
0.1
 74
0
 49
-0.1
 74
0
  0
LTYPE
  5
1F7
100
AcDbSymbolTableRecord
100
AcDbLinetypeTableRecord
  2
PHANTOM
 70
64
  3
_____ _ _ _____ _ _ _____ _ _ _____
 72
65
 73
6
 40
0.8
 49
0.45
 74
0
 49
-0.05
 74
0
 49
0.1
 74
0
 49
-0.05
 74
0
 49
0.1
 74
0
 49
-0.05
 74
0
  0
LTYPE
  5
1F8
100
AcDbSymbolTableRecord
100
AcDbLinetypeTableRecord
  2
DOT
 70
64
  3
. . . . . . . . . . . . . . . . . . . .
 72
65
 73
2
 40
0.2
 49
0.1
 74
0
 49
-0.1
 74
0
  0
LTYPE
  5
1F9
100
AcDbSymbolTableRecord
100
AcDbLinetypeTableRecord
  2
DASHED
 70
64
  3
- - - - - - - - - - - - - - - - - - - -
 72
65
 73
2
 40
0.2
 49
0.1
 74
0
 49
-0.1
 74
0
  0
ENDTAB
  0
TABLE
  2
LAYER
  5
2
100
AcDbSymbolTable
 70
36
  0
LAYER
  5
10
100
AcDbSymbolTableRecord
100
AcDbLayerTableRecord
  2
0
 70
0
 62
7
  6
CONTINUOUS
370
-3
390
F
  0
LAYER
  5
1FA
100
AcDbSymbolTableRecord
100
AcDbLayerTableRecord
  2
DEFAULT_1
 70
0
 62
7
  6
CENTER
370
-3
390
F
  0
LAYER
  5
1FB
100
AcDbSymbolTableRecord
100
AcDbLayerTableRecord
  2
DEFAULT_2
 70
0
 62
8
  6
HIDDEN
370
-3
390
F
  0
LAYER
  5
1FC
100
AcDbSymbolTableRecord
100
AcDbLayerTableRecord
  2
DEFAULT_3
 70
0
 62
7
  6
PHANTOM
370
-3
390
F
  0
LAYER
  5
1FD
100
AcDbSymbolTableRecord
100
AcDbLayerTableRecord
  2
00_COMPONENTS
 70
0
 62
7
  6
CONTINUOUS
370
-3
390
F
  0
LAYER
  5
1FE
100
AcDbSymbolTableRecord
100
AcDbLayerTableRecord
  2
01_ALL_PLANES
 70
0
 62
7
  6
CONTINUOUS
370
-3
390
F
  0
LAYER
  5
1FF
100
AcDbSymbolTableRecord
100
AcDbLayerTableRecord
  2
02_ALL_CSYS
 70
0
 62
7
  6
CONTINUOUS
370
-3
390
F
  0
LAYER
  5
200
100
AcDbSymbolTableRecord
100
AcDbLayerTableRecord
  2
20_ALL_FEATURES
 70
0
 62
7
  6
CONTINUOUS
370
-3
390
F
  0
LAYER
  5
201
100
AcDbSymbolTableRecord
100
AcDbLayerTableRecord
  2
AERATEUR
 70
0
 62
7
  6
CONTINUOUS
370
-3
390
F
  0
LAYER
  5
202
100
AcDbSymbolTableRecord
100
AcDbLayerTableRecord
  2
AXES_REF
 70
0
 62
7
  6
CONTINUOUS
370
-3
390
F
  0
LAYER
  5
203
100
AcDbSymbolTableRecord
100
AcDbLayerTableRecord
  2
DATUMS
 70
0
 62
7
  6
CONTINUOUS
370
-3
390
F
  0
LAYER
  5
204
100
AcDbSymbolTableRecord
100
AcDbLayerTableRecord
  2
DATUM_AXIS
 70
0
 62
7
  6
CONTINUOUS
370
-3
390
F
  0
LAYER
  5
205
100
AcDbSymbolTableRecord
100
AcDbLayerTableRecord
  2
DATUM_CSYS
 70
0
 62
7
  6
CONTINUOUS
370
-3
390
F
  0
LAYER
  5
206
100
AcDbSymbolTableRecord
100
AcDbLayerTableRecord
  2
DATUM_PLANE
 70
0
 62
7
  6
CONTINUOUS
370
-3
390
F
  0
LAYER
  5
207
100
AcDbSymbolTableRecord
100
AcDbLayerTableRecord
  2
DATUM_POINT
 70
0
 62
7
  6
CONTINUOUS
370
-3
390
F
  0
LAYER
  5
208
100
AcDbSymbolTableRecord
100
AcDbLayerTableRecord
  2
EXCLUES
 70
0
 62
7
  6
CONTINUOUS
370
-3
390
F
  0
LAYER
  5
209
100
AcDbSymbolTableRecord
100
AcDbLayerTableRecord
  2
INVERSEUR
 70
0
 62
7
  6
CONTINUOUS
370
-3
390
F
  0
LAYER
  5
20A
100
AcDbSymbolTableRecord
100
AcDbLayerTableRecord
  2
PLAN_REF
 70
0
 62
7
  6
CONTINUOUS
370
-3
390
F
  0
LAYER
  5
20B
100
AcDbSymbolTableRecord
100
AcDbLayerTableRecord
  2
REPERE
 70
0
 62
7
  6
CONTINUOUS
370
-3
390
F
  0
LAYER
  5
20C
100
AcDbSymbolTableRecord
100
AcDbLayerTableRecord
  2
ROSACE
 70
0
 62
7
  6
CONTINUOUS
370
-3
390
F
  0
LAYER
  5
20D
100
AcDbSymbolTableRecord
100
AcDbLayerTableRecord
  2
SURF_ELECTRO
 70
0
 62
7
  6
CONTINUOUS
370
-3
390
F
  0
LAYER
  5
20E
100
AcDbSymbolTableRecord
100
AcDbLayerTableRecord
  2
SURF_INT
 70
0
 62
7
  6
CONTINUOUS
370
-3
390
F
  0
LAYER
  5
20F
100
AcDbSymbolTableRecord
100
AcDbLayerTableRecord
  2
_CURVE
 70
0
 62
7
  6
CONTINUOUS
370
-3
390
F
  0
LAYER
  5
210
100
AcDbSymbolTableRecord
100
AcDbLayerTableRecord
  2
_SURFACE
 70
0
 62
7
  6
CONTINUOUS
370
-3
390
F
  0
LAYER
  5
211
100
AcDbSymbolTableRecord
100
AcDbLayerTableRecord
  2
_SURF_COPI
 70
0
 62
7
  6
CONTINUOUS
370
-3
390
F
  0
LAYER
  5
212
100
AcDbSymbolTableRecord
100
AcDbLayerTableRecord
  2
_SURF_ELECTRO
 70
0
 62
7
  6
CONTINUOUS
370
-3
390
F
  0
LAYER
  5
213
100
AcDbSymbolTableRecord
100
AcDbLayerTableRecord
  2
_SURF_EXT
 70
0
 62
7
  6
CONTINUOUS
370
-3
390
F
  0
LAYER
  5
214
100
AcDbSymbolTableRecord
100
AcDbLayerTableRecord
  2
_SURF_FINI
 70
0
 62
7
  6
CONTINUOUS
370
-3
390
F
  0
LAYER
  5
215
100
AcDbSymbolTableRecord
100
AcDbLayerTableRecord
  2
__REF_CURVE
 70
0
 62
7
  6
CONTINUOUS
370
-3
390
F
  0
LAYER
  5
216
100
AcDbSymbolTableRecord
100
AcDbLayerTableRecord
  2
__REF_SURFACE
 70
0
 62
7
  6
CONTINUOUS
370
-3
390
F
  0
LAYER
  5
217
100
AcDbSymbolTableRecord
100
AcDbLayerTableRecord
  2
___COSMETIC_THREAD
 70
0
 62
7
  6
CONTINUOUS
370
-3
390
F
  0
LAYER
  5
218
100
AcDbSymbolTableRecord
100
AcDbLayerTableRecord
  2
___GDT
 70
0
 62
7
  6
CONTINUOUS
370
-3
390
F
  0
LAYER
  5
219
100
AcDbSymbolTableRecord
100
AcDbLayerTableRecord
  2
___NOTE
 70
0
 62
7
  6
CONTINUOUS
370
-3
390
F
  0
LAYER
  5
21A
100
AcDbSymbolTableRecord
100
AcDbLayerTableRecord
  2
___SYMBOL
 70
0
 62
7
  6
CONTINUOUS
370
-3
390
F
  0
ENDTAB
  0
TABLE
  2
STYLE
  5
3
100
AcDbSymbolTable
 70
1
  0
STYLE
  5
11
100
AcDbSymbolTableRecord
100
AcDbTextStyleTableRecord
  2
STANDARD
 70
0
 40
0.0
 41
0.8
 50
0.0
 71
0
 42
0.2
  3
txt
  4

  0
STYLE
  5
21B
100
AcDbSymbolTableRecord
100
AcDbTextStyleTableRecord
  2
TEXTSTYLE_1
 70
0
 40
0.0
 41
0.8
 50
0.0
 71
0
 42
0.2
  3
gdt
  4

  0
ENDTAB
  0
TABLE
  2
VIEW
  5
6
100
AcDbSymbolTable
 70
0
  0
ENDTAB
  0
TABLE
  2
UCS
  5
7
100
AcDbSymbolTable
 70
0
  0
ENDTAB
  0
TABLE
  2
APPID
  5
9
100
AcDbSymbolTable
 70
1
  0
APPID
  5
21C
100
AcDbSymbolTableRecord
100
AcDbRegAppTableRecord
  2
ACAD
 70
0
  0
ENDTAB
  0
TABLE
  2
BLOCK_RECORD
  5
1
100
AcDbSymbolTable
 70
0
  0
BLOCK_RECORD
  5
21D
100
AcDbSymbolTableRecord
100
AcDbBlockTableRecord
  2
*Model_Space
  0
BLOCK_RECORD
  5
21E
100
AcDbSymbolTableRecord
100
AcDbBlockTableRecord
  2
*Paper_Space
  0
ENDTAB
  0
TABLE
  2
DIMSTYLE
  5
A
100
AcDbSymbolTable
 70
1
100
AcDbDimStyleTable
 71
0
  0
DIMSTYLE
105
21F
100
AcDbSymbolTableRecord
100
AcDbDimStyleTableRecord
  2
STANDARD
 70
0
  3

  4

 40
1.0
 41
3.5
 42
1.0
 43
0.38
 44
1.5
 45
0.0
 46
0.0
 47
0.01
 48
0.01
140
3.5
141
0.09
142
0.0
143
25.4
144
1.0
145
0.0
146
1.0
147
0.625
 71
1.0
 72
0.0
 73
0
 74
0
 75
0
 76
0
 77
1
 78
8
170
0
171
2
172
0
173
0
174
0
175
0
176
0
177
0
178
0
270
2
271
3
272
3
273
2
274
2
275
0
280
0
281
0
282
0
283
1
284
8
285
0
286
0
287
3
288
0
340
11
278
46
  0
ENDTAB
  0
ENDSEC
  0
SECTION
  2
BLOCKS
  0
BLOCK
  5
20
100
AcDbEntity
  8
0
100
AcDbBlockBegin
  2
*Model_Space
 70
0
 10
0.0
 20
0.0
 30
0.0
  3
*Model_Space
  1

  0
ENDBLK
  5
21
100
AcDbEntity
  8
0
100
AcDbBlockEnd
  0
BLOCK
  5
1C
100
AcDbEntity
  8
0
100
AcDbBlockBegin
  2
*Paper_Space
 70
0
 10
0.0
 20
0.0
 30
0.0
  3
*Paper_Space
  1

  0
ENDBLK
  5
1D
100
AcDbEntity
  8
0
100
AcDbBlockEnd
  0
ENDSEC
  0
SECTION
  2
ENTITIES
  0
LINE
  5
220
100
AcDbEntity
  8
0
100
AcDbLine
 62
7
  6
CONTINUOUS
 10
0.0
 20
0.0
 11
0.0
 21
297.0
  0
LINE
  5
221
100
AcDbEntity
  8
0
100
AcDbLine
 62
7
  6
CONTINUOUS
 10
0.0
 20
0.0
 11
420.0
 21
0.0
  0
LINE
  5
222
100
AcDbEntity
  8
0
100
AcDbLine
 62
7
  6
CONTINUOUS
 10
0.0
 20
297.0
 11
420.0
 21
297.0
  0
LINE
  5
223
100
AcDbEntity
  8
0
100
AcDbLine
 62
7
  6
CONTINUOUS
 10
420.0
 20
0.0
 11
420.0
 21
297.0
  0
LINE
  5
224
100
AcDbEntity
  8
0
100
AcDbLine
 62
7
  6
CONTINUOUS
 10
19.3718973227
 20
78.3665287665
 11
19.3718973227
 21
60.4065287665
  0
LINE
  5
225
100
AcDbEntity
  8
0
100
AcDbLine
 62
7
  6
CONTINUOUS
 10
19.7068973227
 20
78.7015287665
 11
19.7068973227
 21
60.0715287665
  0
LINE
  5
226
100
AcDbEntity
  8
0
100
AcDbLine
 62
7
  6
CONTINUOUS
 10
20.8718973227
 20
79.8665287665
 11
20.8718973227
 21
58.9065287665
  0
LINE
  5
227
100
AcDbEntity
  8
0
100
AcDbLine
 62
7
  6
CONTINUOUS
 10
19.3718973227
 20
60.4065287665
 11
20.8718973227
 21
58.9065287665
  0
LINE
  5
228
100
AcDbEntity
  8
0
100
AcDbLine
 62
7
  6
CONTINUOUS
 10
19.3718973227
 20
78.3665287665
 11
20.8718973227
 21
79.8665287665
  0
LINE
  5
229
100
AcDbEntity
  8
0
100
AcDbLine
 62
7
  6
CONTINUOUS
 10
60.3718973227
 20
50.3865287665
 11
60.3718973227
 21
88.3865287665
  0
LINE
  5
22A
100
AcDbEntity
  8
0
100
AcDbLine
 62
7
  6
CONTINUOUS
 10
61.3718973227
 20
34.8865287665
 11
61.3718973227
 21
103.8865287665
  0
LINE
  5
22B
100
AcDbEntity
  8
0
100
AcDbLine
 62
7
  6
CONTINUOUS
 10
61.8718973227
 20
34.3865287665
 11
61.8718973227
 21
104.3865287665
  0
LINE
  5
22C
100
AcDbEntity
  8
0
100
AcDbLine
 62
7
  6
CONTINUOUS
 10
66.8718973227
 20
34.3865287665
 11
66.8718973227
 21
104.3865287665
  0
LINE
  5
22D
100
AcDbEntity
  8
0
100
AcDbLine
 62
7
  6
CONTINUOUS
 10
67.3718973227
 20
34.8865287665
 11
67.3718973227
 21
103.8865287665
  0
LINE
  5
22E
100
AcDbEntity
  8
DATUM_AXIS
100
AcDbLine
 62
7
  6
CONTINUOUS
 10
67.8718973227
 20
51.8865287665
 11
67.8718973227
 21
86.8865287665
  0
LINE
  5
22F
100
AcDbEntity
  8
0
100
AcDbLine
 62
7
  6
CONTINUOUS
 10
67.8718973227
 20
44.8865404019
 11
67.8718973227
 21
93.886517131
  0
LINE
  5
230
100
AcDbEntity
  8
0
100
AcDbLine
 62
7
  6
CONTINUOUS
 10
68.3718973227
 20
44.3865432824
 11
68.3718973227
 21
94.3865142505
  0
LINE
  5
231
100
AcDbEntity
  8
DATUM_AXIS
100
AcDbLine
 62
7
  6
CONTINUOUS
 10
66.8718973227
 20
34.3865287665
 11
61.8718973227
 21
34.3865287665
  0
LINE
  5
232
100
AcDbEntity
  8
0
100
AcDbLine
 62
7
  6
CONTINUOUS
 10
66.8718973227
 20
34.3865287665
 11
61.8718973227
 21
34.3865287665
  0
LINE
  5
233
100
AcDbEntity
  8
DATUM_AXIS
100
AcDbLine
 62
7
  6
CONTINUOUS
 10
68.3718973227
 20
44.3865487675
 11
212.8877728718
 21
44.3865487675
  0
LINE
  5
234
100
AcDbEntity
  8
DATUM_AXIS
100
AcDbLine
 62
7
  6
CONTINUOUS
 10
239.612238156
 20
44.3865487675
 11
246.1971916082
 21
44.3865487675
  0
LINE
  5
235
100
AcDbEntity
  8
0
100
AcDbLine
 62
7
  6
CONTINUOUS
 10
61.3718973227
 20
50.3865287665
 11
60.3718973227
 21
50.3865287665
  0
LINE
  5
236
100
AcDbEntity
  8
DATUM_AXIS
100
AcDbLine
 62
7
  6
CONTINUOUS
 10
67.8718973227
 20
51.8865287665
 11
67.3718973227
 21
51.8865287665
  0
LINE
  5
237
100
AcDbEntity
  8
0
100
AcDbLine
 62
7
  6
CONTINUOUS
 10
60.3718973227
 20
58.9065287665
 11
20.8718973227
 21
58.9065287665
  0
LINE
  5
238
100
AcDbEntity
  8
0
100
AcDbLine
 62
2
  6
CONTINUOUS
 10
19.7068973227
 20
60.0715287665
 11
60.3718973227
 21
60.0715287665
  0
LINE
  5
239
100
AcDbEntity
  8
DEFAULT_1
100
AcDbLine
 62
2
  6
CENTER
 10
67.3718973227
 20
69.3865287665
 11
18.4230458431
 21
69.3865287665
  0
LINE
  5
23A
100
AcDbEntity
  8
DEFAULT_1
100
AcDbLine
 62
7
  6
CENTER
 10
67.3718973227
 20
69.3865287665
 11
67.8718973227
 21
69.3865287665
  0
LINE
  5
23B
100
AcDbEntity
  8
0
100
AcDbLine
 62
7
  6
CONTINUOUS
 10
67.8718973227
 20
69.3865287665
 11
246.7145075577
 21
69.3865287664
  0
LINE
  5
23C
100
AcDbEntity
  8
0
100
AcDbLine
 62
2
  6
CONTINUOUS
 10
19.7068973227
 20
78.7015287665
 11
60.3718973227
 21
78.7015287665
  0
LINE
  5
23D
100
AcDbEntity
  8
0
100
AcDbLine
 62
7
  6
CONTINUOUS
 10
60.3718973227
 20
79.8665287665
 11
20.8718973227
 21
79.8665287665
  0
LINE
  5
23E
100
AcDbEntity
  8
DATUM_AXIS
100
AcDbLine
 62
7
  6
CONTINUOUS
 10
67.8718973227
 20
86.8865287665
 11
67.3718973227
 21
86.8865287665
  0
LINE
  5
23F
100
AcDbEntity
  8
0
100
AcDbLine
 62
7
  6
CONTINUOUS
 10
61.3718973227
 20
88.3865287665
 11
60.3718973227
 21
88.3865287665
  0
LINE
  5
240
100
AcDbEntity
  8
0
100
AcDbLine
 62
7
  6
CONTINUOUS
 10
246.1971916082
 20
94.3865087654
 11
68.3718973227
 21
94.3865087654
  0
LINE
  5
241
100
AcDbEntity
  8
DATUM_AXIS
100
AcDbLine
 62
7
  6
CONTINUOUS
 10
66.8718973227
 20
104.3865287665
 11
61.8718973227
 21
104.3865287665
  0
LINE
  5
242
100
AcDbEntity
  8
0
100
AcDbLine
 62
7
  6
CONTINUOUS
 10
66.8718973227
 20
104.3865287665
 11
61.8718973227
 21
104.3865287665
  0
LINE
  5
243
100
AcDbEntity
  8
DATUM_AXIS
100
AcDbLine
 62
2
  6
CENTER
 10
217.7629189492
 20
64.3808717299
 11
225.577541519
 21
45.9707746608
  0
LINE
  5
244
100
AcDbEntity
  8
DATUM_AXIS
100
AcDbLine
 62
7
  6
CENTER
 10
217.7629189492
 20
64.3808717299
 11
215.8092633067
 21
68.9833959971
  0
LINE
  5
245
100
AcDbEntity
  8
_CURVE
100
AcDbLine
 62
40
  6
CONTINUOUS
 10
352.5527053151
 20
99.7865287665
 11
352.5527053151
 21
97.3865287665
  0
LINE
  5
246
100
AcDbEntity
  8
_SURF_FINI
100
AcDbLine
 62
9
  6
CONTINUOUS
 10
379.4059202011
 20
69.3865287647
 11
378.9510430281
 21
69.3865287664
  0
LINE
  5
247
100
AcDbEntity
  8
0
100
AcDbLine
 62
9
  6
CONTINUOUS
 10
341.699490429
 20
69.3865287647
 11
342.1543676021
 21
69.3865287664
  0
LINE
  5
248
100
AcDbEntity
  8
0
100
AcDbLine
 62
9
  6
CONTINUOUS
 10
360.5527053136
 20
44.3865457059
 11
360.5527053081
 21
44.8465762472
  0
LINE
  5
249
100
AcDbEntity
  8
0
100
AcDbLine
 62
9
  6
CONTINUOUS
 10
360.5527053149
 20
93.9295096356
 11
360.5527053136
 21
94.386511827
  0
LINE
  5
24A
100
AcDbEntity
  8
_CURVE
100
AcDbLine
 62
40
  6
CONTINUOUS
 10
368.5527053151
 20
97.3865287665
 11
368.5527053151
 21
99.7865287665
  0
LINE
  5
24B
100
AcDbEntity
  8
_CURVE
100
AcDbLine
 62
40
  6
CONTINUOUS
 10
352.5527053151
 20
97.3865287665
 11
368.5527053151
 21
97.3865287665
  0
LINE
  5
24C
100
AcDbEntity
  8
_CURVE
100
AcDbLine
 62
40
  6
CONTINUOUS
 10
368.5527053151
 20
99.7865287665
 11
352.5527053151
 21
99.7865287665
  0
LWPOLYLINE
  5
24D
100
AcDbEntity
  8
_SURF_FINI
100
AcDbPolyline
 62
7
  6
CONTINUOUS
 90
27
 70
0
 10
236.6251942219
 20
247.4286321595
 10
236.5944577024
 20
246.3798812406
 10
236.5616212218
 20
245.1101884941
 10
236.5380265488
 20
243.8617513929
 10
236.5274452635
 20
242.6327315384
 10
236.5335597262
 20
241.4229057452
 10
236.5599702384
 20
240.2337540676
 10
236.6102799636
 20
239.0673052326
 10
236.6878538224
 20
237.9270271706
 10
236.7955636563
 20
236.8201223756
 10
236.9325145924
 20
235.7555635444
 10
237.0957500614
 20
234.7381794366
 10
237.2821418061
 20
233.76979087
 10
237.4871325292
 20
232.8575503376
 10
237.7080881762
 20
231.9987656889
 10
237.9460774052
 20
231.1809316281
 10
238.1989212208
 20
230.4069393427
 10
238.4651972732
 20
229.6773979122
 10
238.7493769818
 20
228.9797825987
 10
239.0526120178
 20
228.3142426728
 10
239.3724992156
 20
227.6884932131
 10
239.7094205287
 20
227.1040840985
 10
240.0651582633
 20
226.5615845146
 10
240.437031418
 20
226.0688533095
 10
240.8187733839
 20
225.6359160559
 10
241.2078523098
 20
225.2656431309
 10
241.6055458619
 20
224.9570798221
  0
LINE
  5
24E
100
AcDbEntity
  8
_SURF_FINI
100
AcDbLine
 62
7
  6
CONTINUOUS
 10
241.8931641835
 20
224.7761248331
 11
242.1244499347
 21
224.6555178608
  0
LINE
  5
24F
100
AcDbEntity
  8
0
100
AcDbLine
 62
7
  6
CONTINUOUS
 10
241.8934017705
 20
224.7759900376
 11
241.8931641835
 21
224.7761248331
  0
LINE
  5
250
100
AcDbEntity
  8
_SURF_FINI
100
AcDbLine
 62
7
  6
CONTINUOUS
 10
241.6055458619
 20
224.9570798221
 11
241.8934017679
 21
224.7759900391
  0
LWPOLYLINE
  5
251
100
AcDbEntity
  8
___NOTE
100
AcDbPolyline
 62
2
  6
CONTINUOUS
 90
4
 70
0
 43
0.2000000006
 10
343.8523901367
 20
191.7406713867
 10
343.6774072266
 20
191.7406713867
 10
343.6774072266
 20
192.03234375
 10
343.8523901367
 20
191.7406713867
  0
LWPOLYLINE
  5
252
100
AcDbEntity
  8
___NOTE
100
AcDbPolyline
 62
2
  6
CONTINUOUS
 90
4
 70
0
 43
0.2000000006
 10
333.3523901367
 20
191.7406713867
 10
331.9523986816
 20
191.7406713867
 10
331.9523986816
 20
195.2406628418
 10
333.3523901367
 20
195.2406628418
  0
LWPOLYLINE
  5
253
100
AcDbEntity
  8
___NOTE
100
AcDbPolyline
 62
2
  6
CONTINUOUS
 90
2
 70
0
 43
0.2000000006
 10
326.5273901367
 20
192.9073352051
 10
327.5773901367
 20
192.9073352051
  0
LWPOLYLINE
  5
254
100
AcDbEntity
  8
___NOTE
100
AcDbPolyline
 62
2
  6
CONTINUOUS
 90
2
 70
0
 43
0.2000000006
 10
331.9523986816
 20
193.4906799316
 10
332.8273901367
 20
193.4906799316
  0
LWPOLYLINE
  5
255
100
AcDbEntity
  8
___NOTE
100
AcDbPolyline
 62
2
  6
CONTINUOUS
 90
14
 70
0
 43
0.2000000006
 10
347.3524072266
 20
195.2406628418
 10
346.3024072266
 20
195.2406628418
 10
346.1273986816
 20
193.7823522949
 10
346.4773901367
 20
194.0739990234
 10
346.8274072266
 20
194.0739990234
 10
347.1773986816
 20
193.7823522949
 10
347.3524072266
 20
193.4906799316
 10
347.5273901367
 20
192.9073352051
 10
347.3524072266
 20
192.3240161133
 10
347.1773986816
 20
192.03234375
 10
346.8274072266
 20
191.7406713867
 10
346.4773901367
 20
191.7406713867
 10
346.1273986816
 20
192.03234375
 10
345.9523901367
 20
192.3240161133
  0
LINE
  5
256
100
AcDbEntity
  8
_SURF_FINI
100
AcDbLine
 62
7
  6
CONTINUOUS
 10
242.1244499347
 20
224.6555178608
 11
242.4788416267
 21
224.5124072159
  0
LWPOLYLINE
  5
257
100
AcDbEntity
  8
_SURF_FINI
100
AcDbPolyline
 62
7
  6
CONTINUOUS
 90
4
 70
0
 10
242.4788416267
 20
224.5124072159
 10
242.8373325364
 20
224.4175733139
 10
243.1984835852
 20
224.3720229023
 10
243.5079938069
 20
224.3729315326
  0
LINE
  5
258
100
AcDbEntity
  8
DATUM_AXIS
100
AcDbLine
 62
7
  6
CONTINUOUS
 10
376.9179100768
 20
224.8264932797
 11
380.6109179554
 21
225.0649286669
  0
LWPOLYLINE
  5
259
100
AcDbEntity
  8
___NOTE
100
AcDbPolyline
 62
2
  6
CONTINUOUS
 90
19
 70
0
 43
0.2000000006
 10
322.1524072266
 20
194.65734375
 10
321.9773986816
 20
194.9490161133
 10
321.6274072266
 20
195.2406628418
 10
321.2773901367
 20
195.2406628418
 10
320.9273986816
 20
194.9490161133
 10
320.7523901367
 20
194.65734375
 10
320.7523901367
 20
194.3656713867
 10
320.9273986816
 20
194.0739990234
 10
321.2773901367
 20
193.7823522949
 10
321.6274072266
 20
193.4906799316
 10
321.9773986816
 20
193.1990075684
 10
322.1524072266
 20
192.9073352051
 10
322.1524072266
 20
192.3240161133
 10
321.9773986816
 20
192.03234375
 10
321.6274072266
 20
191.7406713867
 10
321.2773901367
 20
191.7406713867
 10
320.9273986816
 20
192.03234375
 10
320.7523901367
 20
192.3240161133
 10
320.5774072266
 20
192.6156628418
  0
LWPOLYLINE
  5
25A
100
AcDbEntity
  8
_SURF_FINI
100
AcDbPolyline
 62
7
  6
CONTINUOUS
 90
25
 70
0
 10
374.8549203851
 20
232.8531868589
 10
375.0213373058
 20
232.8698712578
 10
375.4311106159
 20
232.9588385934
 10
375.830322505
 20
233.1141324242
 10
376.214596795
 20
233.3327534232
 10
376.5830884912
 20
233.6126447477
 10
376.9326182354
 20
233.9492872862
 10
377.2604031437
 20
234.3363256857
 10
377.5687816257
 20
234.7725213534
 10
377.8618338642
 20
235.2621637271
 10
378.1374799052
 20
235.8020072253
 10
378.3958927124
 20
236.3931214441
 10
378.641820032
 20
237.05176497
 10
378.8738509718
 20
237.785812592
 10
379.0865874826
 20
238.5917768133
 10
379.2766357735
 20
239.471416726
 10
379.4403627235
 20
240.4247831058
 10
379.5769448801
 20
241.4431695301
 10
379.6887084533
 20
242.5152787603
 10
379.7790400912
 20
243.6340623215
 10
379.8516725968
 20
244.793724837
 10
379.9100280616
 20
245.9865299628
 10
379.9579155584
 20
247.2078468391
 10
379.9991693929
 20
248.4558277559
 10
380.0278951778
 20
249.401434847
  0
LINE
  5
25B
100
AcDbEntity
  8
_SURF_FINI
100
AcDbLine
 62
7
  6
CONTINUOUS
 10
243.511850276
 20
224.373174438
 11
249.2689062409
 21
224.7448730407
  0
LINE
  5
25C
100
AcDbEntity
  8
_SURF_FINI
100
AcDbLine
 62
7
  6
CONTINUOUS
 10
267.5988601237
 20
225.928328315
 11
374.8549203851
 21
232.8531868589
  0
LINE
  5
25D
100
AcDbEntity
  8
_CURVE
100
AcDbLine
 62
40
  6
CONTINUOUS
 10
264.9294804141
 20
225.8206867178
 11
250.6094908745
 21
224.896128597
  0
LINE
  5
25E
100
AcDbEntity
  8
_CURVE
100
AcDbLine
 62
40
  6
CONTINUOUS
 10
242.9592457344
 20
224.4021969323
 11
242.0678047204
 21
224.3446417905
  0
LINE
  5
25F
100
AcDbEntity
  8
0
100
AcDbLine
 62
7
  6
CONTINUOUS
 10
243.511850276
 20
224.373174438
 11
243.5078959595
 21
224.3729226542
  0
LINE
  5
260
100
AcDbEntity
  8
0
100
AcDbLine
 62
7
  6
CONTINUOUS
 10
389.7060048223
 20
245.3089861583
 11
409.6297264546
 21
246.595341465
  0
LINE
  5
261
100
AcDbEntity
  8
0
100
AcDbLine
 62
2
  6
CONTINUOUS
 10
410.4301486621
 20
247.5809604362
 11
389.7510566703
 21
246.2458353922
  0
LINE
  5
262
100
AcDbEntity
  8
_SURF_FINI
100
AcDbLine
 62
7
  6
CONTINUOUS
 10
248.427505587
 20
240.9279588457
 11
379.7838184443
 21
249.4088487734
  0
LWPOLYLINE
  5
263
100
AcDbEntity
  8
___NOTE
100
AcDbPolyline
 62
2
  6
CONTINUOUS
 90
3
 70
0
 43
0.2000000006
 10
329.1523901367
 20
195.2406628418
 10
329.1523901367
 20
191.7406713867
 10
330.5524072266
 20
191.7406713867
  0
LINE
  5
264
100
AcDbEntity
  8
0
100
AcDbLine
 62
2
  6
CONTINUOUS
 10
409.4698860502
 20
262.4539934731
 11
388.7917531364
 21
261.118930351
  0
LINE
  5
265
100
AcDbEntity
  8
0
100
AcDbLine
 62
7
  6
CONTINUOUS
 10
388.6278243051
 20
262.0422869547
 11
408.5493665863
 21
263.3285015538
  0
LWPOLYLINE
  5
266
100
AcDbEntity
  8
___NOTE
100
AcDbPolyline
 62
2
  6
CONTINUOUS
 90
4
 70
0
 43
0.2000000006
 10
341.5774072266
 20
191.7406713867
 10
341.5774072266
 20
195.2406628418
 10
340.3523986816
 20
192.6156628418
 10
341.9273986816
 20
192.6156628418
  0
LWPOLYLINE
  5
267
100
AcDbEntity
  8
___NOTE
100
AcDbPolyline
 62
2
  6
CONTINUOUS
 90
4
 70
0
 43
0.2000000006
 10
343.8523901367
 20
194.0739990234
 10
343.8523901367
 20
193.7823522949
 10
343.6774072266
 20
194.0739990234
 10
343.8523901367
 20
194.0739990234
  0
LWPOLYLINE
  5
268
100
AcDbEntity
  8
___NOTE
100
AcDbPolyline
 62
2
  6
CONTINUOUS
 90
3
 70
0
 43
0.2000000006
 10
326.1773986816
 20
191.7406713867
 10
327.0523901367
 20
195.2406628418
 10
327.9274072266
 20
191.7406713867
  0
LWPOLYLINE
  5
269
100
AcDbEntity
  8
0
100
AcDbPolyline
 62
7
  6
CONTINUOUS
 90
25
 70
0
 10
241.8194134342
 20
264.0606635886
 10
241.668800989
 20
264.0459337645
 10
241.2578488693
 20
263.9584668881
 10
240.8578961252
 20
263.8037115238
 10
240.4734689713
 20
263.5851523953
 10
240.1049041066
 20
263.3051316205
 10
239.7554297087
 20
262.9684599302
 10
239.4279960236
 20
262.5819772001
 10
239.1199144497
 20
262.1470349778
 10
238.8264083957
 20
261.65831716
 10
238.5492939226
 20
261.1180994014
 10
238.28892175
 20
260.5258012777
 10
238.0410240683
 20
259.8659485091
 10
237.8072429948
 20
259.1309574274
 10
237.5929748908
 20
258.3242879524
 10
237.4012817992
 20
257.4442019987
 10
237.2351444799
 20
256.4910229893
 10
237.0955949092
 20
255.4728389556
 10
236.9804186652
 20
254.4010037181
 10
236.8865283916
 20
253.2824334186
 10
236.8105990207
 20
252.1229729828
 10
236.7493771134
 20
250.9299175601
 10
236.69934731
 20
249.707801037
 10
236.6568014843
 20
248.4584757227
 10
236.6251940139
 20
247.4286251827
  0
LINE
  5
26A
100
AcDbEntity
  8
0
100
AcDbLine
 62
7
  6
CONTINUOUS
 10
243.2485781989
 20
263.6993530651
 11
374.5906207612
 21
272.1793216454
  0
LINE
  5
26B
100
AcDbEntity
  8
0
100
AcDbLine
 62
7
  6
CONTINUOUS
 10
373.1675207236
 20
272.5410680628
 11
241.8193297927
 21
264.0606605591
  0
LINE
  5
26C
100
AcDbEntity
  8
DATUM_AXIS
100
AcDbLine
 62
7
  6
CONTINUOUS
 10
373.3098379977
 20
280.7101386142
 11
377.0028458763
 21
280.9485740014
  0
LWPOLYLINE
  5
26D
100
AcDbEntity
  8
___NOTE
100
AcDbPolyline
 62
2
  6
CONTINUOUS
 90
9
 70
0
 43
0.2000000006
 10
324.9523901367
 20
192.3240161133
 10
324.7774072266
 20
192.03234375
 10
324.4273901367
 20
191.7406713867
 10
324.0773986816
 20
191.7406713867
 10
323.7274072266
 20
192.03234375
 10
323.5523986816
 20
192.3240161133
 10
323.3773901367
 20
192.6156628418
 10
323.2024072266
 20
193.4906799316
 10
323.3773901367
 20
194.3656713867
  0
LWPOLYLINE
  5
26E
100
AcDbEntity
  8
___NOTE
100
AcDbPolyline
 62
2
  6
CONTINUOUS
 90
6
 70
0
 43
0.2000000006
 10
323.3773901367
 20
194.3656713867
 10
323.7274072266
 20
194.9490161133
 10
324.0773986816
 20
195.2406628418
 10
324.4273901367
 20
195.2406628418
 10
324.7774072266
 20
194.9490161133
 10
324.9523901367
 20
194.65734375
  0
LWPOLYLINE
  5
26F
100
AcDbEntity
  8
0
100
AcDbPolyline
 62
7
  6
CONTINUOUS
 90
4
 70
0
 10
374.1980555546
 20
272.399136872
 10
373.8441217412
 20
272.4942952974
 10
373.4879083764
 20
272.5411040961
 10
373.1675207236
 20
272.5410680628
  0
LINE
  5
270
100
AcDbEntity
  8
0
100
AcDbLine
 62
7
  6
CONTINUOUS
 10
374.5484182832
 20
272.2566336699
 11
374.1980555546
 21
272.399136872
  0
LINE
  5
271
100
AcDbEntity
  8
0
100
AcDbLine
 62
7
  6
CONTINUOUS
 10
374.7765575376
 20
272.1374430983
 11
374.5484182832
 21
272.2566336699
  0
LINE
  5
272
100
AcDbEntity
  8
0
100
AcDbLine
 62
7
  6
CONTINUOUS
 10
374.7762551181
 20
272.1376146837
 11
374.7765575396
 21
272.1374430972
  0
LINE
  5
273
100
AcDbEntity
  8
_CURVE
100
AcDbLine
 62
40
  6
CONTINUOUS
 10
372.9476605953
 20
275.9601043196
 11
377.8511009073
 21
273.1697567561
  0
LINE
  5
274
100
AcDbEntity
  8
_SURF_FINI
100
AcDbLine
 62
7
  6
CONTINUOUS
 10
375.06266488
 20
271.957709384
 11
374.7762551181
 21
272.1376146837
  0
LINE
  5
275
100
AcDbEntity
  8
_CURVE
100
AcDbLine
 62
40
  6
CONTINUOUS
 10
373.0037869526
 20
277.8304293022
 11
372.9476605953
 21
275.9601043196
  0
LINE
  5
276
100
AcDbEntity
  8
_CURVE
100
AcDbLine
 62
40
  6
CONTINUOUS
 10
377.9072272646
 20
275.0400817386
 11
373.0037869526
 21
277.8304293022
  0
LWPOLYLINE
  5
277
100
AcDbEntity
  8
_SURF_FINI
100
AcDbPolyline
 62
7
  6
CONTINUOUS
 90
26
 70
0
 10
380.061477135
 20
250.5329041188
 10
380.0955898881
 20
251.8026903992
 10
380.1213293722
 20
253.0514836635
 10
380.1347837756
 20
254.2810234387
 10
380.1319759138
 20
255.4916242408
 10
380.1090895138
 20
256.6814156387
 10
380.0621269022
 20
257.8485831189
 10
379.9874031488
 20
258.989420742
 10
379.8819124872
 20
260.0968309878
 10
379.7463053344
 20
261.1616002994
 10
379.5842842286
 20
262.1789778489
 10
379.3991904752
 20
263.1472466281
 10
379.1954750201
 20
264.0594485909
 10
378.9755882463
 20
264.9181512108
 10
378.7383131688
 20
265.7360255602
 10
378.485764212
 20
266.5101217606
 10
378.2193299675
 20
267.2396962218
 10
377.934378582
 20
267.9374928439
 10
377.6297049647
 20
268.6034534007
 10
377.3077346065
 20
269.2296335866
 10
376.9683050088
 20
269.814175463
 10
376.6097121951
 20
270.356724974
 10
376.2349082782
 20
270.8493080567
 10
375.8507953926
 20
271.2814826127
 10
375.4603741112
 20
271.6505270581
 10
375.06266488
 20
271.957709384
  0
LINE
  5
278
100
AcDbEntity
  8
_CURVE
100
AcDbLine
 62
40
  6
CONTINUOUS
 10
377.8511009073
 20
273.1697567561
 11
377.9072272646
 21
275.0400817386
  0
LINE
  5
279
100
AcDbEntity
  8
_SURF_FINI
100
AcDbLine
 62
7
  6
CONTINUOUS
 10
380.0278951778
 20
249.401434847
 11
380.061477135
 21
250.5329041188
  0
LINE
  5
27A
100
AcDbEntity
  8
0
100
AcDbLine
 62
7
  6
CONTINUOUS
 10
410.8915745973
 20
261.6435589537
 11
409.8996175087
 21
262.6761664491
  0
LINE
  5
27B
100
AcDbEntity
  8
0
100
AcDbLine
 62
7
  6
CONTINUOUS
 10
411.7358183859
 20
248.5674841346
 11
410.8848819747
 21
247.41589205
  0
ARC
  5
27C
100
AcDbEntity
  8
0
100
AcDbCircle
 62
7
  6
CONTINUOUS
 10
66.8718973227
 20
103.8865287665
 40
0.5
100
AcDbArc
 50
0.0
 51
90.0
  0
ARC
  5
27D
100
AcDbEntity
  8
0
100
AcDbCircle
 62
7
  6
CONTINUOUS
 10
66.8718973227
 20
34.8865287665
 40
0.5
100
AcDbArc
 50
270.0
 51
360.0
  0
ARC
  5
27E
100
AcDbEntity
  8
0
100
AcDbCircle
 62
7
  6
CONTINUOUS
 10
61.8718973227
 20
103.8865287665
 40
0.5
100
AcDbArc
 50
90.0
 51
180.0
  0
ARC
  5
27F
100
AcDbEntity
  8
0
100
AcDbCircle
 62
7
  6
CONTINUOUS
 10
61.8718973227
 20
34.8865287665
 40
0.5
100
AcDbArc
 50
180.0
 51
270.0
  0
ARC
  5
280
100
AcDbEntity
  8
0
100
AcDbCircle
 62
7
  6
CONTINUOUS
 10
68.3718958825
 20
93.8865156907
 40
0.4999985597
100
AcDbArc
 50
89.9998349568
 51
179.9998349564
  0
ARC
  5
281
100
AcDbEntity
  8
0
100
AcDbCircle
 62
7
  6
CONTINUOUS
 10
68.3718958825
 20
44.8865418422
 40
0.4999985597
100
AcDbArc
 50
180.0001650436
 51
270.0001650432
  0
ARC
  5
282
100
AcDbEntity
  8
0
100
AcDbCircle
 62
7
  6
CONTINUOUS
 10
246.1974877333
 20
44.8865421908
 40
0.4999965724
100
AcDbArc
 50
269.9660949718
 51
355.41531788
  0
ARC
  5
283
100
AcDbEntity
  8
0
100
AcDbCircle
 62
7
  6
CONTINUOUS
 10
246.1974877473
 20
93.88651537
 40
0.4999965445
100
AcDbArc
 50
4.932905852
 51
90.0339066418
  0
ARC
  5
284
100
AcDbEntity
  8
0
100
AcDbCircle
 62
7
  6
CONTINUOUS
 10
761.9344519888
 20
69.6346520176
 40
420.2350214418
100
AcDbArc
 50
179.831100493
 51
180.0338296791
  0
ARC
  5
285
100
AcDbEntity
  8
_SURF_FINI
100
AcDbCircle
 62
7
  6
CONTINUOUS
 10
-40.8290413545
 20
69.6346520176
 40
420.2350214376
100
AcDbArc
 50
359.9661703209
 51
0.168899507
  0
ARC
  5
286
100
AcDbEntity
  8
0
100
AcDbCircle
 62
7
  6
CONTINUOUS
 10
761.9344518962
 20
69.1384055152
 40
420.2350213491
100
AcDbArc
 50
179.9661703209
 51
180.1688995071
  0
ARC
  5
287
100
AcDbEntity
  8
_SURF_FINI
100
AcDbCircle
 62
7
  6
CONTINUOUS
 10
-40.8290412468
 20
69.1384055152
 40
420.2350213299
100
AcDbArc
 50
359.8311004929
 51
0.0338296791
  0
CIRCLE
  5
288
100
AcDbEntity
  8
0
100
AcDbCircle
 62
7
  6
CONTINUOUS
 10
360.5527053151
 20
69.3865287665
 40
35.0
  0
CIRCLE
  5
289
100
AcDbEntity
  8
0
100
AcDbCircle
 62
9
  6
CONTINUOUS
 10
360.5527053151
 20
69.3865287665
 40
34.5
  0
ARC
  5
28A
100
AcDbEntity
  8
0
100
AcDbCircle
 62
7
  6
CONTINUOUS
 10
268.4126364147
 20
289.9741620623
 40
53.1204194209
100
AcDbArc
 50
233.4298266894
 51
233.7413121307
  0
ARC
  5
28B
100
AcDbEntity
  8
DATUM_AXIS
100
AcDbCircle
 62
7
  6
CONTINUOUS
 10
344.2969159071
 20
250.7451599814
 40
35.8262624629
100
AcDbArc
 50
358.3163203251
 51
2.007166741
  0
ARC
  5
28C
100
AcDbEntity
  8
DATUM_AXIS
100
AcDbCircle
 62
7
  6
CONTINUOUS
 10
346.235074855
 20
250.7088616566
 40
33.8878800765
100
AcDbArc
 50
357.9226749308
 51
358.2813837534
  0
ARC
  5
28D
100
AcDbEntity
  8
DATUM_AXIS
100
AcDbCircle
 62
7
  6
CONTINUOUS
 10
347.8860411089
 20
250.6397381741
 40
32.2354945282
100
AcDbArc
 50
354.4334269718
 51
357.9390866162
  0
ARC
  5
28E
100
AcDbEntity
  8
0
100
AcDbCircle
 62
7
  6
CONTINUOUS
 10
246.2312380818
 20
246.8220306431
 40
22.2345275717
100
AcDbArc
 50
277.2003246342
 51
278.7440486897
  0
ARC
  5
28F
100
AcDbEntity
  8
0
100
AcDbCircle
 62
7
  6
CONTINUOUS
 10
377.4793285106
 20
231.4550272117
 40
6.8122959745
100
AcDbArc
 50
237.7052775388
 51
240.3494268294
  0
ARC
  5
290
100
AcDbEntity
  8
0
100
AcDbCircle
 62
7
  6
CONTINUOUS
 10
376.5983700563
 20
274.5951752954
 40
6.4955463981
100
AcDbArc
 50
60.3519003094
 51
61.984636166
  0
ARC
  5
291
100
AcDbEntity
  8
0
100
AcDbCircle
 62
7
  6
CONTINUOUS
 10
376.4370328559
 20
274.6808590239
 40
6.4453114246
100
AcDbArc
 50
58.7778282052
 51
60.3514326716
  0
ARC
  5
292
100
AcDbEntity
  8
0
100
AcDbCircle
 62
7
  6
CONTINUOUS
 10
376.7185767955
 20
274.8209422552
 40
6.2397723295
100
AcDbArc
 50
61.9853385967
 51
63.5725034142
  0
ARC
  5
293
100
AcDbEntity
  8
0
100
AcDbCircle
 62
7
  6
CONTINUOUS
 10
376.8797946427
 20
231.0229235074
 40
5.9435958746
100
AcDbArc
 50
240.3307176086
 51
243.2515815491
  0
ARC
  5
294
100
AcDbEntity
  8
0
100
AcDbCircle
 62
7
  6
CONTINUOUS
 10
377.262964024
 20
276.9176780373
 40
4.0392823486
100
AcDbArc
 50
90.665291634
 51
93.6922332559
  0
ARC
  5
295
100
AcDbEntity
  8
0
100
AcDbCircle
 62
7
  6
CONTINUOUS
 10
372.6765678014
 20
268.8478906988
 40
3.8424746225
100
AcDbArc
 50
56.1817229496
 51
56.6286292726
  0
ARC
  5
296
100
AcDbEntity
  8
0
100
AcDbCircle
 62
7
  6
CONTINUOUS
 10
372.8070747409
 20
269.0499661727
 40
3.6019303271
100
AcDbArc
 50
56.5941903284
 51
60.319438503
  0
ARC
  5
297
100
AcDbEntity
  8
0
100
AcDbCircle
 62
7
  6
CONTINUOUS
 10
372.9846262276
 20
269.359289461
 40
3.2452734804
100
AcDbArc
 50
60.3386987465
 51
64.8187409269
  0
ARC
  5
298
100
AcDbEntity
  8
0
100
AcDbCircle
 62
7
  6
CONTINUOUS
 10
243.1056820276
 20
227.3871421977
 40
2.6998588094
100
AcDbArc
 50
239.1617632409
 51
245.2710361659
  0
ARC
  5
299
100
AcDbEntity
  8
0
100
AcDbCircle
 62
7
  6
CONTINUOUS
 10
243.0298962982
 20
227.2297307343
 40
2.5251810807
100
AcDbArc
 50
245.3388011036
 51
247.6178656474
  0
SPLINE
  5
29A
100
AcDbEntity
  8
DATUM_AXIS
100
AcDbSpline
 62
7
  6
CONTINUOUS
 70
0
 71
3
 72
50
 73
46
 74
0
 42
0.0000001
 43
0.0000001
 44
0.0000000001
 40
0.0
 40
0.0
 40
0.0
 40
0.0
 40
0.0001572002
 40
0.0006277187
 40
0.0014101326
 40
0.0025030229
 40
0.0039049744
 40
0.0056145759
 40
0.0099510585
 40
0.0154956956
 40
0.0222208978
 40
0.0300980731
 40
0.0390988283
 40
0.0491903763
 40
0.06033461
 40
0.0856306365
 40
0.1146744688
 40
0.1471415437
 40
0.1827006508
 40
0.2210107709
 40
0.2617014452
 40
0.3043314723
 40
0.3933284303
 40
0.4840950073
 40
0.5737220279
 40
0.6605455206
 40
0.7433087958
 40
0.7827093204
 40
0.8204555635
 40
0.8562084462
 40
0.8895488941
 40
0.9199169812
 40
0.9337875846
 40
0.9466485508
 40
0.9583902673
 40
0.9689028357
 40
0.978072879
 40
0.9857837114
 40
0.9919184541
 40
0.9943600512
 40
0.9963726148
 40
0.997949519
 40
0.9990841367
 40
0.99976984
 40
1.0
 40
1.0
 40
1.0
 40
1.0
 10
212.8877728718
 20
44.3865487675
 30
0.0
 10
212.8871870692
 20
44.387928832
 30
0.0
 10
212.8960895908
 20
44.3906443958
 30
0.0
 10
212.9024608798
 20
44.4001008638
 30
0.0
 10
212.9222352429
 20
44.4135324322
 30
0.0
 10
212.9456185089
 20
44.4333074725
 30
0.0
 10
212.9773823953
 20
44.4581891221
 30
0.0
 10
213.0328514664
 20
44.502371678
 30
0.0
 10
213.1198066674
 20
44.5707513605
 30
0.0
 10
213.244615756
 20
44.6681970192
 30
0.0
 10
213.3968988134
 20
44.7853943635
 30
0.0
 10
213.576305886
 20
44.9213560967
 30
0.0
 10
213.7825672713
 20
45.0750342366
 30
0.0
 10
214.0154042384
 20
45.2451750288
 30
0.0
 10
214.3766183819
 20
45.5030008816
 30
0.0
 10
214.8918214605
 20
45.8561444199
 30
0.0
 10
215.5887701668
 20
46.3032798448
 30
0.0
 10
216.3865485278
 20
46.7735016062
 30
0.0
 10
217.2835222412
 20
47.2476601386
 30
0.0
 10
218.276986041
 20
47.7039511686
 30
0.0
 10
219.3617642939
 20
48.1178217672
 30
0.0
 10
220.9382578114
 20
48.5869971793
 30
0.0
 10
223.0422484877
 20
48.9334538448
 30
0.0
 10
225.6216297906
 20
48.9232938569
 30
0.0
 10
228.1507595741
 20
48.565098648
 30
0.0
 10
230.5545091337
 20
47.9757315566
 30
0.0
 10
232.4535131268
 20
47.3665771026
 30
0.0
 10
233.8874062744
 20
46.8468740405
 30
0.0
 10
234.8919682737
 20
46.4590689093
 30
0.0
 10
235.8360695714
 20
46.075648483
 30
0.0
 10
236.7096833505
 20
45.7059732405
 30
0.0
 10
237.3875235
 20
45.4093446383
 30
0.0
 10
237.8846982087
 20
45.187138706
 30
0.0
 10
238.2190004856
 20
45.0358838628
 30
0.0
 10
238.5235512031
 20
44.8965705175
 30
0.0
 10
238.7956285148
 20
44.7709002669
 30
0.0
 10
239.0324643065
 20
44.6605971088
 30
0.0
 10
239.231140764
 20
44.5673078951
 30
0.0
 10
239.3716701259
 20
44.5010381225
 30
0.0
 10
239.462806276
 20
44.4576648747
 30
0.0
 10
239.5150066152
 20
44.4332152573
 30
0.0
 10
239.5550385783
 20
44.4132281702
 30
0.0
 10
239.5857536095
 20
44.4006795325
 30
0.0
 10
239.6007872419
 20
44.3897533707
 30
0.0
 10
239.6113804705
 20
44.3885693478
 30
0.0
 10
239.612238156
 20
44.3865487675
 30
0.0
  0
SPLINE
  5
29B
100
AcDbEntity
  8
0
100
AcDbSpline
 62
7
  6
CONTINUOUS
 70
0
 71
3
 72
9
 73
5
 74
0
 42
0.0000001
 43
0.0000001
 44
0.0000000001
 40
0.0
 40
0.0
 40
0.0
 40
0.0
 40
0.4999951836
 40
1.0
 40
1.0
 40
1.0
 40
1.0
 10
247.6242886533
 20
69.3865661968
 30
0.0
 10
247.6242882579
 20
73.4805738141
 30
0.0
 10
247.4443416135
 20
81.6690733305
 30
0.0
 10
246.987494484
 20
89.8458400282
 30
0.0
 10
246.6956837504
 20
93.9295137044
 30
0.0
  0
SPLINE
  5
29C
100
AcDbEntity
  8
0
100
AcDbSpline
 62
7
  6
CONTINUOUS
 70
0
 71
3
 72
9
 73
5
 74
0
 42
0.0000001
 43
0.0000001
 44
0.0000000001
 40
0.0
 40
0.0
 40
0.0
 40
0.0
 40
0.5000048296
 40
1.0
 40
1.0
 40
1.0
 40
1.0
 10
246.6959000616
 20
44.8465711083
 30
0.0
 10
246.9876431266
 20
48.9297426742
 30
0.0
 10
247.4443851644
 20
57.105501681
 30
0.0
 10
247.624288258
 20
65.292989581
 30
0.0
 10
247.6242886533
 20
69.3864913361
 30
0.0
  0
SPLINE
  5
29D
100
AcDbEntity
  8
0
100
AcDbSpline
 62
7
  6
CONTINUOUS
 70
0
 71
3
 72
32
 73
28
 74
0
 42
0.0000001
 43
0.0000001
 44
0.0000000001
 40
0.0
 40
0.0
 40
0.0
 40
0.0
 40
0.1783854128
 40
0.3562121035
 40
0.4439792174
 40
0.5293765154
 40
0.6108416536
 40
0.6868776578
 40
0.7564288377
 40
0.8186133658
 40
0.872614322
 40
0.8963127666
 40
0.9176980244
 40
0.9367159728
 40
0.9533174673
 40
0.9674563444
 40
0.9790957463
 40
0.9839671823
 40
0.9882005901
 40
0.9917918276
 40
0.9947375049
 40
0.9970343752
 40
0.9986791951
 40
0.9992560765
 40
0.9996687385
 40
0.999916797
 40
1.0
 40
1.0
 40
1.0
 40
1.0
 10
246.2165123021
 20
69.3865287665
 30
0.0
 10
246.2158107142
 20
67.8999764682
 30
0.0
 10
246.2127732578
 20
64.9315271298
 30
0.0
 10
246.2014182423
 20
61.2316983202
 30
0.0
 10
246.1926048841
 20
58.3067713878
 30
0.0
 10
246.1871737269
 20
56.184854768
 30
0.0
 10
246.1832441661
 20
54.1606947927
 30
0.0
 10
246.1803759088
 20
52.2685848999
 30
0.0
 10
246.1779073671
 20
50.5371471551
 30
0.0
 10
246.1760598867
 20
48.9893350305
 30
0.0
 10
246.1760708132
 20
47.8236291739
 30
0.0
 10
246.1774741542
 20
46.9979205726
 30
0.0
 10
246.179170098
 20
46.4637399488
 30
0.0
 10
246.1814238924
 20
45.9887036735
 30
0.0
 10
246.1841155682
 20
45.5740571048
 30
0.0
 10
246.1871221823
 20
45.2209041054
 30
0.0
 10
246.1897389119
 20
44.9654995203
 30
0.0
 10
246.1916853831
 20
44.7926447329
 30
0.0
 10
246.1929090216
 20
44.6868416379
 30
0.0
 10
246.1939857832
 20
44.5971212918
 30
0.0
 10
246.1948107154
 20
44.5234375853
 30
0.0
 10
246.1957137106
 20
44.4662372824
 30
0.0
 10
246.1959135473
 20
44.4281912882
 30
0.0
 10
246.1967624531
 20
44.4067735118
 30
0.0
 10
246.1962298952
 20
44.3955859082
 30
0.0
 10
246.1977524942
 20
44.3909410455
 30
0.0
 10
246.1964988283
 20
44.3865702093
 30
0.0
 10
246.1971918581
 20
44.3865487675
 30
0.0
  0
LINE
  5
29E
100
AcDbEntity
  8
0
100
AcDbLine
 62
7
  6
CONTINUOUS
 10
246.7143209195
 20
69.3865287665
 11
247.6242886533
 21
69.3864913361
  0
SPLINE
  5
29F
100
AcDbEntity
  8
0
100
AcDbSpline
 62
7
  6
CONTINUOUS
 70
0
 71
3
 72
20
 73
16
 74
0
 42
0.0000001
 43
0.0000001
 44
0.0000000001
 40
0.0
 40
0.0
 40
0.0
 40
0.0
 40
0.001098499
 40
0.0051322687
 40
0.0118507735
 40
0.0210745575
 40
0.046994035
 40
0.0827787298
 40
0.1280063069
 40
0.1820953739
 40
0.24429953
 40
0.3137934392
 40
0.4715101259
 40
0.6444641077
 40
1.0
 40
1.0
 40
1.0
 40
1.0
 10
246.6959003477
 20
44.8465751119
 30
0.0
 10
246.6952584627
 20
44.837612312
 30
0.0
 10
246.6943955619
 20
44.9292329893
 30
0.0
 10
246.6931517352
 20
44.9735083334
 30
0.0
 10
246.6911265801
 20
45.1671319616
 30
0.0
 10
246.6871658389
 20
45.4916227187
 30
0.0
 10
246.6820371169
 20
46.0848848875
 30
0.0
 10
246.6776417757
 20
46.9533779608
 30
0.0
 10
246.6751738824
 20
48.0608706143
 30
0.0
 10
246.6749961483
 20
49.3812885583
 30
0.0
 10
246.6766944443
 20
50.9013044732
 30
0.0
 10
246.6804930217
 20
53.2686132998
 30
0.0
 10
246.6856184755
 20
56.5420305291
 30
0.0
 10
246.7027915044
 20
62.1551665952
 30
0.0
 10
246.713644932
 20
66.4782343081
 30
0.0
 10
246.7143209195
 20
69.3865287665
 30
0.0
  0
SPLINE
  5
2A0
100
AcDbEntity
  8
0
100
AcDbSpline
 62
7
  6
CONTINUOUS
 70
0
 71
3
 72
32
 73
28
 74
0
 42
0.0000001
 43
0.0000001
 44
0.0000000001
 40
0.0
 40
0.0
 40
0.0
 40
0.0
 40
0.1783854128
 40
0.3562121035
 40
0.4439792174
 40
0.5293765154
 40
0.6108416536
 40
0.6868776578
 40
0.7564288377
 40
0.8186133658
 40
0.872614322
 40
0.8963127666
 40
0.9176980244
 40
0.9367159728
 40
0.9533174673
 40
0.9674563444
 40
0.9790957463
 40
0.9839671823
 40
0.9882005901
 40
0.9917918276
 40
0.9947375049
 40
0.9970343752
 40
0.9986791951
 40
0.9992560765
 40
0.9996687385
 40
0.999916797
 40
1.0
 40
1.0
 40
1.0
 40
1.0
 10
246.2165134416
 20
69.3865287665
 30
0.0
 10
246.2158112855
 20
70.8730810645
 30
0.0
 10
246.2127729772
 20
73.8415304014
 30
0.0
 10
246.2014182779
 20
77.5413592117
 30
0.0
 10
246.1926048951
 20
80.4662861442
 30
0.0
 10
246.1871737185
 20
82.5882027641
 30
0.0
 10
246.1832441675
 20
84.6123627395
 30
0.0
 10
246.1803759096
 20
86.5044726325
 30
0.0
 10
246.1779073665
 20
88.2359103773
 30
0.0
 10
246.1760598868
 20
89.783722502
 30
0.0
 10
246.1760708133
 20
90.9494283587
 30
0.0
 10
246.1774741542
 20
91.7751369601
 30
0.0
 10
246.179170098
 20
92.309317584
 30
0.0
 10
246.1814238923
 20
92.7843538593
 30
0.0
 10
246.1841155682
 20
93.199000428
 30
0.0
 10
246.1871221823
 20
93.5521534274
 30
0.0
 10
246.1897389119
 20
93.8075580125
 30
0.0
 10
246.1916853831
 20
93.9804128
 30
0.0
 10
246.1929090216
 20
94.086215895
 30
0.0
 10
246.1939857832
 20
94.1759362411
 30
0.0
 10
246.1948107154
 20
94.2496199475
 30
0.0
 10
246.1957137106
 20
94.3068202505
 30
0.0
 10
246.1959135472
 20
94.3448662447
 30
0.0
 10
246.1967624531
 20
94.3662840211
 30
0.0
 10
246.1962298952
 20
94.3774716247
 30
0.0
 10
246.1977524942
 20
94.3821164874
 30
0.0
 10
246.1964988283
 20
94.3864873236
 30
0.0
 10
246.1971918581
 20
94.3865087654
 30
0.0
  0
SPLINE
  5
2A1
100
AcDbEntity
  8
0
100
AcDbSpline
 62
7
  6
CONTINUOUS
 70
0
 71
3
 72
21
 73
17
 74
0
 42
0.0000001
 43
0.0000001
 44
0.0000000001
 40
0.0
 40
0.0
 40
0.0
 40
0.0
 40
0.0011542054
 40
0.0052568381
 40
0.0120528942
 40
0.0213221464
 40
0.0471902664
 40
0.0828960788
 40
0.1280911769
 40
0.1821747677
 40
0.2443946427
 40
0.3139767833
 40
0.4716108609
 40
0.6445714068
 40
0.8220130353
 40
1.0
 40
1.0
 40
1.0
 40
1.0
 10
246.6956837785
 20
93.9295133111
 30
0.0
 10
246.6950090028
 20
93.9389317712
 30
0.0
 10
246.6945132961
 20
93.8448467722
 30
0.0
 10
246.6930585359
 20
93.7995446331
 30
0.0
 10
246.6913554258
 20
93.6042406772
 30
0.0
 10
246.6874121794
 20
93.2789829205
 30
0.0
 10
246.6821325686
 20
92.6865163373
 30
0.0
 10
246.677599753
 20
91.8191615011
 30
0.0
 10
246.6750771336
 20
90.7125176988
 30
0.0
 10
246.6748825902
 20
89.3921092113
 30
0.0
 10
246.6766989514
 20
87.8711031738
 30
0.0
 10
246.6806746831
 20
85.50332688
 30
0.0
 10
246.6854060163
 20
82.2294059487
 30
0.0
 10
246.6981380146
 20
78.073182061
 30
0.0
 10
246.711614984
 20
73.7504227042
 30
0.0
 10
246.7139621709
 20
70.8426471673
 30
0.0
 10
246.71441361
 20
69.3865287662
 30
0.0
  0
SPLINE
  5
2A2
100
AcDbEntity
  8
0
100
AcDbSpline
 62
7
  6
CONTINUOUS
 70
0
 71
3
 72
10
 73
6
 74
0
 42
0.0000001
 43
0.0000001
 44
0.0000000001
 40
0.0
 40
0.0
 40
0.0
 40
0.0
 40
0.3333369511
 40
0.6666739023
 40
1.0
 40
1.0
 40
1.0
 40
1.0
 10
379.4059068322
 20
69.3865287665
 30
0.0
 10
379.4059068322
 20
73.8551824072
 30
0.0
 10
379.4059068322
 20
82.7924766603
 30
0.0
 10
371.7132876803
 20
92.1839632216
 30
0.0
 10
364.2728716057
 20
94.3864370563
 30
0.0
 10
360.5527053151
 20
94.3865087654
 30
0.0
  0
SPLINE
  5
2A3
100
AcDbEntity
  8
_SURF_FINI
100
AcDbSpline
 62
7
  6
CONTINUOUS
 70
0
 71
3
 72
10
 73
6
 74
0
 42
0.0000001
 43
0.0000001
 44
0.0000000001
 40
0.0
 40
0.0
 40
0.0
 40
0.0
 40
0.3265851483
 40
0.6830746217
 40
1.0
 40
1.0
 40
1.0
 40
1.0
 10
361.4882360875
 20
94.3633126688
 30
0.0
 10
364.8927188031
 20
94.1946156094
 30
0.0
 10
371.9283064553
 20
91.9214588786
 30
0.0
 10
379.1213216927
 20
83.1399106696
 30
0.0
 10
379.3901148462
 20
74.8388248465
 30
0.0
 10
379.4041541981
 20
70.8734410827
 30
0.0
  0
SPLINE
  5
2A4
100
AcDbEntity
  8
0
100
AcDbSpline
 62
7
  6
CONTINUOUS
 70
0
 71
3
 72
10
 73
6
 74
0
 42
0.0000001
 43
0.0000001
 44
0.0000000001
 40
0.0
 40
0.0
 40
0.0
 40
0.0
 40
0.3333369511
 40
0.6666739023
 40
1.0
 40
1.0
 40
1.0
 40
1.0
 10
379.4059068322
 20
69.3865287665
 30
0.0
 10
379.4059068322
 20
64.9178751257
 30
0.0
 10
379.4059068322
 20
55.9805808726
 30
0.0
 10
371.7132876803
 20
46.5890943113
 30
0.0
 10
364.2728716057
 20
44.3866204766
 30
0.0
 10
360.5527053151
 20
44.3865487675
 30
0.0
  0
SPLINE
  5
2A5
100
AcDbEntity
  8
0
100
AcDbSpline
 62
7
  6
CONTINUOUS
 70
0
 71
3
 72
10
 73
6
 74
0
 42
0.0000001
 43
0.0000001
 44
0.0000000001
 40
0.0
 40
0.0
 40
0.0
 40
0.0
 40
0.3333369511
 40
0.6666739023
 40
1.0
 40
1.0
 40
1.0
 40
1.0
 10
341.6995037979
 20
69.3865287665
 30
0.0
 10
341.6995037979
 20
64.9178751257
 30
0.0
 10
341.6995037979
 20
55.9805808726
 30
0.0
 10
349.3921229498
 20
46.5890943113
 30
0.0
 10
356.8325390244
 20
44.3866204766
 30
0.0
 10
360.5527053151
 20
44.3865487675
 30
0.0
  0
SPLINE
  5
2A6
100
AcDbEntity
  8
0
100
AcDbSpline
 62
7
  6
CONTINUOUS
 70
0
 71
3
 72
10
 73
6
 74
0
 42
0.0000001
 43
0.0000001
 44
0.0000000001
 40
0.0
 40
0.0
 40
0.0
 40
0.0
 40
0.3333369511
 40
0.6666739023
 40
1.0
 40
1.0
 40
1.0
 40
1.0
 10
341.6995037979
 20
69.3865287665
 30
0.0
 10
341.6995037979
 20
73.8551824072
 30
0.0
 10
341.6995037979
 20
82.7924766603
 30
0.0
 10
349.3921229498
 20
92.1839632216
 30
0.0
 10
356.8325390244
 20
94.3864370563
 30
0.0
 10
360.5527053151
 20
94.3865087654
 30
0.0
  0
SPLINE
  5
2A7
100
AcDbEntity
  8
0
100
AcDbSpline
 62
9
  6
CONTINUOUS
 70
0
 71
3
 72
20
 73
16
 74
0
 42
0.0000001
 43
0.0000001
 44
0.0000000001
 40
0.0
 40
0.0
 40
0.0
 40
0.0
 40
0.0625035983
 40
0.125085208
 40
0.1875956241
 40
0.2501180595
 40
0.3749509738
 40
0.4374771912
 40
0.5000074526
 40
0.562532278
 40
0.6250575927
 40
0.6875688886
 40
0.7500934234
 40
0.8750435232
 40
1.0
 40
1.0
 40
1.0
 40
1.0
 10
360.552705315
 20
93.9295137044
 30
0.0
 10
361.2810721295
 20
93.9361559368
 30
0.0
 10
362.7409216528
 20
93.8435651022
 30
0.0
 10
364.8947298603
 20
93.4457918221
 30
0.0
 10
366.9926656078
 20
92.811927809
 30
0.0
 10
369.6655151132
 20
91.6433270009
 30
0.0
 10
372.109805149
 20
89.9994870994
 30
0.0
 10
374.1977447504
 20
87.9616035521
 30
0.0
 10
375.5675807751
 20
86.2504152779
 30
0.0
 10
376.7093159659
 20
84.3788842128
 30
0.0
 10
377.5887369497
 20
82.3706721477
 30
0.0
 10
378.205375207
 20
80.2682195853
 30
0.0
 10
378.7176748493
 20
77.3960822821
 30
0.0
 10
378.9489921285
 20
73.7545852751
 30
0.0
 10
378.9570480274
 20
70.8427233714
 30
0.0
 10
378.9520657429
 20
69.3865287662
 30
0.0
  0
SPLINE
  5
2A8
100
AcDbEntity
  8
0
100
AcDbSpline
 62
9
  6
CONTINUOUS
 70
0
 71
3
 72
17
 73
13
 74
0
 42
0.0000001
 43
0.0000001
 44
0.0000000001
 40
0.0
 40
0.0
 40
0.0
 40
0.0
 40
0.015639324
 40
0.0312786963
 40
0.0625572334
 40
0.1251127127
 40
0.1876647309
 40
0.2502118424
 40
0.3752862624
 40
0.5003268325
 40
0.7502753266
 40
1.0
 40
1.0
 40
1.0
 40
1.0
 10
360.5523571719
 20
69.3865661968
 30
0.0
 10
360.5537388711
 20
69.5145037726
 30
0.0
 10
360.5522387235
 20
69.7704048417
 30
0.0
 10
360.5529712635
 20
70.2821793004
 30
0.0
 10
360.5525140716
 20
71.1777824141
 30
0.0
 10
360.5527701777
 20
72.4571720249
 30
0.0
 10
360.5526883297
 20
73.992371686
 30
0.0
 10
360.5527151164
 20
76.0390369429
 30
0.0
 10
360.5527020648
 20
78.5969202339
 30
0.0
 10
360.5527071946
 20
82.6879308385
 30
0.0
 10
360.5527046184
 20
87.798703046
 30
0.0
 10
360.5527053402
 20
91.8865205078
 30
0.0
 10
360.552705315
 20
93.9295137044
 30
0.0
  0
SPLINE
  5
2A9
100
AcDbEntity
  8
0
100
AcDbSpline
 62
9
  6
CONTINUOUS
 70
0
 71
3
 72
20
 73
16
 74
0
 42
0.0000001
 43
0.0000001
 44
0.0000000001
 40
0.0
 40
0.0
 40
0.0
 40
0.0
 40
0.0625045372
 40
0.125086009
 40
0.1875970605
 40
0.2501199907
 40
0.3749520548
 40
0.4374783035
 40
0.5000083033
 40
0.5625330656
 40
0.625058034
 40
0.6875697365
 40
0.7500939688
 40
0.8750437515
 40
1.0
 40
1.0
 40
1.0
 40
1.0
 10
360.5527053113
 20
44.8465711083
 30
0.0
 10
361.2810699515
 20
44.8385195182
 30
0.0
 10
362.7411459902
 20
44.9288113297
 30
0.0
 10
364.8952428502
 20
45.3256871774
 30
0.0
 10
366.9928946754
 20
45.9605984517
 30
0.0
 10
369.665513069
 20
47.1296813913
 30
0.0
 10
372.1095055682
 20
48.7739025179
 30
0.0
 10
374.1975650167
 20
50.8116223874
 30
0.0
 10
375.5676628228
 20
52.5225994208
 30
0.0
 10
376.7095471952
 20
54.3940559237
 30
0.0
 10
377.5887025364
 20
56.4023993384
 30
0.0
 10
378.2051799609
 20
58.5048827827
 30
0.0
 10
378.7176886413
 20
61.3769871978
 30
0.0
 10
378.9487577786
 20
65.0184936594
 30
0.0
 10
378.957596779
 20
67.9303330805
 30
0.0
 10
378.9530885844
 20
69.3865287665
 30
0.0
  0
SPLINE
  5
2AA
100
AcDbEntity
  8
0
100
AcDbSpline
 62
9
  6
CONTINUOUS
 70
0
 71
3
 72
15
 73
11
 74
0
 42
0.0000001
 43
0.0000001
 44
0.0000000001
 40
0.0
 40
0.0
 40
0.0
 40
0.0
 40
0.2495486007
 40
0.4994462605
 40
0.6245113755
 40
0.749637612
 40
0.8748074291
 40
0.9374022669
 40
0.9687009518
 40
1.0
 40
1.0
 40
1.0
 40
1.0
 10
378.9530885844
 20
69.3865287665
 30
0.0
 10
377.4224629923
 20
69.3865287657
 30
0.0
 10
374.3590708431
 20
69.3865334844
 30
0.0
 10
370.5285820884
 20
69.3865157698
 30
0.0
 10
367.4612476811
 20
69.3865512413
 30
0.0
 10
365.1589406342
 20
69.3864429508
 30
0.0
 10
363.2398013579
 20
69.3867818784
 30
0.0
 10
361.8961574258
 20
69.3861767179
 30
0.0
 10
361.128282403
 20
69.3871464351
 30
0.0
 10
360.7443276863
 20
69.3851606572
 30
0.0
 10
360.5523571719
 20
69.3864913361
 30
0.0
  0
SPLINE
  5
2AB
100
AcDbEntity
  8
0
100
AcDbSpline
 62
9
  6
CONTINUOUS
 70
0
 71
3
 72
17
 73
13
 74
0
 42
0.0000001
 43
0.0000001
 44
0.0000000001
 40
0.0
 40
0.0
 40
0.0
 40
0.0
 40
0.2497247411
 40
0.499673252
 40
0.6247138157
 40
0.7497882215
 40
0.8123353237
 40
0.8748873314
 40
0.9374427993
 40
0.9687213304
 40
0.9843606998
 40
1.0
 40
1.0
 40
1.0
 40
1.0
 10
360.5527053113
 20
44.8465711083
 30
0.0
 10
360.5527053445
 20
46.8893128633
 30
0.0
 10
360.5527044718
 20
50.9766267978
 30
0.0
 10
360.5527075996
 20
56.0867692558
 30
0.0
 10
360.552701369
 20
60.1772752059
 30
0.0
 10
360.552717208
 20
62.7348427794
 30
0.0
 10
360.5526846932
 20
64.7812552427
 30
0.0
 10
360.5527840449
 20
66.3162654914
 30
0.0
 10
360.5524731759
 20
67.5954964279
 30
0.0
 10
360.5530281472
 20
68.490990048
 30
0.0
 10
360.5521389303
 20
69.0026992856
 30
0.0
 10
360.5539598516
 20
69.2585723154
 30
0.0
 10
360.5523571719
 20
69.3864913361
 30
0.0
  0
SPLINE
  5
2AC
100
AcDbEntity
  8
0
100
AcDbSpline
 62
9
  6
CONTINUOUS
 70
0
 71
3
 72
15
 73
11
 74
0
 42
0.0000001
 43
0.0000001
 44
0.0000000001
 40
0.0
 40
0.0
 40
0.0
 40
0.0
 40
0.2495486007
 40
0.4994462605
 40
0.6245113755
 40
0.749637612
 40
0.8748074291
 40
0.9374022669
 40
0.9687009518
 40
1.0
 40
1.0
 40
1.0
 40
1.0
 10
342.1523220457
 20
69.3865287665
 30
0.0
 10
343.6829476378
 20
69.3865287657
 30
0.0
 10
346.7463397871
 20
69.3865334844
 30
0.0
 10
350.5768285417
 20
69.3865157698
 30
0.0
 10
353.644162949
 20
69.3865512413
 30
0.0
 10
355.946469996
 20
69.3864429508
 30
0.0
 10
357.8656092723
 20
69.3867818784
 30
0.0
 10
359.2092532043
 20
69.3861767179
 30
0.0
 10
359.9771282272
 20
69.3871464351
 30
0.0
 10
360.3610829438
 20
69.3851606572
 30
0.0
 10
360.5530534582
 20
69.3864913361
 30
0.0
  0
SPLINE
  5
2AD
100
AcDbEntity
  8
0
100
AcDbSpline
 62
9
  6
CONTINUOUS
 70
0
 71
3
 72
21
 73
17
 74
0
 42
0.0000001
 43
0.0000001
 44
0.0000000001
 40
0.0
 40
0.0
 40
0.0
 40
0.0
 40
0.0625083846
 40
0.1250657003
 40
0.1875717556
 40
0.2500952165
 40
0.3749116412
 40
0.437434493
 40
0.499958239
 40
0.5624736115
 40
0.6249908224
 40
0.6875122643
 40
0.7500186421
 40
0.8125298014
 40
0.8750255041
 40
1.0
 40
1.0
 40
1.0
 40
1.0
 10
360.5527053112
 20
44.8465751119
 30
0.0
 10
359.8242510698
 20
44.8391487102
 30
0.0
 10
358.3645019442
 20
44.9295636908
 30
0.0
 10
356.2099313792
 20
45.3231150537
 30
0.0
 10
354.1127303032
 20
45.9592921945
 30
0.0
 10
351.4412202623
 20
47.1304070987
 30
0.0
 10
348.9969109409
 20
48.774095619
 30
0.0
 10
346.9096477186
 20
50.812075773
 30
0.0
 10
345.5347095665
 20
52.5191427001
 30
0.0
 10
344.396139807
 20
54.3927846123
 30
0.0
 10
343.5191547988
 20
56.4018947531
 30
0.0
 10
342.90215189
 20
58.5040301827
 30
0.0
 10
342.513868823
 20
60.6580556458
 30
0.0
 10
342.2938095743
 20
62.833744155
 30
0.0
 10
342.1537459445
 20
65.7445242456
 30
0.0
 10
342.1485860595
 20
67.9300420323
 30
0.0
 10
342.1523220457
 20
69.3865287665
 30
0.0
  0
SPLINE
  5
2AE
100
AcDbEntity
  8
0
100
AcDbSpline
 62
9
  6
CONTINUOUS
 70
0
 71
3
 72
20
 73
16
 74
0
 42
0.0000001
 43
0.0000001
 44
0.0000000001
 40
0.0
 40
0.0
 40
0.0
 40
0.0
 40
0.0625035984
 40
0.125085208
 40
0.1875956242
 40
0.2501180597
 40
0.3749509738
 40
0.4374771913
 40
0.5000074526
 40
0.562532278
 40
0.6250575928
 40
0.6875688886
 40
0.7500934234
 40
0.8750435232
 40
1.0
 40
1.0
 40
1.0
 40
1.0
 10
360.552705315
 20
93.9295133111
 30
0.0
 10
359.8243385013
 20
93.9361556706
 30
0.0
 10
358.3644889594
 20
93.8435650467
 30
0.0
 10
356.2106807252
 20
93.4457918672
 30
0.0
 10
354.1127449964
 20
92.811927791
 30
0.0
 10
351.439895497
 20
91.6433269832
 30
0.0
 10
348.9956054608
 20
89.9994870851
 30
0.0
 10
346.9076658665
 20
87.9616035361
 30
0.0
 10
345.5378298443
 20
86.2504152629
 30
0.0
 10
344.3960946569
 20
84.3788841985
 30
0.0
 10
343.5166736759
 20
82.3706721347
 30
0.0
 10
342.9000354206
 20
80.268219574
 30
0.0
 10
342.3877357802
 20
77.3960822737
 30
0.0
 10
342.1564185016
 20
73.7545852705
 30
0.0
 10
342.1483626027
 20
70.8427233699
 30
0.0
 10
342.1533448872
 20
69.3865287662
 30
0.0
  0
SPLINE
  5
2AF
100
AcDbEntity
  8
0
100
AcDbSpline
 62
2
  6
CONTINUOUS
 70
0
 71
3
 72
116
 73
112
 74
0
 42
0.0000001
 43
0.0000001
 44
0.0000000001
 40
0.0
 40
0.0
 40
0.0
 40
0.0
 40
0.03125
 40
0.0625
 40
0.09375
 40
0.109375
 40
0.125
 40
0.140625
 40
0.1484375
 40
0.15625
 40
0.16015625
 40
0.1640625
 40
0.166015625
 40
0.1669921875
 40
0.16796875
 40
0.169921875
 40
0.171875
 40
0.17578125
 40
0.1796875
 40
0.1875
 40
0.1953125
 40
0.203125
 40
0.21875
 40
0.25
 40
0.28125
 40
0.296875
 40
0.3046875
 40
0.3125
 40
0.3203125
 40
0.32421875
 40
0.328125
 40
0.330078125
 40
0.33203125
 40
0.3330078125
 40
0.333984375
 40
0.3359375
 40
0.33984375
 40
0.34375
 40
0.3515625
 40
0.359375
 40
0.375
 40
0.390625
 40
0.40625
 40
0.421875
 40
0.4375
 40
0.453125
 40
0.46875
 40
0.4765625
 40
0.484375
 40
0.48828125
 40
0.4921875
 40
0.49609375
 40
0.498046875
 40
0.4990234375
 40
0.5
 40
0.5009765625
 40
0.501953125
 40
0.50390625
 40
0.5078125
 40
0.51171875
 40
0.515625
 40
0.5234375
 40
0.53125
 40
0.546875
 40
0.5625
 40
0.578125
 40
0.59375
 40
0.609375
 40
0.625
 40
0.640625
 40
0.6484375
 40
0.65625
 40
0.66015625
 40
0.6640625
 40
0.666015625
 40
0.6669921875
 40
0.66796875
 40
0.669921875
 40
0.671875
 40
0.67578125
 40
0.6796875
 40
0.6875
 40
0.6953125
 40
0.703125
 40
0.71875
 40
0.75
 40
0.78125
 40
0.796875
 40
0.8046875
 40
0.8125
 40
0.8203125
 40
0.82421875
 40
0.828125
 40
0.830078125
 40
0.83203125
 40
0.8330078125
 40
0.833984375
 40
0.8349609375
 40
0.8359375
 40
0.83984375
 40
0.84375
 40
0.84765625
 40
0.8515625
 40
0.859375
 40
0.875
 40
0.890625
 40
0.90625
 40
0.921875
 40
0.9375
 40
0.96875
 40
1.0
 40
1.0
 40
1.0
 40
1.0
 10
410.4301357389
 20
247.5809596019
 30
0.0
 10
410.4423680202
 20
247.5828861237
 30
0.0
 10
410.4668325829
 20
247.5867391648
 30
0.0
 10
410.5035294255
 20
247.5925187422
 30
0.0
 10
410.5341101319
 20
247.5973350104
 30
0.0
 10
410.5585746877
 20
247.6011881281
 30
0.0
 10
410.5769231302
 20
247.6040776849
 30
0.0
 10
410.5922134172
 20
247.6064865443
 30
0.0
 10
410.6044458301
 20
247.6084116235
 30
0.0
 10
410.6120906708
 20
247.609619371
 30
0.0
 10
410.6182074992
 20
247.6105750959
 30
0.0
 10
410.6220283361
 20
247.6111963201
 30
0.0
 10
410.6247072925
 20
247.6115832862
 30
0.0
 10
410.6262312867
 20
247.6118793395
 30
0.0
 10
410.6277295211
 20
247.6124576644
 30
0.0
 10
410.6296111342
 20
247.6130839213
 30
0.0
 10
410.6326167861
 20
247.6141399444
 30
0.0
 10
410.6363755387
 20
247.6154414795
 30
0.0
 10
410.6423885996
 20
247.6175342719
 30
0.0
 10
410.6499052494
 20
247.620146716
 30
0.0
 10
410.6589250906
 20
247.6232831668
 30
0.0
 10
410.6709515939
 20
247.6274645716
 30
0.0
 10
410.6919979519
 20
247.6347822782
 30
0.0
 10
410.7220641909
 20
247.6452360031
 30
0.0
 10
410.75213042
 20
247.6556898222
 30
0.0
 10
410.7731767918
 20
247.663007397
 30
0.0
 10
410.7852032734
 20
247.6671890089
 30
0.0
 10
410.7942231812
 20
247.6703248243
 30
0.0
 10
410.8017396226
 20
247.6729392571
 30
0.0
 10
410.8077531085
 20
247.675027992
 30
0.0
 10
410.8115107797
 20
247.6763398531
 30
0.0
 10
410.8145186513
 20
247.6773746806
 30
0.0
 10
410.8163946132
 20
247.6780549004
 30
0.0
 10
410.8179044479
 20
247.6785224553
 30
0.0
 10
410.8193811884
 20
247.6792697317
 30
0.0
 10
410.8219501107
 20
247.6807074081
 30
0.0
 10
410.8256280209
 20
247.682693434
 30
0.0
 10
410.8315081945
 20
247.6859089639
 30
0.0
 10
410.8388599465
 20
247.6899154032
 30
0.0
 10
410.8506218918
 20
247.6963329567
 30
0.0
 10
410.8653246177
 20
247.7043524105
 30
0.0
 10
410.8829677627
 20
247.713976822
 30
0.0
 10
410.9006109415
 20
247.723600947
 30
0.0
 10
410.918254111
 20
247.733225151
 30
0.0
 10
410.9358972842
 20
247.7428493254
 30
0.0
 10
410.9535404517
 20
247.7524735394
 30
0.0
 10
410.968243107
 20
247.7604936102
 30
0.0
 10
410.9800051965
 20
247.766909905
 30
0.0
 10
410.9873565815
 20
247.7709195477
 30
0.0
 10
410.9932375084
 20
247.7741285022
 30
0.0
 10
410.9976486994
 20
247.7765318219
 30
0.0
 10
411.0013231146
 20
247.778545392
 30
0.0
 10
411.0038983007
 20
247.7799336892
 30
0.0
 10
411.0053650023
 20
247.7807601068
 30
0.0
 10
411.0064786438
 20
247.781286663
 30
0.0
 10
411.007540241
 20
247.7821696947
 30
0.0
 10
411.0089738575
 20
247.7832227276
 30
0.0
 10
411.0114742283
 20
247.7851234688
 30
0.0
 10
411.0150506086
 20
247.7878085251
 30
0.0
 10
411.0193403723
 20
247.791043557
 30
0.0
 10
411.0250607182
 20
247.7953524046
 30
0.0
 10
411.0322109242
 20
247.8007400146
 30
0.0
 10
411.0436513804
 20
247.8093593241
 30
0.0
 10
411.0579519072
 20
247.8201337585
 30
0.0
 10
411.0751125582
 20
247.8330629509
 30
0.0
 10
411.0922732032
 20
247.8459921829
 30
0.0
 10
411.1094338531
 20
247.8589213858
 30
0.0
 10
411.1265944897
 20
247.8718506652
 30
0.0
 10
411.1437551746
 20
247.8847796675
 30
0.0
 10
411.1580555953
 20
247.895554696
 30
0.0
 10
411.169496268
 20
247.9041727936
 30
0.0
 10
411.176645923
 20
247.9095634877
 30
0.0
 10
411.1823673999
 20
247.9138660048
 30
0.0
 10
411.1859393235
 20
247.916577982
 30
0.0
 10
411.1884476855
 20
247.9184304634
 30
0.0
 10
411.1898684942
 20
247.9195608431
 30
0.0
 10
411.1912420587
 20
247.920961775
 30
0.0
 10
411.1929751906
 20
247.9226203032
 30
0.0
 10
411.1957391617
 20
247.925325718
 30
0.0
 10
411.1991972208
 20
247.9286897605
 30
0.0
 10
411.2047283854
 20
247.9340821355
 30
0.0
 10
411.2116429347
 20
247.9408192053
 30
0.0
 10
411.2199401399
 20
247.9489051438
 30
0.0
 10
411.2310031687
 20
247.9596858875
 30
0.0
 10
411.2503634279
 20
247.9785524275
 30
0.0
 10
411.2780209619
 20
248.0055044878
 30
0.0
 10
411.3056784909
 20
248.0324566522
 30
0.0
 10
411.3250387572
 20
248.0513230463
 30
0.0
 10
411.3361017749
 20
248.0621040192
 30
0.0
 10
411.3443990141
 20
248.0701892547
 30
0.0
 10
411.3513134568
 20
248.0769285247
 30
0.0
 10
411.356844839
 20
248.0823164109
 30
0.0
 10
411.3603023444
 20
248.0856918773
 30
0.0
 10
411.3630674522
 20
248.0883738427
 30
0.0
 10
411.36479769
 20
248.0900920718
 30
0.0
 10
411.3661771953
 20
248.0913704551
 30
0.0
 10
411.3672246519
 20
248.0925926422
 30
0.0
 10
411.368275703
 20
248.0938886387
 30
0.0
 10
411.3703759562
 20
248.096442664
 30
0.0
 10
411.3735271127
 20
248.1002896489
 30
0.0
 10
411.3777282108
 20
248.1054098474
 30
0.0
 10
411.3819294276
 20
248.1105324841
 30
0.0
 10
411.3875310086
 20
248.1173618159
 30
0.0
 10
411.3973337947
 20
248.1293135427
 30
0.0
 10
411.4113377647
 20
248.146387231
 30
0.0
 10
411.428142533
 20
248.1668757458
 30
0.0
 10
411.4449473002
 20
248.1873642368
 30
0.0
 10
411.4617520676
 20
248.2078527341
 30
0.0
 10
411.4841584242
 20
248.2351707284
 30
0.0
 10
411.5121663698
 20
248.269318222
 30
0.0
 10
411.5345727264
 20
248.2966362166
 30
0.0
 10
411.5457759047
 20
248.310295214
 30
0.0
  0
SPLINE
  5
2B0
100
AcDbEntity
  8
0
100
AcDbSpline
 62
2
  6
CONTINUOUS
 70
0
 71
3
 72
169
 73
165
 74
0
 42
0.0000001
 43
0.0000001
 44
0.0000000001
 40
0.0
 40
0.0
 40
0.0
 40
0.0
 40
0.03125
 40
0.0625
 40
0.078125
 40
0.09375
 40
0.109375
 40
0.125
 40
0.1328125
 40
0.140625
 40
0.1484375
 40
0.15234375
 40
0.15625
 40
0.16015625
 40
0.162109375
 40
0.1640625
 40
0.1650390625
 40
0.166015625
 40
0.1665039062
 40
0.1667480469
 40
0.1669921875
 40
0.1674804688
 40
0.16796875
 40
0.1689453125
 40
0.169921875
 40
0.171875
 40
0.173828125
 40
0.17578125
 40
0.1796875
 40
0.1875
 40
0.1953125
 40
0.203125
 40
0.2109375
 40
0.21875
 40
0.234375
 40
0.25
 40
0.265625
 40
0.28125
 40
0.2890625
 40
0.296875
 40
0.3046875
 40
0.3125
 40
0.3203125
 40
0.32421875
 40
0.326171875
 40
0.328125
 40
0.330078125
 40
0.3310546875
 40
0.33203125
 40
0.3325195312
 40
0.3330078125
 40
0.3332519531
 40
0.3334960938
 40
0.333984375
 40
0.3349609375
 40
0.3359375
 40
0.337890625
 40
0.33984375
 40
0.34375
 40
0.34765625
 40
0.3515625
 40
0.359375
 40
0.3671875
 40
0.375
 40
0.390625
 40
0.40625
 40
0.421875
 40
0.4375
 40
0.453125
 40
0.4609375
 40
0.46875
 40
0.4765625
 40
0.48046875
 40
0.484375
 40
0.48828125
 40
0.4921875
 40
0.494140625
 40
0.49609375
 40
0.4970703125
 40
0.498046875
 40
0.4990234375
 40
0.4995117188
 40
0.4997558594
 40
0.5
 40
0.5002441406
 40
0.5004882812
 40
0.5009765625
 40
0.501953125
 40
0.5029296875
 40
0.50390625
 40
0.505859375
 40
0.5078125
 40
0.51171875
 40
0.515625
 40
0.51953125
 40
0.5234375
 40
0.53125
 40
0.5390625
 40
0.546875
 40
0.5625
 40
0.578125
 40
0.59375
 40
0.609375
 40
0.625
 40
0.6328125
 40
0.640625
 40
0.6484375
 40
0.65234375
 40
0.65625
 40
0.66015625
 40
0.662109375
 40
0.6640625
 40
0.6650390625
 40
0.666015625
 40
0.6665039062
 40
0.6667480469
 40
0.6669921875
 40
0.6674804688
 40
0.66796875
 40
0.669921875
 40
0.671875
 40
0.673828125
 40
0.67578125
 40
0.6796875
 40
0.6875
 40
0.6953125
 40
0.703125
 40
0.7109375
 40
0.71875
 40
0.734375
 40
0.75
 40
0.765625
 40
0.78125
 40
0.7890625
 40
0.796875
 40
0.8046875
 40
0.8125
 40
0.8203125
 40
0.82421875
 40
0.826171875
 40
0.828125
 40
0.830078125
 40
0.83203125
 40
0.8325195312
 40
0.8330078125
 40
0.8332519531
 40
0.8334960938
 40
0.833984375
 40
0.8349609375
 40
0.8359375
 40
0.837890625
 40
0.83984375
 40
0.84375
 40
0.84765625
 40
0.8515625
 40
0.859375
 40
0.8671875
 40
0.875
 40
0.890625
 40
0.90625
 40
0.921875
 40
0.9375
 40
0.96875
 40
1.0
 40
1.0
 40
1.0
 40
1.0
 10
411.5457759207
 20
248.3102952357
 30
0.0
 10
411.5668705047
 20
248.3450739317
 30
0.0
 10
411.6090596726
 20
248.4146313236
 30
0.0
 10
411.6617961324
 20
248.5015780636
 30
0.0
 10
411.7039853003
 20
248.5711354555
 30
0.0
 10
411.7356271762
 20
248.6233034996
 30
0.0
 10
411.7672690523
 20
248.675471543
 30
0.0
 10
411.7936372816
 20
248.7189449148
 30
0.0
 10
411.8147318667
 20
248.7537236071
 30
0.0
 10
411.8305528012
 20
248.7798076402
 30
0.0
 10
411.8437369271
 20
248.8015442904
 30
0.0
 10
411.8542841968
 20
248.8189337094
 30
0.0
 10
411.8621947338
 20
248.8319755038
 30
0.0
 10
411.8687865783
 20
248.8428445239
 30
0.0
 10
411.8740606588
 20
248.8515378153
 30
0.0
 10
411.8773555816
 20
248.8569755051
 30
0.0
 10
411.8799946747
 20
248.8613156198
 30
0.0
 10
411.8816369096
 20
248.8640510931
 30
0.0
 10
411.8828009004
 20
248.8659200266
 30
0.0
 10
411.8834434665
 20
248.8670598
 30
0.0
 10
411.8840010026
 20
248.8684700971
 30
0.0
 10
411.8847270368
 20
248.8701403417
 30
0.0
 10
411.8858724213
 20
248.8728644973
 30
0.0
 10
411.8873097229
 20
248.8762519677
 30
0.0
 10
411.8896062918
 20
248.8816818262
 30
0.0
 10
411.8924780712
 20
248.8884657507
 30
0.0
 10
411.8959237492
 20
248.8966079148
 30
0.0
 10
411.9005181461
 20
248.9074636261
 30
0.0
 10
411.9085582664
 20
248.9264613573
 30
0.0
 10
411.9200441913
 20
248.9536008497
 30
0.0
 10
411.9338272846
 20
248.9861682936
 30
0.0
 10
411.9476103823
 20
249.0187357233
 30
0.0
 10
411.9613934788
 20
249.0513031569
 30
0.0
 10
411.9797709412
 20
249.0947264002
 30
0.0
 10
412.0027427691
 20
249.1490054548
 30
0.0
 10
412.0303089627
 20
249.2141403202
 30
0.0
 10
412.0578751562
 20
249.2792751856
 30
0.0
 10
412.0808469842
 20
249.33355424
 30
0.0
 10
412.0992244465
 20
249.3769774839
 30
0.0
 10
412.1130075435
 20
249.4095449159
 30
0.0
 10
412.1267906392
 20
249.4421123512
 30
0.0
 10
412.14057374
 20
249.474679774
 30
0.0
 10
412.1520596414
 20
249.5018193321
 30
0.0
 10
412.1600998037
 20
249.5208169461
 30
0.0
 10
412.1646941332
 20
249.5316728453
 30
0.0
 10
412.1681400182
 20
249.5398144322
 30
0.0
 10
412.17101115
 20
249.5466001632
 30
0.0
 10
412.1733090401
 20
249.5520263361
 30
0.0
 10
412.1747429794
 20
249.5554231861
 30
0.0
 10
412.1758952654
 20
249.5581280885
 30
0.0
 10
412.1766037286
 20
249.5598473506
 30
0.0
 10
412.177197333
 20
249.5611570292
 30
0.0
 10
412.1776929747
 20
249.5627066738
 30
0.0
 10
412.1785148399
 20
249.5655300263
 30
0.0
 10
412.1797126768
 20
249.5695052252
 30
0.0
 10
412.1816159468
 20
249.575898047
 30
0.0
 10
412.1839995775
 20
249.5838779451
 30
0.0
 10
412.1878108475
 20
249.5966520021
 30
0.0
 10
412.1925758061
 20
249.6126174392
 30
0.0
 10
412.1982933836
 20
249.6317768773
 30
0.0
 10
412.2059169505
 20
249.6573224756
 30
0.0
 10
412.2154463644
 20
249.6892545829
 30
0.0
 10
412.2268816802
 20
249.7275730649
 30
0.0
 10
412.2421287613
 20
249.7786643905
 30
0.0
 10
412.261187615
 20
249.842528542
 30
0.0
 10
412.2840582384
 20
249.9191655261
 30
0.0
 10
412.306928862
 20
249.9958025096
 30
0.0
 10
412.3297994856
 20
250.0724394933
 30
0.0
 10
412.3488583386
 20
250.1363036463
 30
0.0
 10
412.3641054211
 20
250.1873949686
 30
0.0
 10
412.3755407328
 20
250.2257134607
 30
0.0
 10
412.3850701597
 20
250.2576455364
 30
0.0
 10
412.3926937
 20
250.2831911993
 30
0.0
 10
412.3984113587
 20
250.3023504399
 30
0.0
 10
412.404129004
 20
250.3215097058
 30
0.0
 10
412.4088937503
 20
250.3374756821
 30
0.0
 10
412.4127054536
 20
250.350248639
 30
0.0
 10
412.4150879815
 20
250.3582313365
 30
0.0
 10
412.4169935151
 20
250.364618412
 30
0.0
 10
412.4184240037
 20
250.3694062066
 30
0.0
 10
412.4196118199
 20
250.3734040267
 30
0.0
 10
412.4204516466
 20
250.376186818
 30
0.0
 10
412.4209185014
 20
250.3778014717
 30
0.0
 10
412.4213053937
 20
250.3789434811
 30
0.0
 10
412.4215518042
 20
250.3803491707
 30
0.0
 10
412.4219293532
 20
250.3821314488
 30
0.0
 10
412.422567233
 20
250.3852932883
 30
0.0
 10
412.4234904262
 20
250.389787798
 30
0.0
 10
412.4245931489
 20
250.3951907992
 30
0.0
 10
412.4260652303
 20
250.4023914513
 30
0.0
 10
412.4279047211
 20
250.4113934133
 30
0.0
 10
412.4308482479
 20
250.4257959116
 30
0.0
 10
412.4345275391
 20
250.4437992543
 30
0.0
 10
412.4389427389
 20
250.4654031714
 30
0.0
 10
412.4433579252
 20
250.4870071136
 30
0.0
 10
412.4492448449
 20
250.5158123611
 30
0.0
 10
412.456603493
 20
250.5518189235
 30
0.0
 10
412.4654338715
 20
250.5950267972
 30
0.0
 10
412.4772077091
 20
250.6526372958
 30
0.0
 10
412.4919250062
 20
250.7246504189
 30
0.0
 10
412.5095857628
 20
250.8110661666
 30
0.0
 10
412.5272465192
 20
250.8974819145
 30
0.0
 10
412.544907276
 20
250.9838976619
 30
0.0
 10
412.5596245724
 20
251.0559107862
 30
0.0
 10
412.5713984116
 20
251.1135212825
 30
0.0
 10
412.5802287851
 20
251.1567291631
 30
0.0
 10
412.5875874487
 20
251.1927357036
 30
0.0
 10
412.5934743368
 20
251.2215409958
 30
0.0
 10
412.5978896196
 20
251.2431448018
 30
0.0
 10
412.6015686509
 20
251.2611484921
 30
0.0
 10
412.6045127082
 20
251.2755502812
 30
0.0
 10
412.6063508487
 20
251.284554048
 30
0.0
 10
412.6078257017
 20
251.2917509956
 30
0.0
 10
412.6087375811
 20
251.296262928
 30
0.0
 10
412.6093957451
 20
251.2993935434
 30
0.0
 10
412.609740784
 20
251.301225864
 30
0.0
 10
412.6099688554
 20
251.3032216409
 30
0.0
 10
412.6102939246
 20
251.3056604919
 30
0.0
 10
412.6110411853
 20
251.311559718
 30
0.0
 10
412.6121758971
 20
251.3203892435
 30
0.0
 10
412.6136809469
 20
251.332172983
 30
0.0
 10
412.6151881097
 20
251.3439537697
 30
0.0
 10
412.617196923
 20
251.3596625152
 30
0.0
 10
412.6207126897
 20
251.38715234
 30
0.0
 10
412.625735034
 20
251.4264237692
 30
0.0
 10
412.6317619242
 20
251.4735493767
 30
0.0
 10
412.6377887938
 20
251.520675013
 30
0.0
 10
412.6438156688
 20
251.5678006416
 30
0.0
 10
412.6518515003
 20
251.6306348158
 30
0.0
 10
412.6618962904
 20
251.7091775325
 30
0.0
 10
412.6739500381
 20
251.8034287931
 30
0.0
 10
412.686003786
 20
251.8976800534
 30
0.0
 10
412.6960485757
 20
251.9762227707
 30
0.0
 10
412.7040844079
 20
252.0390569438
 30
0.0
 10
412.7101112806
 20
252.0861825756
 30
0.0
 10
412.7161381591
 20
252.1333081999
 30
0.0
 10
412.7221650161
 20
252.1804338523
 30
0.0
 10
412.7271874635
 20
252.2197051418
 30
0.0
 10
412.7307030463
 20
252.2471952158
 30
0.0
 10
412.7327121544
 20
252.2629035621
 30
0.0
 10
412.7342184117
 20
252.2746855753
 30
0.0
 10
412.7357268621
 20
252.2864647082
 30
0.0
 10
412.7368520512
 20
252.2953071334
 30
0.0
 10
412.7376117397
 20
252.3011895245
 30
0.0
 10
412.7379140472
 20
252.3036592093
 30
0.0
 10
412.7381890874
 20
252.3055913607
 30
0.0
 10
412.7383427344
 20
252.3076829472
 30
0.0
 10
412.7385552147
 20
252.3114173009
 30
0.0
 10
412.7388881856
 20
252.3167134421
 30
0.0
 10
412.7394044936
 20
252.3252088674
 30
0.0
 10
412.7400555095
 20
252.3358207534
 30
0.0
 10
412.7410939879
 20
252.3528039044
 30
0.0
 10
412.7423931656
 20
252.374031425
 30
0.0
 10
412.7439517166
 20
252.3995050568
 30
0.0
 10
412.7460299461
 20
252.433469687
 30
0.0
 10
412.7486276776
 20
252.4759255476
 30
0.0
 10
412.7517449791
 20
252.5268725492
 30
0.0
 10
412.7559013729
 20
252.5948018955
 30
0.0
 10
412.7610968679
 20
252.6797135746
 30
0.0
 10
412.7673314607
 20
252.7816075912
 30
0.0
 10
412.7735660538
 20
252.8835016073
 30
0.0
 10
412.7818788445
 20
253.0193602957
 30
0.0
 10
412.7922698329
 20
253.1891836561
 30
0.0
 10
412.8005826236
 20
253.3250423444
 30
0.0
 10
412.804739019
 20
253.3929716885
 30
0.0
  0
SPLINE
  5
2B1
100
AcDbEntity
  8
0
100
AcDbSpline
 62
2
  6
CONTINUOUS
 70
0
 71
3
 72
207
 73
203
 74
0
 42
0.0000001
 43
0.0000001
 44
0.0000000001
 40
0.0
 40
0.0
 40
0.0
 40
0.0
 40
0.03125
 40
0.046875
 40
0.0625
 40
0.078125
 40
0.09375
 40
0.1015625
 40
0.109375
 40
0.1171875
 40
0.125
 40
0.12890625
 40
0.1328125
 40
0.13671875
 40
0.138671875
 40
0.1396484375
 40
0.140625
 40
0.1416015625
 40
0.1420898438
 40
0.142578125
 40
0.1428222656
 40
0.1430664062
 40
0.1435546875
 40
0.14453125
 40
0.146484375
 40
0.1484375
 40
0.150390625
 40
0.15234375
 40
0.15625
 40
0.1640625
 40
0.171875
 40
0.1875
 40
0.203125
 40
0.21875
 40
0.234375
 40
0.2421875
 40
0.25
 40
0.2578125
 40
0.265625
 40
0.26953125
 40
0.2734375
 40
0.27734375
 40
0.279296875
 40
0.28125
 40
0.283203125
 40
0.2841796875
 40
0.28515625
 40
0.2854003906
 40
0.2856445312
 40
0.2861328125
 40
0.2866210938
 40
0.287109375
 40
0.2890625
 40
0.29296875
 40
0.296875
 40
0.30078125
 40
0.3046875
 40
0.3125
 40
0.3203125
 40
0.328125
 40
0.34375
 40
0.359375
 40
0.375
 40
0.3828125
 40
0.390625
 40
0.3984375
 40
0.40625
 40
0.4140625
 40
0.41796875
 40
0.421875
 40
0.423828125
 40
0.42578125
 40
0.4267578125
 40
0.427734375
 40
0.4282226562
 40
0.4284667969
 40
0.4285888672
 40
0.4287109375
 40
0.4289550781
 40
0.4291992188
 40
0.4296875
 40
0.4306640625
 40
0.431640625
 40
0.43359375
 40
0.435546875
 40
0.4375
 40
0.44140625
 40
0.4453125
 40
0.44921875
 40
0.453125
 40
0.4609375
 40
0.46875
 40
0.4765625
 40
0.484375
 40
0.5
 40
0.515625
 40
0.5234375
 40
0.53125
 40
0.5390625
 40
0.546875
 40
0.55078125
 40
0.5546875
 40
0.55859375
 40
0.5625
 40
0.564453125
 40
0.56640625
 40
0.568359375
 40
0.5693359375
 40
0.5703125
 40
0.5708007812
 40
0.5710449219
 40
0.5712890625
 40
0.5714111328
 40
0.5715332031
 40
0.5717773438
 40
0.572265625
 40
0.5732421875
 40
0.57421875
 40
0.5751953125
 40
0.576171875
 40
0.578125
 40
0.58203125
 40
0.5859375
 40
0.59375
 40
0.6015625
 40
0.609375
 40
0.6171875
 40
0.625
 40
0.640625
 40
0.65625
 40
0.671875
 40
0.6796875
 40
0.6875
 40
0.69140625
 40
0.6953125
 40
0.69921875
 40
0.703125
 40
0.70703125
 40
0.708984375
 40
0.7109375
 40
0.7119140625
 40
0.712890625
 40
0.7133789062
 40
0.7138671875
 40
0.7143554688
 40
0.7145996094
 40
0.71484375
 40
0.7153320312
 40
0.7158203125
 40
0.716796875
 40
0.7177734375
 40
0.71875
 40
0.720703125
 40
0.72265625
 40
0.724609375
 40
0.7265625
 40
0.73046875
 40
0.734375
 40
0.7421875
 40
0.75
 40
0.7578125
 40
0.765625
 40
0.78125
 40
0.796875
 40
0.8125
 40
0.8203125
 40
0.828125
 40
0.8359375
 40
0.83984375
 40
0.84375
 40
0.84765625
 40
0.849609375
 40
0.8515625
 40
0.853515625
 40
0.85546875
 40
0.8564453125
 40
0.8566894531
 40
0.8569335938
 40
0.8571777344
 40
0.8572998047
 40
0.857421875
 40
0.8579101562
 40
0.8583984375
 40
0.859375
 40
0.8603515625
 40
0.861328125
 40
0.86328125
 40
0.865234375
 40
0.8671875
 40
0.87109375
 40
0.875
 40
0.87890625
 40
0.8828125
 40
0.890625
 40
0.8984375
 40
0.90625
 40
0.9140625
 40
0.921875
 40
0.9375
 40
0.953125
 40
0.96875
 40
1.0
 40
1.0
 40
1.0
 40
1.0
 10
412.8047390128
 20
253.3929714825
 30
0.0
 10
412.8038599559
 20
253.4980388743
 30
0.0
 10
412.8025413707
 20
253.6556399621
 30
0.0
 10
412.8007832569
 20
253.8657747458
 30
0.0
 10
412.7994646716
 20
254.0233758336
 30
0.0
 10
412.7981460863
 20
254.1809769214
 30
0.0
 10
412.7970472654
 20
254.3123111611
 30
0.0
 10
412.7961682082
 20
254.4173785531
 30
0.0
 10
412.7955089166
 20
254.4961790967
 30
0.0
 10
412.79484962
 20
254.5749796417
 30
0.0
 10
412.7943002215
 20
254.6406467581
 30
0.0
 10
412.7938606686
 20
254.6931804612
 30
0.0
 10
412.7935310971
 20
254.7325807113
 30
0.0
 10
412.7932561578
 20
254.7654143396
 30
0.0
 10
412.7930642819
 20
254.7883977094
 30
0.0
 10
412.7929537304
 20
254.8015313292
 30
0.0
 10
412.7928733749
 20
254.8113807959
 30
0.0
 10
412.7927982631
 20
254.8195910678
 30
0.0
 10
412.7927564521
 20
254.8261539401
 30
0.0
 10
412.7926886985
 20
254.8302679069
 30
0.0
 10
412.7927298183
 20
254.8335312049
 30
0.0
 10
412.7924229447
 20
254.8368962672
 30
0.0
 10
412.7919465723
 20
254.8427673884
 30
0.0
 10
412.7909507627
 20
254.8545222242
 30
0.0
 10
412.7895506957
 20
254.8713082618
 30
0.0
 10
412.7878609625
 20
254.8914543297
 30
0.0
 10
412.7861738114
 20
254.9115996425
 30
0.0
 10
412.783923376
 20
254.938460323
 30
0.0
 10
412.7799855335
 20
254.9854663912
 30
0.0
 10
412.7743598254
 20
255.0526179811
 30
0.0
 10
412.7653588147
 20
255.1600604893
 30
0.0
 10
412.7541075094
 20
255.2943636367
 30
0.0
 10
412.740605961
 20
255.4555274084
 30
0.0
 10
412.7271044077
 20
255.6166911815
 30
0.0
 10
412.7158531145
 20
255.7509943255
 30
0.0
 10
412.7068520795
 20
255.8584368406
 30
0.0
 10
412.700101304
 20
255.9390187273
 30
0.0
 10
412.6933505256
 20
256.0196006126
 30
0.0
 10
412.6877248859
 20
256.0867521879
 30
0.0
 10
412.6832243541
 20
256.1404734387
 30
0.0
 10
412.6798490101
 20
256.1807644028
 30
0.0
 10
412.677036049
 20
256.2143401235
 30
0.0
 10
412.6747860712
 20
256.2412008855
 30
0.0
 10
412.6730975192
 20
256.2613459501
 30
0.0
 10
412.6716937919
 20
256.2781351165
 30
0.0
 10
412.670563186
 20
256.291562833
 30
0.0
 10
412.6699428445
 20
256.2991233352
 30
0.0
 10
412.6695044342
 20
256.3041518823
 30
0.0
 10
412.6692714812
 20
256.3075323868
 30
0.0
 10
412.6685478111
 20
256.3115528629
 30
0.0
 10
412.6677802942
 20
256.3164252918
 30
0.0
 10
412.6661934184
 20
256.3261455576
 30
0.0
 10
412.6627854866
 20
256.3472205063
 30
0.0
 10
412.6575220405
 20
256.379633792
 30
0.0
 10
412.6512146818
 20
256.4185338983
 30
0.0
 10
412.6449049752
 20
256.4574328908
 30
0.0
 10
412.6364928532
 20
256.5092986031
 30
0.0
 10
412.6259774193
 20
256.5741306101
 30
0.0
 10
412.613359019
 20
256.6519290755
 30
0.0
 10
412.5965344433
 20
256.7556603429
 30
0.0
 10
412.5755037381
 20
256.8853244339
 30
0.0
 10
412.5502668856
 20
257.0409213402
 30
0.0
 10
412.5292361768
 20
257.1705854295
 30
0.0
 10
412.5124116091
 20
257.2743167006
 30
0.0
 10
412.499793184
 20
257.3521151546
 30
0.0
 10
412.4871747568
 20
257.4299136062
 30
0.0
 10
412.4745563375
 20
257.5077120666
 30
0.0
 10
412.4640409633
 20
257.5725440898
 30
0.0
 10
412.4556287195
 20
257.6244097689
 30
0.0
 10
412.4503709405
 20
257.6568256804
 30
0.0
 10
412.4461650074
 20
257.6827587257
 30
0.0
 10
412.4435356374
 20
257.6989661577
 30
0.0
 10
412.4414336571
 20
257.7119337554
 30
0.0
 10
412.440116461
 20
257.7200347342
 30
0.0
 10
412.4392013549
 20
257.7257129746
 30
0.0
 10
412.4387343129
 20
257.7285417515
 30
0.0
 10
412.4384827084
 20
257.7301748475
 30
0.0
 10
412.4380777237
 20
257.7316407548
 30
0.0
 10
412.4376240031
 20
257.7335303767
 30
0.0
 10
412.4368687444
 20
257.7365218277
 30
0.0
 10
412.435560694
 20
257.7417717483
 30
0.0
 10
412.4336849275
 20
257.7492638705
 30
0.0
 10
412.4306876822
 20
257.7612556055
 30
0.0
 10
412.4269397596
 20
257.7762437853
 30
0.0
 10
412.4224428372
 20
257.7942302384
 30
0.0
 10
412.4164467364
 20
257.8182119533
 30
0.0
 10
412.4089516804
 20
257.8481891733
 30
0.0
 10
412.3999575833
 20
257.8841618045
 30
0.0
 10
412.3909634942
 20
257.9201344446
 30
0.0
 10
412.3789713726
 20
257.9680979615
 30
0.0
 10
412.3639812215
 20
258.0280523587
 30
0.0
 10
412.3459930398
 20
258.099997635
 30
0.0
 10
412.3280048582
 20
258.1719429113
 30
0.0
 10
412.3040206161
 20
258.2678699464
 30
0.0
 10
412.2740403134
 20
258.3877787403
 30
0.0
 10
412.2440600108
 20
258.5076875341
 30
0.0
 10
412.2200757686
 20
258.6036145692
 30
0.0
 10
412.202087587
 20
258.6755598455
 30
0.0
 10
412.1840994055
 20
258.747505122
 30
0.0
 10
412.1691092539
 20
258.8074595185
 30
0.0
 10
412.1571171333
 20
258.8554230369
 30
0.0
 10
412.1481230411
 20
258.8913956723
 30
0.0
 10
412.1391289558
 20
258.9273683208
 30
0.0
 10
412.131633863
 20
258.9573454873
 30
0.0
 10
412.1256378374
 20
258.9813273112
 30
0.0
 10
412.1211406853
 20
258.9993134313
 30
0.0
 10
412.1173934813
 20
259.0143026533
 30
0.0
 10
412.1143947699
 20
259.0262922621
 30
0.0
 10
412.1125227345
 20
259.0337897952
 30
0.0
 10
412.1112079827
 20
259.0390299973
 30
0.0
 10
412.110463466
 20
259.0420370264
 30
0.0
 10
412.109982248
 20
259.0438867715
 30
0.0
 10
412.1096337293
 20
259.045434566
 30
0.0
 10
412.109152104
 20
259.0467340854
 30
0.0
 10
412.1083324604
 20
259.0490515191
 30
0.0
 10
412.1066767013
 20
259.0536556624
 30
0.0
 10
412.1043199441
 20
259.0602490751
 30
0.0
 10
412.1014881434
 20
259.0681542837
 30
0.0
 10
412.0986573303
 20
259.0760613345
 30
0.0
 10
412.0948825683
 20
259.0866034264
 30
0.0
 10
412.0882768953
 20
259.1050523864
 30
0.0
 10
412.0788401359
 20
259.1314078874
 30
0.0
 10
412.0637413676
 20
259.1735767764
 30
0.0
 10
412.0448678912
 20
259.2262878576
 30
0.0
 10
412.0222197264
 20
259.2895411679
 30
0.0
 10
411.9995715598
 20
259.3527944748
 30
0.0
 10
411.9769233937
 20
259.4160477826
 30
0.0
 10
411.9467258386
 20
259.500385526
 30
0.0
 10
411.9089788949
 20
259.6058077053
 30
0.0
 10
411.8636825624
 20
259.7323143205
 30
0.0
 10
411.8259356187
 20
259.8377364999
 30
0.0
 10
411.7957380636
 20
259.9220742431
 30
0.0
 10
411.776864592
 20
259.9747853336
 30
0.0
 10
411.7617658139
 20
260.0169542035
 30
0.0
 10
411.7504417326
 20
260.0485808628
 30
0.0
 10
411.7391176426
 20
260.0802074961
 30
0.0
 10
411.7277935853
 20
260.1118342266
 30
0.0
 10
411.718356769
 20
260.1381895328
 30
0.0
 10
411.7108075441
 20
260.1592744553
 30
0.0
 10
411.7060887592
 20
260.1724509893
 30
0.0
 10
411.7023149206
 20
260.1829957492
 30
0.0
 10
411.6999535579
 20
260.1895781636
 30
0.0
 10
411.698070683
 20
260.1948625573
 30
0.0
 10
411.6966415092
 20
260.1987753023
 30
0.0
 10
411.6955046668
 20
260.2021967316
 30
0.0
 10
411.6943728917
 20
260.2042735368
 30
0.0
 10
411.6932799393
 20
260.2064656632
 30
0.0
 10
411.6919004558
 20
260.2091663351
 30
0.0
 10
411.6897007117
 20
260.2135094789
 30
0.0
 10
411.6869484825
 20
260.218930837
 30
0.0
 10
411.6836468985
 20
260.2254397077
 30
0.0
 10
411.6792444055
 20
260.2341170698
 30
0.0
 10
411.6737414199
 20
260.2449641609
 30
0.0
 10
411.6671377812
 20
260.2579805037
 30
0.0
 10
411.6605341575
 20
260.2709968911
 30
0.0
 10
411.6517293207
 20
260.2883520587
 30
0.0
 10
411.6407232764
 20
260.3100460235
 30
0.0
 10
411.6231136046
 20
260.3447563642
 30
0.0
 10
411.6011015151
 20
260.3881442911
 30
0.0
 10
411.5746870076
 20
260.4402098029
 30
0.0
 10
411.5482725002
 20
260.4922753149
 30
0.0
 10
411.5130531569
 20
260.5616959975
 30
0.0
 10
411.4690289778
 20
260.6484718507
 30
0.0
 10
411.4161999629
 20
260.7526028746
 30
0.0
 10
411.3721757838
 20
260.839378728
 30
0.0
 10
411.3369564404
 20
260.9087994102
 30
0.0
 10
411.3105419333
 20
260.9608649235
 30
0.0
 10
411.2885298427
 20
261.0042528457
 30
0.0
 10
411.2709201733
 20
261.038963196
 30
0.0
 10
411.2577129126
 20
261.0649959246
 30
0.0
 10
411.2467068898
 20
261.0866899736
 30
0.0
 10
411.2379020092
 20
261.1040449694
 30
0.0
 10
411.231298519
 20
261.1170618816
 30
0.0
 10
411.224694379
 20
261.1300762539
 30
0.0
 10
411.2191929531
 20
261.1409294759
 30
0.0
 10
411.2156133433
 20
261.1479696741
 30
0.0
 10
411.2139650857
 20
261.1512341238
 30
0.0
 10
411.2131337836
 20
261.1528383085
 30
0.0
 10
411.212464298
 20
261.154266075
 30
0.0
 10
411.2118329622
 20
261.1550340199
 30
0.0
 10
411.210910583
 20
261.1562821924
 30
0.0
 10
411.2095166991
 20
261.15811413
 30
0.0
 10
411.2070463701
 20
261.1614009554
 30
0.0
 10
411.2039558216
 20
261.165499178
 30
0.0
 10
411.2002482921
 20
261.1704214578
 30
0.0
 10
411.1953045253
 20
261.1769829562
 30
0.0
 10
411.189124952
 20
261.1851853579
 30
0.0
 10
411.1817094061
 20
261.1950280137
 30
0.0
 10
411.1718220318
 20
261.2081516338
 30
0.0
 10
411.159462807
 20
261.2245561317
 30
0.0
 10
411.1446317402
 20
261.2442415409
 30
0.0
 10
411.1298006726
 20
261.263926947
 30
0.0
 10
411.1100259162
 20
261.2901741562
 30
0.0
 10
411.0853074705
 20
261.3229831673
 30
0.0
 10
411.0556453356
 20
261.3623539808
 30
0.0
 10
411.0259832008
 20
261.4017247943
 30
0.0
 10
410.996321066
 20
261.4410956077
 30
0.0
 10
410.9567715529
 20
261.4935900257
 30
0.0
 10
410.9073346616
 20
261.5592080481
 30
0.0
 10
410.848010392
 20
261.6379496751
 30
0.0
 10
410.7689113658
 20
261.742938511
 30
0.0
 10
410.7095870962
 20
261.8216801379
 30
0.0
 10
410.6700375831
 20
261.8741745559
 30
0.0
  0
SPLINE
  5
2B2
100
AcDbEntity
  8
0
100
AcDbSpline
 62
2
  6
CONTINUOUS
 70
0
 71
3
 72
86
 73
82
 74
0
 42
0.0000001
 43
0.0000001
 44
0.0000000001
 40
0.0
 40
0.0
 40
0.0
 40
0.0
 40
0.0625
 40
0.09375
 40
0.109375
 40
0.125
 40
0.140625
 40
0.15625
 40
0.16015625
 40
0.1640625
 40
0.166015625
 40
0.16796875
 40
0.171875
 40
0.1796875
 40
0.1875
 40
0.203125
 40
0.21875
 40
0.25
 40
0.28125
 40
0.296875
 40
0.3125
 40
0.3203125
 40
0.328125
 40
0.33203125
 40
0.333984375
 40
0.3359375
 40
0.33984375
 40
0.34375
 40
0.359375
 40
0.375
 40
0.390625
 40
0.40625
 40
0.421875
 40
0.4375
 40
0.453125
 40
0.46875
 40
0.4765625
 40
0.484375
 40
0.4921875
 40
0.49609375
 40
0.498046875
 40
0.5
 40
0.501953125
 40
0.50390625
 40
0.5078125
 40
0.515625
 40
0.5234375
 40
0.53125
 40
0.546875
 40
0.5625
 40
0.59375
 40
0.609375
 40
0.625
 40
0.640625
 40
0.65625
 40
0.66015625
 40
0.6640625
 40
0.666015625
 40
0.66796875
 40
0.671875
 40
0.6796875
 40
0.6875
 40
0.703125
 40
0.71875
 40
0.75
 40
0.78125
 40
0.796875
 40
0.8125
 40
0.8203125
 40
0.828125
 40
0.83203125
 40
0.833984375
 40
0.8359375
 40
0.83984375
 40
0.84375
 40
0.859375
 40
0.875
 40
0.890625
 40
0.90625
 40
0.9375
 40
1.0
 40
1.0
 40
1.0
 40
1.0
 10
410.1678577805
 20
262.2766757931
 30
0.0
 10
410.1541393959
 20
262.2838021143
 30
0.0
 10
410.1335618727
 20
262.2944916337
 30
0.0
 10
410.1095545745
 20
262.306962608
 30
0.0
 10
410.0958363866
 20
262.3140890672
 30
0.0
 10
410.0855469947
 20
262.3194333849
 30
0.0
 10
410.0752604726
 20
262.3247797151
 30
0.0
 10
410.067537535
 20
262.3287838202
 30
0.0
 10
410.0624014231
 20
262.331461999
 30
0.0
 10
410.0602427562
 20
262.3325648486
 30
0.0
 10
410.0585592601
 20
262.3334775905
 30
0.0
 10
410.0567169107
 20
262.33427893
 30
0.0
 10
410.0534189924
 20
262.3356295141
 30
0.0
 10
410.0487461893
 20
262.3375859259
 30
0.0
 10
410.0412481838
 20
262.3407010919
 30
0.0
 10
410.0318830456
 20
262.3446002213
 30
0.0
 10
410.0168947058
 20
262.3508359146
 30
0.0
 10
409.9981606971
 20
262.358631697
 30
0.0
 10
409.9794261722
 20
262.3664264582
 30
0.0
 10
409.9644386584
 20
262.3726637854
 30
0.0
 10
409.9550714551
 20
262.3765588298
 30
0.0
 10
409.9475776831
 20
262.3796823701
 30
0.0
 10
409.9428941027
 20
262.3816174634
 30
0.0
 10
409.9396155415
 20
262.3830063377
 30
0.0
 10
409.937742164
 20
262.3837463005
 30
0.0
 10
409.9358691106
 20
262.3842840794
 30
0.0
 10
409.933527683
 20
262.3850254102
 30
0.0
 10
409.927908348
 20
262.3867477258
 30
0.0
 10
409.9194793073
 20
262.3893550891
 30
0.0
 10
409.908240608
 20
262.3928179176
 30
0.0
 10
409.8970019035
 20
262.3962844045
 30
0.0
 10
409.8857631985
 20
262.3997499137
 30
0.0
 10
409.8745245005
 20
262.4032156751
 30
0.0
 10
409.8632857749
 20
262.4066814055
 30
0.0
 10
409.8520471525
 20
262.410147008
 30
0.0
 10
409.842681313
 20
262.4130354621
 30
0.0
 10
409.8351893599
 20
262.4153452044
 30
0.0
 10
409.829568432
 20
262.4170803028
 30
0.0
 10
409.8248905696
 20
262.418517338
 30
0.0
 10
409.8216038119
 20
262.4195406897
 30
0.0
 10
409.8197447983
 20
262.4200982511
 30
0.0
 10
409.8182966384
 20
262.4205930759
 30
0.0
 10
409.8170545104
 20
262.4207948912
 30
0.0
 10
409.8153264735
 20
262.4211661833
 30
0.0
 10
409.8123358928
 20
262.4217683253
 30
0.0
 10
409.8080461288
 20
262.4226534239
 30
0.0
 10
409.802905905
 20
262.423704886
 30
0.0
 10
409.7960496565
 20
262.4251105579
 30
0.0
 10
409.7874802394
 20
262.4268663702
 30
0.0
 10
409.7737686874
 20
262.4296764018
 30
0.0
 10
409.7600571838
 20
262.4324861295
 30
0.0
 10
409.7463458982
 20
262.4352962198
 30
0.0
 10
409.7360617316
 20
262.4374030037
 30
0.0
 10
409.7257802659
 20
262.4395127419
 30
0.0
 10
409.7180615905
 20
262.4410867703
 30
0.0
 10
409.7129275898
 20
262.4421489914
 30
0.0
 10
409.7107708892
 20
262.4425724342
 30
0.0
 10
409.709086431
 20
262.4429558599
 30
0.0
 10
409.7072523908
 20
262.4431759193
 30
0.0
 10
409.7039733211
 20
262.4434851193
 30
0.0
 10
409.6993251969
 20
262.4439664365
 30
0.0
 10
409.6918679339
 20
262.4447144116
 30
0.0
 10
409.6825532938
 20
262.4456569626
 30
0.0
 10
409.6676459907
 20
262.4471607829
 30
0.0
 10
409.6490131988
 20
262.4490421898
 30
0.0
 10
409.6303799078
 20
262.450922397
 30
0.0
 10
409.6154734033
 20
262.4524281368
 30
0.0
 10
409.6061567666
 20
262.4533658891
 30
0.0
 10
409.5987035966
 20
262.4541237016
 30
0.0
 10
409.5940450528
 20
262.4545799751
 30
0.0
 10
409.5907846979
 20
262.4549341564
 30
0.0
 10
409.588920659
 20
262.4550821137
 30
0.0
 10
409.5870529324
 20
262.4550250535
 30
0.0
 10
409.5847195346
 20
262.4550238041
 30
0.0
 10
409.5791183426
 20
262.4549631299
 30
0.0
 10
409.5707169903
 20
262.454896343
 30
0.0
 10
409.5595149382
 20
262.4547934482
 30
0.0
 10
409.5483129527
 20
262.4546942571
 30
0.0
 10
409.5333769487
 20
262.45456071
 30
0.0
 10
409.5072389528
 20
262.4543276084
 30
0.0
 10
409.4848349525
 20
262.4541275993
 30
0.0
 10
409.4698989531
 20
262.4539943061
 30
0.0
  0
SPLINE
  5
2B3
100
AcDbEntity
  8
0
100
AcDbSpline
 62
7
  6
CONTINUOUS
 70
0
 71
3
 72
11
 73
7
 74
0
 42
0.0000001
 43
0.0000001
 44
0.0000000001
 40
0.0
 40
0.0
 40
0.0
 40
0.0
 40
0.2668408493
 40
0.5195991729
 40
0.7623895353
 40
1.0
 40
1.0
 40
1.0
 40
1.0
 10
409.334631614
 20
263.1290072665
 30
0.0
 10
409.2711428605
 20
263.1651361224
 30
0.0
 10
409.1432608992
 20
263.228424543
 30
0.0
 10
408.9448041959
 20
263.2952193795
 30
0.0
 10
408.7464425156
 20
263.3304724807
 30
0.0
 10
408.6142782262
 20
263.3326925144
 30
0.0
 10
408.5493665863
 20
263.3285015537
 30
0.0
  0
SPLINE
  5
2B4
100
AcDbEntity
  8
0
100
AcDbSpline
 62
7
  6
CONTINUOUS
 70
0
 71
3
 72
10
 73
6
 74
0
 42
0.0000001
 43
0.0000001
 44
0.0000000001
 40
0.0
 40
0.0
 40
0.0
 40
0.0
 40
0.2690824185
 40
0.5250139354
 40
1.0
 40
1.0
 40
1.0
 40
1.0
 10
409.8996175083
 20
262.6761664454
 30
0.0
 10
409.8544977361
 20
262.7231352569
 30
0.0
 10
409.7638028366
 20
262.8123080842
 30
0.0
 10
409.5805637592
 20
262.9705477425
 30
0.0
 10
409.4345529052
 20
263.0721461417
 30
0.0
 10
409.334631614
 20
263.1290072665
 30
0.0
  0
SPLINE
  5
2B5
100
AcDbEntity
  8
0
100
AcDbSpline
 62
7
  6
CONTINUOUS
 70
0
 71
3
 72
35
 73
31
 74
0
 42
0.0000001
 43
0.0000001
 44
0.0000000001
 40
0.0
 40
0.0
 40
0.0
 40
0.0
 40
0.0209903994
 40
0.04364086
 40
0.0679628853
 40
0.0939347008
 40
0.1215075188
 40
0.1506103313
 40
0.181153622
 40
0.2130323069
 40
0.2461281329
 40
0.280311698
 40
0.3154442071
 40
0.351379045
 40
0.4250313259
 40
0.4999999375
 40
0.5749685516
 40
0.6486208395
 40
0.6845556826
 40
0.7196881981
 40
0.7538717704
 40
0.7869676047
 40
0.8188462988
 40
0.8493895995
 40
0.8784924227
 40
0.9060652519
 40
0.9320370791
 40
0.9563591163
 40
0.9790095889
 40
1.0
 40
1.0
 40
1.0
 40
1.0
 10
411.7358182146
 20
248.5674839405
 30
0.0
 10
411.7928256138
 20
248.6446333754
 30
0.0
 10
411.9035468785
 20
248.8108818292
 30
0.0
 10
412.0545391306
 20
249.0826005482
 30
0.0
 10
412.1959973264
 20
249.3847182316
 30
0.0
 10
412.3272081144
 20
249.7156987588
 30
0.0
 10
412.4475236344
 20
250.0738917459
 30
0.0
 10
412.5563320343
 20
250.4574853782
 30
0.0
 10
412.6530773198
 20
250.8645334676
 30
0.0
 10
412.7372614266
 20
251.2929620406
 30
0.0
 10
412.808449764
 20
251.7405831847
 30
0.0
 10
412.8662728301
 20
252.2051053743
 30
0.0
 10
412.9104336961
 20
252.6841526306
 30
0.0
 10
412.9511090095
 20
253.344355131
 30
0.0
 10
412.965926105
 20
254.1881424589
 30
0.0
 10
412.9276659152
 20
255.2097240642
 30
0.0
 10
412.8342414482
 20
256.2277440803
 30
0.0
 10
412.7110432465
 20
257.0626206682
 30
0.0
 10
412.5858090128
 20
257.7121114854
 30
0.0
 10
412.4804132397
 20
258.1815028676
 30
0.0
 10
412.3633364986
 20
258.6347329439
 30
0.0
 10
412.2351787844
 20
259.0694836436
 30
0.0
 10
412.0966012027
 20
259.4835299809
 30
0.0
 10
411.9483160839
 20
259.8747580919
 30
0.0
 10
411.7910840528
 20
260.2411752682
 30
0.0
 10
411.6257067522
 20
260.5809229758
 30
0.0
 10
411.4530239367
 20
260.8922831182
 30
0.0
 10
411.2738903217
 20
261.17370233
 30
0.0
 10
411.0892108419
 20
261.4237489481
 30
0.0
 10
410.958030672
 20
261.5743794695
 30
0.0
 10
410.8915757578
 20
261.6435577432
 30
0.0
  0
SPLINE
  5
2B6
100
AcDbEntity
  8
0
100
AcDbSpline
 62
7
  6
CONTINUOUS
 70
0
 71
3
 72
16
 73
12
 74
0
 42
0.0000001
 43
0.0000001
 44
0.0000000001
 40
0.0
 40
0.0
 40
0.0
 40
0.0
 40
0.1088404863
 40
0.2194604373
 40
0.333537011
 40
0.452564951
 40
0.5143632169
 40
0.577853482
 40
0.7103410148
 40
0.8508624976
 40
1.0
 40
1.0
 40
1.0
 40
1.0
 10
409.6297264546
 20
246.5953414651
 30
0.0
 10
409.6857659384
 20
246.5989596031
 30
0.0
 10
409.7984013911
 20
246.6142046034
 30
0.0
 10
409.9646226676
 20
246.6606428603
 30
0.0
 10
410.1281549349
 20
246.7304751679
 30
0.0
 10
410.2601161741
 20
246.806945749
 30
0.0
 10
410.3636941172
 20
246.8788707502
 30
0.0
 10
410.4688634359
 20
246.9603746188
 30
0.0
 10
410.597916346
 20
247.0769349568
 30
0.0
 10
410.7462444392
 20
247.2367428952
 30
0.0
 10
410.8391535167
 20
247.3540066201
 30
0.0
 10
410.8848819735
 20
247.4158920551
 30
0.0
  0
SPLINE
  5
2B7
100
AcDbEntity
  8
0
100
AcDbSpline
 62
7
  6
CONTINUOUS
 70
0
 71
3
 72
37
 73
33
 74
0
 42
0.0000001
 43
0.0000001
 44
0.0000000001
 40
0.0
 40
0.0
 40
0.0
 40
0.0
 40
0.0209900919
 40
0.0436402208
 40
0.06796189
 40
0.0939333253
 40
0.1215057395
 40
0.1506081258
 40
0.181150969
 40
0.2130291865
 40
0.2461245271
 40
0.2803075906
 40
0.3154395839
 40
0.3513738939
 40
0.3879575322
 40
0.4250324926
 40
0.5
 40
0.5749675074
 40
0.6120424678
 40
0.6486261061
 40
0.684560416
 40
0.7196924094
 40
0.7538754729
 40
0.7869708135
 40
0.8188490311
 40
0.8493918743
 40
0.8784942605
 40
0.9060666748
 40
0.93203811
 40
0.9563597792
 40
0.9790099082
 40
1.0
 40
1.0
 40
1.0
 40
1.0
 10
410.8848819735
 20
247.4158920551
 30
0.0
 10
410.951411746
 20
247.5059284176
 30
0.0
 10
411.0806277096
 20
247.6999466901
 30
0.0
 10
411.2568413794
 20
248.0170528374
 30
0.0
 10
411.4219284638
 20
248.369635718
 30
0.0
 10
411.5750564233
 20
248.7559026427
 30
0.0
 10
411.7154691889
 20
249.1739275415
 30
0.0
 10
411.8424527068
 20
249.6215959633
 30
0.0
 10
411.9553580969
 20
250.0966366127
 30
0.0
 10
412.0536041566
 20
250.5966291559
 30
0.0
 10
412.1366834741
 20
251.119019927
 30
0.0
 10
412.2041657219
 20
251.661135758
 30
0.0
 10
412.2557008833
 20
252.2201993848
 30
0.0
 10
412.2910202472
 20
252.7933425227
 30
0.0
 10
412.3099423268
 20
253.3776287743
 30
0.0
 10
412.3131740417
 20
254.170401381
 30
0.0
 10
412.2758056421
 20
255.167639167
 30
0.0
 10
412.1846270144
 20
256.161402749
 30
0.0
 10
412.0794779334
 20
256.9471778571
 30
0.0
 10
411.9855784283
 20
257.5241798949
 30
0.0
 10
411.8768506909
 20
258.0880227746
 30
0.0
 10
411.7538522986
 20
258.6358178158
 30
0.0
 10
411.6172185698
 20
259.1647551015
 30
0.0
 10
411.467653749
 20
259.6721254348
 30
0.0
 10
411.3059283391
 20
260.1553331785
 30
0.0
 10
411.1328739199
 20
260.6119111169
 30
0.0
 10
410.9493781042
 20
261.039533749
 30
0.0
 10
410.7563764552
 20
261.4360320775
 30
0.0
 10
410.5548489995
 20
261.7994010273
 30
0.0
 10
410.3457932072
 20
262.1278277453
 30
0.0
 10
410.1302652273
 20
262.4196414794
 30
0.0
 10
409.9771728805
 20
262.5954328008
 30
0.0
 10
409.8996175083
 20
262.6761664454
 30
0.0
  0
SPLINE
  5
2B8
100
AcDbEntity
  8
0
100
AcDbSpline
 62
7
  6
CONTINUOUS
 70
0
 71
3
 72
9
 73
5
 74
0
 42
0.0000001
 43
0.0000001
 44
0.0000000001
 40
0.0
 40
0.0
 40
0.0
 40
0.0
 40
0.4876393647
 40
1.0
 40
1.0
 40
1.0
 40
1.0
 10
377.0028458763
 20
280.9485740014
 30
0.0
 10
377.4202554264
 20
280.9755236346
 30
0.0
 10
378.2883064294
 20
280.9046787485
 30
0.0
 10
379.1021066879
 20
280.6042112014
 30
0.0
 10
379.4956809761
 20
280.4086476066
 30
0.0
  0
SPLINE
  5
2B9
100
AcDbEntity
  8
0
100
AcDbSpline
 62
7
  6
CONTINUOUS
 70
0
 71
3
 72
10
 73
6
 74
0
 42
0.0000001
 43
0.0000001
 44
0.0000000001
 40
0.0
 40
0.0
 40
0.0
 40
0.0
 40
0.2406967831
 40
0.4852363875
 40
1.0
 40
1.0
 40
1.0
 40
1.0
 10
376.9179100768
 20
224.8264932797
 30
0.0
 10
376.6831037357
 20
224.8113332414
 30
0.0
 10
376.2063076568
 20
224.8192954641
 30
0.0
 10
375.2406996235
 20
224.990237939
 30
0.0
 10
374.5465791126
 20
225.2858614911
 30
0.0
 10
374.1092233614
 20
225.534742782
 30
0.0
  0
SPLINE
  5
2BA
100
AcDbEntity
  8
0
100
AcDbSpline
 62
7
  6
CONTINUOUS
 70
0
 71
3
 72
11
 73
7
 74
0
 42
0.0000001
 43
0.0000001
 44
0.0000000001
 40
0.0
 40
0.0
 40
0.0
 40
0.0
 40
0.206279092
 40
0.440369645
 40
0.7049120385
 40
1.0
 40
1.0
 40
1.0
 40
1.0
 10
373.8396925552
 20
225.696518155
 30
0.0
 10
373.3405926906
 20
226.011675849
 30
0.0
 10
372.3572207844
 20
226.8164976393
 30
0.0
 10
371.0382016003
 20
228.3513456735
 30
0.0
 10
369.7943709844
 20
230.2579782201
 30
0.0
 10
369.0619181521
 20
231.6849930183
 30
0.0
 10
368.7067131803
 20
232.4510542335
 30
0.0
  0
SPLINE
  5
2BB
100
AcDbEntity
  8
0
100
AcDbSpline
 62
7
  6
CONTINUOUS
 70
0
 71
3
 72
15
 73
11
 74
0
 42
0.0000001
 43
0.0000001
 44
0.0000000001
 40
0.0
 40
0.0
 40
0.0
 40
0.0
 40
0.1660899167
 40
0.3192460951
 40
0.4592723927
 40
0.5864951986
 40
0.7019182338
 40
0.807416236
 40
0.9055666283
 40
1.0
 40
1.0
 40
1.0
 40
1.0
 10
366.1458112892
 20
272.0883252311
 30
0.0
 10
366.3426746962
 20
272.7134891313
 30
0.0
 10
366.7588499114
 20
273.9038495784
 30
0.0
 10
367.4860005529
 20
275.5661488656
 30
0.0
 10
368.2872369882
 20
277.0219915896
 30
0.0
 10
369.1591383946
 20
278.2595619217
 30
0.0
 10
370.099962969
 20
279.2679666016
 30
0.0
 10
371.1094511042
 20
280.0332612193
 30
0.0
 10
372.1827802688
 20
280.5377799527
 30
0.0
 10
372.9379573866
 20
280.6861285117
 30
0.0
 10
373.3098379977
 20
280.7101386142
 30
0.0
  0
SPLINE
  5
2BC
100
AcDbEntity
  8
0
100
AcDbSpline
 62
7
  6
CONTINUOUS
 70
0
 71
3
 72
32
 73
28
 74
0
 42
0.0000001
 43
0.0000001
 44
0.0000000001
 40
0.0
 40
0.0
 40
0.0
 40
0.0
 40
0.0198494844
 40
0.0415494979
 40
0.0653013075
 40
0.091234919
 40
0.1193736127
 40
0.1496686106
 40
0.1820170532
 40
0.2162694442
 40
0.2897027713
 40
0.3681994385
 40
0.4496732887
 40
0.5318795328
 40
0.6125359042
 40
0.6894401688
 40
0.760594479
 40
0.7934946385
 40
0.8243790438
 40
0.8531305532
 40
0.8796849858
 40
0.9040440136
 40
0.9262962418
 40
0.946637632
 40
0.9653930187
 40
0.9829845939
 40
1.0
 40
1.0
 40
1.0
 40
1.0
 10
379.8115325917
 20
280.2403244991
 30
0.0
 10
380.1632857473
 20
280.0401561482
 30
0.0
 10
380.8618776507
 20
279.5532648947
 30
0.0
 10
381.8362250002
 20
278.640917857
 30
0.0
 10
382.7765861624
 20
277.5262675265
 30
0.0
 10
383.6792900637
 20
276.2188394478
 30
0.0
 10
384.5402282719
 20
274.7277594382
 30
0.0
 10
385.3540905722
 20
273.0639061126
 30
0.0
 10
386.1154783159
 20
271.2397365754
 30
0.0
 10
387.0755297092
 20
268.5496302939
 30
0.0
 10
388.092909932
 20
264.8868318252
 30
0.0
 10
389.0018536045
 20
260.2112614601
 30
0.0
 10
389.5961170678
 20
255.3052243906
 30
0.0
 10
389.8565198696
 20
250.3263363764
 30
0.0
 10
389.7748088514
 20
245.4341270811
 30
0.0
 10
389.3537463488
 20
240.7854434295
 30
0.0
 10
388.7162680563
 20
237.1453031497
 30
0.0
 10
388.0326901434
 20
234.4789815141
 30
0.0
 10
387.4595030596
 20
232.6801411842
 30
0.0
 10
386.816474224
 20
231.043069442
 30
0.0
 10
386.107288228
 20
229.5796391757
 30
0.0
 10
385.3352361004
 20
228.3002446248
 30
0.0
 10
384.5029636729
 20
227.2138934518
 30
0.0
 10
383.6113983306
 20
226.3298850213
 30
0.0
 10
382.6615731744
 20
225.6598300205
 30
0.0
 10
381.6583719881
 20
225.2183757879
 30
0.0
 10
380.9571311572
 20
225.0872815786
 30
0.0
 10
380.6109179554
 20
225.0649286669
 30
0.0
  0
SPLINE
  5
2BD
100
AcDbEntity
  8
0
100
AcDbSpline
 62
7
  6
CONTINUOUS
 70
0
 71
3
 72
11
 73
7
 74
0
 42
0.0000001
 43
0.0000001
 44
0.0000000001
 40
0.0
 40
0.0
 40
0.0
 40
0.0
 40
0.2007163157
 40
0.433084383
 40
0.6995985604
 40
1.0
 40
1.0
 40
1.0
 40
1.0
 10
373.9377568631
 20
225.8585507842
 30
0.0
 10
373.4437668292
 20
226.1396603318
 30
0.0
 10
372.4595507585
 20
226.8915199575
 30
0.0
 10
371.1335640868
 20
228.3732998317
 30
0.0
 10
369.8713989
 20
230.2590701575
 30
0.0
 10
369.1276952812
 20
231.6849756073
 30
0.0
 10
368.7659306222
 20
232.4548716439
 30
0.0
  0
SPLINE
  5
2BE
100
AcDbEntity
  8
0
100
AcDbSpline
 62
7
  6
CONTINUOUS
 70
0
 71
3
 72
17
 73
13
 74
0
 42
0.0000001
 43
0.0000001
 44
0.0000000001
 40
0.0
 40
0.0
 40
0.0
 40
0.0
 40
0.1780838059
 40
0.3367801612
 40
0.4758797319
 40
0.596619184
 40
0.7023381581
 40
0.7514999289
 40
0.7994029831
 40
0.8471552482
 40
0.8958848203
 40
1.0
 40
1.0
 40
1.0
 40
1.0
 10
366.2060420723
 20
272.0953962861
 30
0.0
 10
366.4579054592
 20
272.8809808536
 30
0.0
 10
366.9946777504
 20
274.3487049839
 30
0.0
 10
367.9662194387
 20
276.3329863509
 30
0.0
 10
369.048091104
 20
277.9511569283
 30
0.0
 10
370.2289769988
 20
279.1801183137
 30
0.0
 10
371.3209875282
 20
279.8753939553
 30
0.0
 10
372.2120729236
 20
280.184372423
 30
0.0
 10
372.8762062767
 20
280.2990981237
 30
0.0
 10
373.5483082435
 20
280.3007473645
 30
0.0
 10
374.4687001382
 20
280.1499561538
 30
0.0
 10
375.1321977825
 20
279.8689389908
 30
0.0
 10
375.5513896357
 20
279.6303940322
 30
0.0
  0
SPLINE
  5
2BF
100
AcDbEntity
  8
0
100
AcDbSpline
 62
7
  6
CONTINUOUS
 70
0
 71
3
 72
32
 73
28
 74
0
 42
0.0000001
 43
0.0000001
 44
0.0000000001
 40
0.0
 40
0.0
 40
0.0
 40
0.0
 40
0.019209275
 40
0.0404728244
 40
0.063974685
 40
0.0898005123
 40
0.1179432138
 40
0.1483303829
 40
0.18083978
 40
0.2153071865
 40
0.2892882675
 40
0.3684370065
 40
0.4506205692
 40
0.5335571882
 40
0.6149295654
 40
0.6924948517
 40
0.7642008395
 40
0.7973112807
 40
0.8283447832
 40
0.8571648822
 40
0.8836838157
 40
0.9078737722
 40
0.9297863622
 40
0.9495790576
 40
0.9675449187
 40
0.9841429583
 40
1.0
 40
1.0
 40
1.0
 40
1.0
 10
375.9323834146
 20
280.043888609
 30
0.0
 10
376.2719484879
 20
279.8506559979
 30
0.0
 10
376.9503202201
 20
279.3768806428
 30
0.0
 10
377.9014117209
 20
278.4841218595
 30
0.0
 10
378.8279094816
 20
277.383683305
 30
0.0
 10
379.7230669099
 20
276.0845829738
 30
0.0
 10
380.580571392
 20
274.5967252771
 30
0.0
 10
381.3936664984
 20
272.931782978
 30
0.0
 10
382.1559183863
 20
271.1029600572
 30
0.0
 10
383.1188708271
 20
268.4014484262
 30
0.0
 10
384.1406001326
 20
264.7197456353
 30
0.0
 10
385.0545566617
 20
260.017586072
 30
0.0
 10
385.6531460672
 20
255.0815206913
 30
0.0
 10
385.9167631503
 20
250.0712379894
 30
0.0
 10
385.8370212074
 20
245.1482321888
 30
0.0
 10
385.4168815277
 20
240.471678008
 30
0.0
 10
384.779864993
 20
236.8113649154
 30
0.0
 10
384.0969822753
 20
234.1327775163
 30
0.0
 10
383.5255028729
 20
232.3291718579
 30
0.0
 10
382.8858061987
 20
230.6915014468
 30
0.0
 10
382.1828893065
 20
229.2326132172
 30
0.0
 10
381.4219594052
 20
227.9638025804
 30
0.0
 10
380.6080914259
 20
226.8948112805
 30
0.0
 10
379.7461654343
 20
226.0340383454
 30
0.0
 10
378.8401419669
 20
225.3895941718
 30
0.0
 10
377.8956802767
 20
224.9708020994
 30
0.0
 10
377.2397554237
 20
224.847267224
 30
0.0
 10
376.9179102217
 20
224.8264910355
 30
0.0
  0
SPLINE
  5
2C0
100
AcDbEntity
  8
0
100
AcDbSpline
 62
7
  6
CONTINUOUS
 70
0
 71
3
 72
32
 73
28
 74
0
 42
0.0000001
 43
0.0000001
 44
0.0000000001
 40
0.0
 40
0.0
 40
0.0
 40
0.0
 40
0.019471395
 40
0.0410177113
 40
0.0648054081
 40
0.0909050706
 40
0.1192992184
 40
0.1499086011
 40
0.1826068247
 40
0.2172272574
 40
0.2914034356
 40
0.3706028184
 40
0.4527071494
 40
0.5354574158
 40
0.6165644903
 40
0.693816752
 40
0.7651942222
 40
0.798144287
 40
0.8290250263
 40
0.857703235
 40
0.8840941565
 40
0.9081725534
 40
0.9299917658
 40
0.9497100385
 40
0.9676195716
 40
0.9841760349
 40
1.0
 40
1.0
 40
1.0
 40
1.0
 10
379.7780114123
 20
280.1926556137
 30
0.0
 10
380.1157212425
 20
279.9880014272
 30
0.0
 10
380.7892220439
 20
279.4929834317
 30
0.0
 10
381.7323113008
 20
278.5732174117
 30
0.0
 10
382.6501688961
 20
277.449021789
 30
0.0
 10
383.5361196172
 20
276.1293986599
 30
0.0
 10
384.3838512537
 20
274.6243214452
 30
0.0
 10
385.1867623621
 20
272.9455425084
 30
0.0
 10
385.938523844
 20
271.106253263
 30
0.0
 10
386.886319524
 20
268.3966785464
 30
0.0
 10
387.8898553466
 20
264.7131980803
 30
0.0
 10
388.7839311324
 20
260.0179602168
 30
0.0
 10
389.3644464338
 20
255.0986725282
 30
0.0
 10
389.6125895508
 20
250.1129541598
 30
0.0
 10
389.5205593534
 20
245.2199537376
 30
0.0
 10
389.0916918646
 20
240.5763292714
 30
0.0
 10
388.4503277241
 20
236.9442248964
 30
0.0
 10
387.7659141184
 20
234.2877230772
 30
0.0
 10
387.1942718667
 20
232.4996018989
 30
0.0
 10
386.5552613636
 20
230.8763380225
 30
0.0
 10
385.8538236384
 20
229.4305385242
 30
0.0
 10
385.0951048163
 20
228.173283938
 30
0.0
 10
384.2841000609
 20
227.1141449175
 30
0.0
 10
383.425629468
 20
226.2613774325
 30
0.0
 10
382.5236198979
 20
225.6229637722
 30
0.0
 10
381.583691832
 20
225.208075418
 30
0.0
 10
380.9311627239
 20
225.0855992885
 30
0.0
 10
380.6109181003
 20
225.0649264227
 30
0.0
  0
SPLINE
  5
2C1
100
AcDbEntity
  8
0
100
AcDbSpline
 62
7
  6
CONTINUOUS
 70
0
 71
3
 72
33
 73
29
 74
0
 42
0.0000001
 43
0.0000001
 44
0.0000000001
 40
0.0
 40
0.0
 40
0.0
 40
0.0
 40
0.0199472594
 40
0.0421996998
 40
0.0669638575
 40
0.0943196616
 40
0.1242360103
 40
0.1566038944
 40
0.1912551203
 40
0.2279739009
 40
0.3065494697
 40
0.3900026182
 40
0.4756906957
 40
0.5608469611
 40
0.6427339856
 40
0.7187990075
 40
0.7539565979
 40
0.7868774531
 40
0.8173811487
 40
0.8453438972
 40
0.8707148552
 40
0.8935412611
 40
0.9140019939
 40
0.9324498683
 40
0.9494516247
 40
0.965784478
 40
0.982349361
 40
1.0
 40
1.0
 40
1.0
 40
1.0
 10
375.5513896357
 20
279.6303940322
 30
0.0
 10
375.9128011654
 20
279.4247294952
 30
0.0
 10
376.6346171774
 20
278.9128119603
 30
0.0
 10
377.6401521044
 20
277.9389737331
 30
0.0
 10
378.6162545609
 20
276.7302621508
 30
0.0
 10
379.5548081141
 20
275.2979442812
 30
0.0
 10
380.4480196273
 20
273.6545324461
 30
0.0
 10
381.2877905122
 20
271.8149924681
 30
0.0
 10
382.0664294089
 20
269.796201114
 30
0.0
 10
383.0349392141
 20
266.8229173206
 30
0.0
 10
384.0300710498
 20
262.7948202775
 30
0.0
 10
384.8608132673
 20
257.6931614672
 30
0.0
 10
385.3215906951
 20
252.4071760261
 30
0.0
 10
385.3950779807
 20
247.134194596
 30
0.0
 10
385.0789111383
 20
242.0710641321
 30
0.0
 10
384.4875528424
 20
238.0823223594
 30
0.0
 10
383.8138449131
 20
235.152503128
 30
0.0
 10
383.2367005929
 20
233.1787003976
 30
0.0
 10
382.5800699997
 20
231.3885609042
 30
0.0
 10
381.8498461046
 20
229.7983305386
 30
0.0
 10
381.0522767627
 20
228.4222018748
 30
0.0
 10
380.1935109905
 20
227.2722353036
 30
0.0
 10
379.27908256
 20
226.3587936277
 30
0.0
 10
378.3136110172
 20
225.692071129
 30
0.0
 10
377.3029976262
 20
225.2843735315
 30
0.0
 10
376.2596634894
 20
225.1483187288
 30
0.0
 10
375.2042197273
 20
225.2885181012
 30
0.0
 10
374.5333447156
 20
225.5497881133
 30
0.0
 10
374.2047379107
 20
225.715343701
 30
0.0
  0
SPLINE
  5
2C2
100
AcDbEntity
  8
0
100
AcDbSpline
 62
7
  6
CONTINUOUS
 70
0
 71
3
 72
10
 73
6
 74
0
 42
0.0000001
 43
0.0000001
 44
0.0000000001
 40
0.0
 40
0.0
 40
0.0
 40
0.0
 40
0.237877164
 40
0.48098431
 40
1.0
 40
1.0
 40
1.0
 40
1.0
 10
373.3098383375
 20
280.7101408897
 30
0.0
 10
373.5266120475
 20
280.7241343344
 30
0.0
 10
373.968102789
 20
280.7166779326
 30
0.0
 10
374.8700801548
 20
280.5565885687
 30
0.0
 10
375.5204552269
 20
280.2783001123
 30
0.0
 10
375.9323834146
 20
280.043888609
 30
0.0
  0
SPLINE
  5
2C3
100
AcDbEntity
  8
0
100
AcDbSpline
 62
7
  6
CONTINUOUS
 70
0
 71
3
 72
10
 73
6
 74
0
 42
0.0000001
 43
0.0000001
 44
0.0000000001
 40
0.0
 40
0.0
 40
0.0
 40
0.0
 40
0.2376574873
 40
0.4812287465
 40
1.0
 40
1.0
 40
1.0
 40
1.0
 10
377.2160628318
 20
280.9566880856
 30
0.0
 10
377.4162744364
 20
280.9590155456
 30
0.0
 10
377.8226868458
 20
280.933396888
 30
0.0
 10
378.6493213305
 20
280.7599114966
 30
0.0
 10
379.2455281489
 20
280.4984885933
 30
0.0
 10
379.6253912933
 20
280.2823239962
 30
0.0
  0
SPLINE
  5
2C4
100
AcDbEntity
  8
DATUM_AXIS
100
AcDbSpline
 62
7
  6
CONTINUOUS
 70
0
 71
3
 72
9
 73
5
 74
0
 42
0.0000001
 43
0.0000001
 44
0.0000000001
 40
0.0
 40
0.0
 40
0.0
 40
0.0
 40
0.3622419967
 40
1.0
 40
1.0
 40
1.0
 40
1.0
 10
267.5665712099
 20
225.9262462059
 30
0.0
 10
267.5306291594
 20
225.9239462408
 30
0.0
 10
267.4321745715
 20
225.9517741987
 30
0.0
 10
267.3404513729
 20
225.9872319853
 30
0.0
 10
267.2823015255
 20
226.0125149926
 30
0.0
  0
SPLINE
  5
2C5
100
AcDbEntity
  8
DATUM_AXIS
100
AcDbSpline
 62
7
  6
CONTINUOUS
 70
0
 71
3
 72
9
 73
5
 74
0
 42
0.0000001
 43
0.0000001
 44
0.0000000001
 40
0.0
 40
0.0
 40
0.0
 40
0.0
 40
0.1990187372
 40
1.0
 40
1.0
 40
1.0
 40
1.0
 10
267.2823015255
 20
226.0125149926
 30
0.0
 10
267.2411640134
 20
226.0304011963
 30
0.0
 10
267.0366119589
 20
226.1251994184
 30
0.0
 10
266.8385829298
 20
226.2334258502
 30
0.0
 10
266.6816691888
 20
226.3227092669
 30
0.0
  0
SPLINE
  5
2C6
100
AcDbEntity
  8
DATUM_AXIS
100
AcDbSpline
 62
7
  6
CONTINUOUS
 70
0
 71
3
 72
22
 73
18
 74
0
 42
0.0000001
 43
0.0000001
 44
0.0000000001
 40
0.0
 40
0.0
 40
0.0
 40
0.0
 40
0.0674633584
 40
0.1409716069
 40
0.2988284001
 40
0.4633515582
 40
0.626870928
 40
0.7774805725
 40
0.8422152576
 40
0.8969110805
 40
0.9404234933
 40
0.9578210676
 40
0.9722507818
 40
0.9836721871
 40
0.9920595545
 40
0.9974179891
 40
1.0
 40
1.0
 40
1.0
 40
1.0
 10
249.2688832747
 20
224.744849646
 30
0.0
 10
249.6917498543
 20
224.7721495807
 30
0.0
 10
250.5723109708
 20
224.8758450463
 30
0.0
 10
252.420364748
 20
225.2068997951
 30
0.0
 10
254.84150023
 20
225.777890628
 30
0.0
 10
257.8056080282
 20
226.5048378326
 30
0.0
 10
260.7573936632
 20
227.0845000153
 30
0.0
 10
263.1459186697
 20
227.2508588091
 30
0.0
 10
264.8377090092
 20
227.0824566615
 30
0.0
 10
265.8389428766
 20
226.858999059
 30
0.0
 10
266.5255380358
 20
226.6163440485
 30
0.0
 10
266.9548328942
 20
226.4171428018
 30
0.0
 10
267.1941054363
 20
226.2870891596
 30
0.0
 10
267.3752108315
 20
226.1732851186
 30
0.0
 10
267.5033362943
 20
226.0747338686
 30
0.0
 10
267.5732284916
 20
226.0084753572
 30
0.0
 10
267.6041815805
 20
225.9572224399
 30
0.0
 10
267.5982822624
 20
225.9421154618
 30
0.0
  0
SPLINE
  5
2C7
100
AcDbEntity
  8
DATUM_AXIS
100
AcDbSpline
 62
7
  6
CONTINUOUS
 70
0
 71
3
 72
9
 73
5
 74
0
 42
0.0000001
 43
0.0000001
 44
0.0000000001
 40
0.0
 40
0.0
 40
0.0
 40
0.0
 40
0.2194123147
 40
1.0
 40
1.0
 40
1.0
 40
1.0
 10
266.6816691888
 20
226.3227092669
 30
0.0
 10
266.6178279896
 20
226.3590426657
 30
0.0
 10
266.328343155
 20
226.5272372958
 30
0.0
 10
266.0434231156
 20
226.703157882
 30
0.0
 10
265.8221211373
 20
226.842149909
 30
0.0
  0
SPLINE
  5
2C8
100
AcDbEntity
  8
DATUM_AXIS
100
AcDbSpline
 62
7
  6
CONTINUOUS
 70
0
 71
3
 72
9
 73
5
 74
0
 42
0.0000001
 43
0.0000001
 44
0.0000000001
 40
0.0
 40
0.0
 40
0.0
 40
0.0
 40
0.2029285157
 40
1.0
 40
1.0
 40
1.0
 40
1.0
 10
267.5982822624
 20
225.9421154618
 30
0.0
 10
267.5973781205
 20
225.9398001347
 30
0.0
 10
267.5903640359
 20
225.9292300842
 30
0.0
 10
267.5763143338
 20
225.9268696774
 30
0.0
 10
267.5665712099
 20
225.9262462059
 30
0.0
  0
SPLINE
  5
2C9
100
AcDbEntity
  8
_SURF_FINI
100
AcDbSpline
 62
7
  6
CONTINUOUS
 70
0
 71
3
 72
10
 73
6
 74
0
 42
0.0000001
 43
0.0000001
 44
0.0000000001
 40
0.0
 40
0.0
 40
0.0
 40
0.0
 40
0.1161691942
 40
0.322161687
 40
1.0
 40
1.0
 40
1.0
 40
1.0
 10
380.0304063863
 20
249.4840552594
 30
0.0
 10
380.0301196368
 20
249.4737368134
 30
0.0
 10
380.0063635304
 20
249.4502546678
 30
0.0
 10
379.9237773482
 20
249.4228655025
 30
0.0
 10
379.8439226283
 20
249.4127302539
 30
0.0
 10
379.7838171988
 20
249.4088494821
 30
0.0
  0
SPLINE
  5
2CA
100
AcDbEntity
  8
0
100
AcDbSpline
 62
7
  6
CONTINUOUS
 70
0
 71
3
 72
9
 73
5
 74
0
 42
0.0000001
 43
0.0000001
 44
0.0000000001
 40
0.0
 40
0.0
 40
0.0
 40
0.0
 40
0.4891345657
 40
1.0
 40
1.0
 40
1.0
 40
1.0
 10
241.8931678696
 20
224.7761313179
 30
0.0
 10
241.8434728128
 20
224.8043693885
 30
0.0
 10
241.7564633313
 20
224.891530502
 30
0.0
 10
241.7244592826
 20
225.0093663571
 30
0.0
 10
241.721702891
 20
225.0689996025
 30
0.0
  0
SPLINE
  5
2CB
100
AcDbEntity
  8
_SURF_FINI
100
AcDbSpline
 62
7
  6
CONTINUOUS
 70
0
 71
3
 72
18
 73
14
 74
0
 42
0.0000001
 43
0.0000001
 44
0.0000000001
 40
0.0
 40
0.0
 40
0.0
 40
0.0
 40
0.0302151482
 40
0.0620914182
 40
0.0970257715
 40
0.1361300071
 40
0.2293010839
 40
0.3444758715
 40
0.4823780213
 40
0.5597207496
 40
0.6418531839
 40
0.8169230805
 40
1.0
 40
1.0
 40
1.0
 40
1.0
 10
374.8549183178
 20
232.8532186696
 30
0.0
 10
375.0386532227
 20
232.8656209725
 30
0.0
 10
375.4144627274
 20
232.9396661025
 30
0.0
 10
375.9546697702
 20
233.191812794
 30
0.0
 10
376.4732246061
 20
233.5829700362
 30
0.0
 10
377.1705604881
 20
234.331673361
 30
0.0
 10
377.9444596023
 20
235.6440350876
 30
0.0
 10
378.6733964895
 20
237.631497485
 30
0.0
 10
379.1019260152
 20
239.6051656428
 30
0.0
 10
379.3457792947
 20
241.4013904116
 30
0.0
 10
379.5412491134
 20
243.4314304175
 30
0.0
 10
379.6849007159
 20
246.1117770078
 30
0.0
 10
379.7503494995
 20
248.2935473972
 30
0.0
 10
379.7838184443
 20
249.4088487734
 30
0.0
  0
SPLINE
  5
2CC
100
AcDbEntity
  8
0
100
AcDbSpline
 62
7
  6
CONTINUOUS
 70
0
 71
3
 72
9
 73
5
 74
0
 42
0.0000001
 43
0.0000001
 44
0.0000000001
 40
0.0
 40
0.0
 40
0.0
 40
0.0
 40
0.4796463705
 40
1.0
 40
1.0
 40
1.0
 40
1.0
 10
241.8268062915
 20
264.0611830611
 30
0.0
 10
242.0634398501
 20
264.0764609496
 30
0.0
 10
242.5647616015
 20
264.0245867615
 30
0.0
 10
243.025080557
 20
263.8267381214
 30
0.0
 10
243.2485780142
 20
263.6993530532
 30
0.0
  0
SPLINE
  5
2CD
100
AcDbEntity
  8
0
100
AcDbSpline
 62
7
  6
CONTINUOUS
 70
0
 71
3
 72
9
 73
5
 74
0
 42
0.0000001
 43
0.0000001
 44
0.0000000001
 40
0.0
 40
0.0
 40
0.0
 40
0.0
 40
0.2069202079
 40
1.0
 40
1.0
 40
1.0
 40
1.0
 10
236.6252115163
 20
247.4286055176
 30
0.0
 10
236.625153262
 20
247.4262563735
 30
0.0
 10
236.6270111033
 20
247.4147861718
 30
0.0
 10
236.6361730917
 20
247.4061431315
 30
0.0
 10
236.6433918098
 20
247.4007572655
 30
0.0
  0
SPLINE
  5
2CE
100
AcDbEntity
  8
0
100
AcDbSpline
 62
7
  6
CONTINUOUS
 70
0
 71
3
 72
19
 73
15
 74
0
 42
0.0000001
 43
0.0000001
 44
0.0000000001
 40
0.0
 40
0.0
 40
0.0
 40
0.0
 40
0.0374317473
 40
0.0719223099
 40
0.1061674762
 40
0.1429449836
 40
0.1844631681
 40
0.2320534429
 40
0.2863222284
 40
0.3474622942
 40
0.4896347432
 40
0.6525133275
 40
0.8247951945
 40
1.0
 40
1.0
 40
1.0
 40
1.0
 10
242.8697038088
 20
263.3194439242
 30
0.0
 10
242.6616022094
 20
263.4429935599
 30
0.0
 10
242.2269230119
 20
263.6287407354
 30
0.0
 10
241.5344867025
 20
263.7019060623
 30
0.0
 10
240.8551039767
 20
263.5652069014
 30
0.0
 10
240.2087475833
 20
263.2112875371
 30
0.0
 10
239.6045415454
 20
262.6572711135
 30
0.0
 10
239.0449376416
 20
261.9133385519
 30
0.0
 10
238.5335269917
 20
260.9888410534
 30
0.0
 10
237.8939870622
 20
259.4480972783
 30
0.0
 10
237.3120021363
 20
257.140921121
 30
0.0
 10
236.939179237
 20
254.0739009166
 30
0.0
 10
236.747570975
 20
250.7788028682
 30
0.0
 10
236.6759105644
 20
248.5332484956
 30
0.0
 10
236.6431477734
 20
247.4009401035
 30
0.0
  0
SPLINE
  5
2CF
100
AcDbEntity
  8
0
100
AcDbSpline
 62
7
  6
CONTINUOUS
 70
0
 71
3
 72
9
 73
5
 74
0
 42
0.0000001
 43
0.0000001
 44
0.0000000001
 40
0.0
 40
0.0
 40
0.0
 40
0.0
 40
0.5141031282
 40
1.0
 40
1.0
 40
1.0
 40
1.0
 10
374.3654359238
 20
272.2961525061
 30
0.0
 10
374.1741930026
 20
272.385811908
 30
0.0
 10
373.782065079
 20
272.5221496317
 30
0.0
 10
373.3667601648
 20
272.5535290446
 30
0.0
 10
373.1675228213
 20
272.5410354373
 30
0.0
  0
SPLINE
  5
2D0
100
AcDbEntity
  8
0
100
AcDbSpline
 62
7
  6
CONTINUOUS
 70
0
 71
3
 72
17
 73
13
 74
0
 42
0.0000001
 43
0.0000001
 44
0.0000000001
 40
0.0
 40
0.0
 40
0.0
 40
0.0
 40
0.0346016651
 40
0.0742895682
 40
0.1693361456
 40
0.2851664659
 40
0.3497861201
 40
0.4179767135
 40
0.5620588569
 40
0.7096829145
 40
0.8556746448
 40
1.0
 40
1.0
 40
1.0
 40
1.0
 10
241.7216911297
 20
225.0689979596
 30
0.0
 10
241.4820001614
 20
225.199337744
 30
0.0
 10
241.009768051
 20
225.5563042349
 30
0.0
 10
240.0982675877
 20
226.5368820728
 30
0.0
 10
239.0631042692
 20
228.2408233147
 30
0.0
 10
238.2513472581
 20
230.2614873849
 30
0.0
 10
237.6832379373
 20
232.1389131517
 30
0.0
 10
237.1679333569
 20
234.2616273576
 30
0.0
 10
236.7348543594
 20
237.0723153601
 30
0.0
 10
236.5361173432
 20
240.5212387712
 30
0.0
 10
236.5435436809
 20
243.9753322059
 30
0.0
 10
236.6078508573
 20
246.2636439852
 30
0.0
 10
236.6429027697
 20
247.401122904
 30
0.0
  0
LINE
  5
2D1
100
AcDbEntity
  8
0
100
AcDbLine
 62
7
  6
CONTINUOUS
 10
236.6429027697
 20
247.401122904
 11
236.7631256744
 21
247.3116793713
  0
SPLINE
  5
2D2
100
AcDbEntity
  8
0
100
AcDbSpline
 62
7
  6
CONTINUOUS
 70
0
 71
3
 72
13
 73
9
 74
0
 42
0.0000001
 43
0.0000001
 44
0.0000000001
 40
0.0
 40
0.0
 40
0.0
 40
0.0
 40
0.2355259648
 40
0.4797353758
 40
0.7341668386
 40
0.8656071308
 40
0.9324297376
 40
1.0
 40
1.0
 40
1.0
 40
1.0
 10
236.9955245363
 20
247.1402497885
 30
0.0
 10
237.343858959
 20
246.8847664623
 30
0.0
 10
238.0598919947
 20
246.373193128
 30
0.0
 10
239.1770575261
 20
245.6210964001
 30
0.0
 10
240.1551694787
 20
245.0052915623
 30
0.0
 10
240.867189823
 20
244.5780958144
 30
0.0
 10
241.2888589899
 20
244.3333436093
 30
0.0
 10
241.5014401722
 20
244.2084929121
 30
0.0
 10
241.6099788035
 20
244.1486727787
 30
0.0
  0
SPLINE
  5
2D3
100
AcDbEntity
  8
_SURF_FINI
100
AcDbSpline
 62
7
  6
CONTINUOUS
 70
0
 71
3
 72
10
 73
6
 74
0
 42
0.0000001
 43
0.0000001
 44
0.0000000001
 40
0.0
 40
0.0
 40
0.0
 40
0.0
 40
0.5635649069
 40
0.813791394
 40
1.0
 40
1.0
 40
1.0
 40
1.0
 10
248.4275080008
 20
240.9279564042
 30
0.0
 10
248.3312880997
 20
240.9217423873
 30
0.0
 10
248.1910505911
 20
240.9250279851
 30
0.0
 10
248.0219814943
 20
240.9505805527
 30
0.0
 10
247.9492782236
 20
240.9703319256
 30
0.0
 10
247.9202856618
 20
240.9835376641
 30
0.0
  0
SPLINE
  5
2D4
100
AcDbEntity
  8
0
100
AcDbSpline
 62
7
  6
CONTINUOUS
 70
0
 71
3
 72
14
 73
10
 74
0
 42
0.0000001
 43
0.0000001
 44
0.0000000001
 40
0.0
 40
0.0
 40
0.0
 40
0.0
 40
0.2493956581
 40
0.4991766566
 40
0.6242182523
 40
0.7493649293
 40
0.874622058
 40
0.9372943578
 40
1.0
 40
1.0
 40
1.0
 40
1.0
 10
241.7216912474
 20
225.0689948532
 30
0.0
 10
241.6616470458
 20
226.6543115983
 30
0.0
 10
241.5652455229
 20
229.8283432193
 30
0.0
 10
241.505628702
 20
233.7988430938
 30
0.0
 10
241.4969781916
 20
236.9792622087
 30
0.0
 10
241.5107257532
 20
239.3675378897
 30
0.0
 10
241.5411219785
 20
241.3588670951
 30
0.0
 10
241.575255071
 20
242.9528521682
 30
0.0
 10
241.5997918382
 20
243.7500363461
 30
0.0
 10
241.609765416
 20
244.1487942087
 30
0.0
  0
SPLINE
  5
2D5
100
AcDbEntity
  8
0
100
AcDbSpline
 62
7
  6
CONTINUOUS
 70
0
 71
3
 72
14
 73
10
 74
0
 42
0.0000001
 43
0.0000001
 44
0.0000000001
 40
0.0
 40
0.0
 40
0.0
 40
0.0
 40
0.263182362
 40
0.5185266632
 40
0.642774538
 40
0.7645140046
 40
0.8836173636
 40
0.9421528791
 40
1.0
 40
1.0
 40
1.0
 40
1.0
 10
247.9210504046
 20
240.983189826
 30
0.0
 10
247.3571681974
 20
241.2400261528
 30
0.0
 10
246.2494584549
 20
241.7532683315
 30
0.0
 10
244.8876176205
 20
242.4134315875
 30
0.0
 10
243.8343397079
 20
242.9461519173
 30
0.0
 10
243.0723440393
 20
243.3439033333
 30
0.0
 10
242.4515938941
 20
243.6778645872
 30
0.0
 10
241.9672542314
 20
243.9476198201
 30
0.0
 10
241.727217067
 20
244.0798505773
 30
0.0
 10
241.609765416
 20
244.1487942087
 30
0.0
  0
SPLINE
  5
2D6
100
AcDbEntity
  8
0
100
AcDbSpline
 62
7
  6
CONTINUOUS
 70
0
 71
3
 72
19
 73
15
 74
0
 42
0.0000001
 43
0.0000001
 44
0.0000000001
 40
0.0
 40
0.0
 40
0.0
 40
0.0
 40
0.0353874659
 40
0.0693709987
 40
0.1043311984
 40
0.1425580591
 40
0.1857415049
 40
0.2348687496
 40
0.2903922839
 40
0.3524698193
 40
0.4953760959
 40
0.6570712804
 40
0.8271712027
 40
1.0
 40
1.0
 40
1.0
 40
1.0
 10
242.0683526164
 20
224.8947846453
 30
0.0
 10
242.2758998518
 20
224.8093376924
 30
0.0
 10
242.7087206431
 20
224.6977118569
 30
0.0
 10
243.3791067473
 20
224.7208647072
 30
0.0
 10
244.0307296579
 20
224.9454766508
 30
0.0
 10
244.6456711441
 20
225.3664125087
 30
0.0
 10
245.2177235163
 20
225.9714960316
 30
0.0
 10
245.7440766463
 20
226.7513128699
 30
0.0
 10
246.2207264563
 20
227.697817415
 30
0.0
 10
246.8092174144
 20
229.2443009448
 30
0.0
 10
247.3359818104
 20
231.5200853846
 30
0.0
 10
247.6610886357
 20
234.5162992146
 30
0.0
 10
247.8235538527
 20
237.7134063907
 30
0.0
 10
247.8898150181
 20
239.8874522133
 30
0.0
 10
247.9210504046
 20
240.983189826
 30
0.0
  0
SPLINE
  5
2D7
100
AcDbEntity
  8
0
100
AcDbSpline
 62
7
  6
CONTINUOUS
 70
0
 71
3
 72
19
 73
15
 74
0
 42
0.0000001
 43
0.0000001
 44
0.0000000001
 40
0.0
 40
0.0
 40
0.0
 40
0.0
 40
0.1649628137
 40
0.327872233
 40
0.4075573971
 40
0.4849872869
 40
0.628338402
 40
0.7513773492
 40
0.8046192952
 40
0.8523420826
 40
0.8948534185
 40
0.9328082847
 40
0.9673375265
 40
1.0
 40
1.0
 40
1.0
 40
1.0
 10
248.427505587
 20
240.9279588457
 30
0.0
 10
248.3977777417
 20
239.9223632478
 30
0.0
 10
248.3395413616
 20
237.9237095053
 30
0.0
 10
248.2232759622
 20
235.440434941
 30
0.0
 10
248.0647163933
 20
233.4949127109
 30
0.0
 10
247.8558514372
 20
231.6741371667
 30
0.0
 10
247.4678140269
 20
229.6091730331
 30
0.0
 10
246.8511184555
 20
227.750050873
 30
0.0
 10
246.2407315437
 20
226.5254073482
 30
0.0
 10
245.7633990402
 20
225.7893570688
 30
0.0
 10
245.2485029799
 20
225.1968534281
 30
0.0
 10
244.6981970655
 20
224.754633278
 30
0.0
 10
244.1177417259
 20
224.4687222409
 30
0.0
 10
243.7106222233
 20
224.3859810364
 30
0.0
 10
243.5118421786
 20
224.3731471016
 30
0.0
  0
SPLINE
  5
2D8
100
AcDbEntity
  8
0
100
AcDbSpline
 62
7
  6
CONTINUOUS
 70
0
 71
3
 72
13
 73
9
 74
0
 42
0.0000001
 43
0.0000001
 44
0.0000000001
 40
0.0
 40
0.0
 40
0.0
 40
0.0
 40
0.0623084902
 40
0.1246498854
 40
0.2494164023
 40
0.4992536608
 40
0.7494588875
 40
1.0
 40
1.0
 40
1.0
 40
1.0
 10
241.6097671667
 20
244.1488525478
 30
0.0
 10
241.6234635253
 20
244.5477092805
 30
0.0
 10
241.6471881081
 20
245.3457576596
 30
0.0
 10
241.7086099628
 20
246.9421250312
 30
0.0
 10
241.833900953
 20
249.7380245016
 30
0.0
 10
242.0684740105
 20
253.7333298303
 30
0.0
 10
242.4268889633
 20
258.5276811033
 30
0.0
 10
242.7142819372
 20
261.7222486845
 30
0.0
 10
242.8697038388
 20
263.319444232
 30
0.0
  0
SPLINE
  5
2D9
100
AcDbEntity
  8
0
100
AcDbSpline
 62
7
  6
CONTINUOUS
 70
0
 71
3
 72
18
 73
14
 74
0
 42
0.0000001
 43
0.0000001
 44
0.0000000001
 40
0.0
 40
0.0
 40
0.0
 40
0.0
 40
0.0347350654
 40
0.0746440351
 40
0.1196511722
 40
0.1700001007
 40
0.2255413545
 40
0.2858675281
 40
0.4185149114
 40
0.5624184237
 40
0.7099137099
 40
0.8558046863
 40
1.0
 40
1.0
 40
1.0
 40
1.0
 10
242.8697038388
 20
263.319444232
 30
0.0
 10
243.1104522899
 20
263.1883490534
 30
0.0
 10
243.5851257619
 20
262.8292385523
 30
0.0
 10
244.2322860619
 20
262.1386287655
 30
0.0
 10
244.8610393867
 20
261.2726650752
 30
0.0
 10
245.4527573454
 20
260.2370652967
 30
0.0
 10
246.001405374
 20
259.0439481645
 30
0.0
 10
246.6853724388
 20
257.2042793186
 30
0.0
 10
247.3667269581
 20
254.6275754858
 30
0.0
 10
247.8740641864
 20
251.3136302156
 30
0.0
 10
248.0513296097
 20
247.8629948007
 30
0.0
 10
248.0243204394
 20
244.4091593633
 30
0.0
 10
247.9566924202
 20
242.1207751441
 30
0.0
 10
247.9206684781
 20
240.9833637859
 30
0.0
  0
SPLINE
  5
2DA
100
AcDbEntity
  8
0
100
AcDbSpline
 62
7
  6
CONTINUOUS
 70
0
 71
3
 72
9
 73
5
 74
0
 42
0.0000001
 43
0.0000001
 44
0.0000000001
 40
0.0
 40
0.0
 40
0.0
 40
0.0
 40
0.5095086342
 40
1.0
 40
1.0
 40
1.0
 40
1.0
 10
242.8697417135
 20
263.3194435127
 30
0.0
 10
242.8804318859
 20
263.4155557048
 30
0.0
 10
242.9681197943
 20
263.6018121237
 30
0.0
 10
243.155672408
 20
263.6934151037
 30
0.0
 10
243.2485780854
 20
263.6993554394
 30
0.0
  0
SPLINE
  5
2DB
100
AcDbEntity
  8
0
100
AcDbSpline
 62
7
  6
CONTINUOUS
 70
0
 71
3
 72
8
 73
4
 74
0
 42
0.0000001
 43
0.0000001
 44
0.0000000001
 40
0.0
 40
0.0
 40
0.0
 40
0.0
 40
1.0
 40
1.0
 40
1.0
 40
1.0
 10
374.590620892
 20
272.1793259185
 30
0.0
 10
374.653909462
 20
272.1834120907
 30
0.0
 10
374.7210864915
 20
272.1688966684
 30
0.0
 10
374.7762522903
 20
272.1376096974
 30
0.0
  0
SPLINE
  5
2DC
100
AcDbEntity
  8
_SURF_FINI
100
AcDbSpline
 62
7
  6
CONTINUOUS
 70
0
 71
3
 72
9
 73
5
 74
0
 42
0.0000001
 43
0.0000001
 44
0.0000000001
 40
0.0
 40
0.0
 40
0.0
 40
0.0
 40
0.2438579707
 40
1.0
 40
1.0
 40
1.0
 40
1.0
 10
374.8151380396
 20
272.0402454035
 30
0.0
 10
374.8440655635
 20
272.0208671442
 30
0.0
 10
374.9616150371
 20
271.9398027511
 30
0.0
 10
375.0748811739
 20
271.8525753421
 30
0.0
 10
375.15812694
 20
271.7838283846
 30
0.0
  0
SPLINE
  5
2DD
100
AcDbEntity
  8
_SURF_FINI
100
AcDbSpline
 62
7
  6
CONTINUOUS
 70
0
 71
3
 72
15
 73
11
 74
0
 42
0.0000001
 43
0.0000001
 44
0.0000000001
 40
0.0
 40
0.0
 40
0.0
 40
0.0
 40
0.0743883167
 40
0.166629385
 40
0.2768457267
 40
0.4028798078
 40
0.5412715654
 40
0.6887057848
 40
0.8426073163
 40
1.0
 40
1.0
 40
1.0
 40
1.0
 10
375.15812694
 20
271.7838283846
 30
0.0
 10
375.604754541
 20
271.414989342
 30
0.0
 10
376.4589961143
 20
270.4149895822
 30
0.0
 10
377.5120423012
 20
268.5260905669
 30
0.0
 10
378.4322327249
 20
266.1315421332
 30
0.0
 10
379.172340896
 20
263.3050310921
 30
0.0
 10
379.6836042388
 20
260.1335906988
 30
0.0
 10
379.897543872
 20
256.7121869159
 30
0.0
 10
379.8948773492
 20
253.1392125399
 30
0.0
 10
379.8230435426
 20
250.7162630866
 30
0.0
 10
379.7862908543
 20
249.4912445871
 30
0.0
  0
LINE
  5
2DE
100
AcDbEntity
  8
_SURF_FINI
100
AcDbLine
 62
7
  6
CONTINUOUS
 10
379.7862908543
 20
249.4912445871
 11
379.7838184443
 21
249.4088487734
  0
SPLINE
  5
2DF
100
AcDbEntity
  8
0
100
AcDbSpline
 62
7
  6
CONTINUOUS
 70
0
 71
3
 72
17
 73
13
 74
0
 42
0.0000001
 43
0.0000001
 44
0.0000000001
 40
0.0
 40
0.0
 40
0.0
 40
0.0
 40
0.1443438927
 40
0.2904154104
 40
0.4380625204
 40
0.5819584214
 40
0.7145625885
 40
0.8302346957
 40
0.8805467385
 40
0.9255265301
 40
0.9652290341
 40
1.0
 40
1.0
 40
1.0
 40
1.0
 10
248.4275047454
 20
240.9279587913
 30
0.0
 10
248.4628706578
 20
242.0891847105
 30
0.0
 10
248.5351541893
 20
244.4255308345
 30
0.0
 10
248.5602650287
 20
247.9519077489
 30
0.0
 10
248.3739120463
 20
251.4733483643
 30
0.0
 10
247.845961714
 20
254.8529115361
 30
0.0
 10
247.0338268867
 20
257.9087630206
 30
0.0
 10
246.1287579624
 20
260.1463984613
 30
0.0
 10
245.2823570483
 20
261.6212634898
 30
0.0
 10
244.6422348467
 20
262.5024936124
 30
0.0
 10
243.9773356639
 20
263.2012062433
 30
0.0
 10
243.491904192
 20
263.5611051829
 30
0.0
 10
243.2485781989
 20
263.6993530651
 30
0.0
  0
SPLINE
  5
2E0
100
AcDbEntity
  8
0
100
AcDbSpline
 62
7
  6
CONTINUOUS
 70
0
 71
3
 72
14
 73
10
 74
0
 42
0.0000001
 43
0.0000001
 44
0.0000000001
 40
0.0
 40
0.0
 40
0.0
 40
0.0
 40
0.0340373028
 40
0.0896865118
 40
0.1719587058
 40
0.2818757703
 40
0.4197496695
 40
0.585520899
 40
1.0
 40
1.0
 40
1.0
 40
1.0
 10
269.0586667786
 20
226.0537285215
 30
0.0
 10
269.0688664775
 20
226.0724721637
 30
0.0
 10
269.0622864085
 20
226.1349397718
 30
0.0
 10
269.0053816216
 20
226.22584349
 30
0.0
 10
268.9034197986
 20
226.3444453029
 30
0.0
 10
268.7484358785
 20
226.4819321118
 30
0.0
 10
268.5396142732
 20
226.6361994936
 30
0.0
 10
268.1567916534
 20
226.8737665891
 30
0.0
 10
267.826587283
 20
227.0302218548
 30
0.0
 10
267.5855806823
 20
227.1273724131
 30
0.0
  0
SPLINE
  5
2E1
100
AcDbEntity
  8
0
100
AcDbSpline
 62
7
  6
CONTINUOUS
 70
0
 71
3
 72
10
 73
6
 74
0
 42
0.0000001
 43
0.0000001
 44
0.0000000001
 40
0.0
 40
0.0
 40
0.0
 40
0.0
 40
0.2021200522
 40
0.5707647358
 40
1.0
 40
1.0
 40
1.0
 40
1.0
 10
267.5855806823
 20
227.1273724131
 30
0.0
 10
267.3096993
 20
227.2385811112
 30
0.0
 10
266.5083071093
 20
227.4988072542
 30
0.0
 10
265.0450283041
 20
227.7206615006
 30
0.0
 10
263.8666477384
 20
227.7095190209
 30
0.0
 10
263.2363039032
 20
227.6683141108
 30
0.0
  0
SPLINE
  5
2E2
100
AcDbEntity
  8
0
100
AcDbSpline
 62
7
  6
CONTINUOUS
 70
0
 71
3
 72
14
 73
10
 74
0
 42
0.0000001
 43
0.0000001
 44
0.0000000001
 40
0.0
 40
0.0
 40
0.0
 40
0.0
 40
0.122406344
 40
0.2489417968
 40
0.3773398718
 40
0.5061361291
 40
0.7603697024
 40
0.8830732681
 40
1.0
 40
1.0
 40
1.0
 40
1.0
 10
263.2363039033
 20
227.6683141108
 30
0.0
 10
262.6694986384
 20
227.6278454185
 30
0.0
 10
261.5199527427
 20
227.4964961691
 30
0.0
 10
259.795980646
 20
227.1817188426
 30
0.0
 10
258.0577652939
 20
226.7908127476
 30
0.0
 10
255.7515496058
 20
226.2266338237
 30
0.0
 10
253.478008693
 20
225.640110448
 30
0.0
 10
251.2419421162
 20
225.1328712322
 30
0.0
 10
250.1478683001
 20
224.9283158718
 30
0.0
 10
249.6113470677
 20
224.8459281775
 30
0.0
  0
ENDSEC
  0
SECTION
  2
OBJECTS
  0
DICTIONARY
  5
C
100
AcDbDictionary
280
0
281
1
  3
ACAD_GROUP
350
D
  3
ACAD_MLINESTYLE
350
17
  3
ACAD_LAYOUT
350
1A
  3
ACAD_PLOTSETTINGS
350
19
  3
ACAD_PLOTSTYLENAME
350
E
  0
DICTIONARY
  5
D
102
{ACAD_REACTORS
330
C
102
}
100
AcDbDictionary
280
0
281
1
  0
ACDBDICTIONARYWDFLT
  5
E
102
{ACAD_REACTORS
330
C
102
}
100
AcDbDictionary
281
1
  3
Normal
350
F
100
AcDbDictionaryWithDefault
340
F
  0
DICTIONARY
  5
17
102
{ACAD_REACTORS
330
C
102
}
100
AcDbDictionary
280
0
281
1
  3
Standard
350
18
  0
DICTIONARY
  5
19
102
{ACAD_REACTORS
330
C
102
}
100
AcDbDictionary
281
1
  0
DICTIONARY
  5
1A
102
{ACAD_REACTORS
330
C
102
}
100
AcDbDictionary
281
1
  3
Model
350
2E3
  3
Layout1
350
2E4
  0
ACDBPLACEHOLDER
  5
F
102
{ACAD_REACTORS
330
E
102
}
  0
MLINESTYLE
  5
18
102
{ACAD_REACTORS
330
17
102
}
100
AcDbMlineStyle
  2
STANDARD
 70
0
  3

 62
256
 51
90.0
 52
90.0
 71
2
 49
0.5
 62
256
  6
BYLAYER
 49
-0.5
 62
256
  6
BYLAYER
  0
LAYOUT
  5
2E3
102
{ACAD_REACTORS
330
1A
102
}
100
AcDbPlotSettings
  1

  2
none_device
  4
ISO_A3_(420.00_x_297.00_MM)
  6

 40
0.0
 41
0.0
 42
0.0
 43
0.0
 44
420.0
 45
297.0
 46
0.0
 47
0.0
 48
0.0
 49
0.0
140
0.0
141
0.0
142
1.0
143
1.0
 70
1024
 72
1
 73
0
 74
0
  7

 75
0
147
1.0
148
0.0
149
0.0
100
AcDbLayout
  1
Model
 70
0
 71
0
 10
0.0
 20
0.0
 11
420.0
 21
297.0
 12
0.0
 22
0.0
 32
0.0
 14
0.0
 24
0.0
 34
0.0
 15
0.0
 25
0.0
 35
0.0
146
0.0
 13
0.0
 23
0.0
 33
0.0
 16
1.0
 26
0.0
 36
0.0
 17
0.0
 27
1.0
 37
0.0
 76
0
330
21D
345
0
346
0
  0
LAYOUT
  5
2E4
102
{ACAD_REACTORS
330
1A
102
}
100
AcDbPlotSettings
  1

  2
none_device
  4
ISO_A3_(420.00_x_297.00_MM)
  6

 40
0.0
 41
0.0
 42
0.0
 43
0.0
 44
420.0
 45
297.0
 46
0.0
 47
0.0
 48
0.0
 49
0.0
140
0.0
141
0.0
142
1.0
143
1.0
 70
0
 72
1
 73
0
 74
0
  7

 75
0
147
1.0
148
0.0
149
0.0
100
AcDbLayout
  1
Layout1
 70
0
 71
1
 10
0.0
 20
0.0
 11
420.0
 21
297.0
 12
0.0
 22
0.0
 32
0.0
 14
0.0
 24
0.0
 34
0.0
 15
0.0
 25
0.0
 35
0.0
146
0.0
 13
0.0
 23
0.0
 33
0.0
 16
1.0
 26
0.0
 36
0.0
 17
0.0
 27
1.0
 37
0.0
 76
0
330
21E
345
0
346
0
  0
ENDSEC
  0
EOF
