999
DXF file: 37320in_2D.dxf
999
Pro/ENGINEER 2012070 by Parametric Technology Corporation
  0
SECTION
  2
HEADER
  9
$ACADVER
  1
AC1021
  9
$DWGCODEPAGE
  3
ANSI_1252
  9
$EXTMAX
 10
841.0
 20
594.0
 30
0.0
  9
$EXTMIN
 10
0.0
 20
0.0
 30
0.0
  9
$LIMMIN
 10
0.0
 20
0.0
  9
$LIMMAX
 10
841.0
 20
594.0
  9
$VIEWCTR
 10
420.5
 20
297.0
  9
$VIEWSIZE
 40
594.0
  9
$CLAYER
  8
0
  9
$LTSCALE
 40
46.255
  9
$CELTYPE
  6
BYLAYER
  9
$DIMSCALE
 40
1.0
  9
$DIMASZ
 40
3.5
  9
$DIMEXO
 40
1.0
  9
$DIMDLI
 40
31.958
  9
$DIMEXE
 40
1.5
  9
$DIMCEN
 40
7.569
  9
$DIMLFAC
 40
1.0
  9
$DIMBLK
  1
_FILLED
  9
$DIMTXT
 40
3.5
  9
$DIMTOL
 70
1
  9
$DIMLIM
 70
0
  9
$DIMTFAC
 40
1.0
  9
$DIMTP
 40
0.01
  9
$DIMTM
 40
0.01
  9
$DIMGAP
 40
0.625
  9
$DIMDSEP
 70
46
  9
$PDMODE
 70
3
  9
$PDSIZE
 40
0.3125
  9
$HANDSEED
  5
404
  9
$TILEMODE
 70
1
  9
$MEASUREMENT
 70
1
  9
$INSUNITS
 70
4
  0
ENDSEC
  0
SECTION
  2
CLASSES
  0
CLASS
  1
ACDBDICTIONARYWDFLT
  2
AcDbDictionaryWithDefault
  3
AutoCAD 2000
 90
0
 91
1
280
0
281
0
  0
CLASS
  1
ACDBPLACEHOLDER
  2
AcDbPlaceHolder
  3
AutoCAD 2000
 90
0
 91
1
280
0
281
0
  0
CLASS
  1
LAYOUT
  2
AcDbLayout
  3
AutoCAD 2000
 90
0
 91
0
280
0
281
0
  0
ENDSEC
  0
SECTION
  2
TABLES
  0
TABLE
  2
VPORT
  5
8
100
AcDbSymbolTable
 70
2
  0
VPORT
  5
1F4
100
AcDbSymbolTableRecord
100
AcDbViewportTableRecord
  2
*ACTIVE
 70
0
 10
0.0
 20
0.0
 11
1.0
 21
1.0
 12
420.5
 22
297.0
 13
0.0
 23
0.0
 14
1.0
 24
1.0
 15
0.0
 25
0.0
 16
0.0
 26
0.0
 36
1.0
 17
0.0
 27
0.0
 37
0.0
 40
594.0
 41
1.4158249158
 42
50.0
 43
0.0
 44
0.0
 50
0.0
 51
0.0
 71
0
 72
100
 73
1
 74
1
 75
0
 76
0
 77
0
 78
0
  0
ENDTAB
  0
TABLE
  2
LTYPE
  5
5
100
AcDbSymbolTable
 70
6
  0
LTYPE
  5
14
100
AcDbSymbolTableRecord
100
AcDbLinetypeTableRecord
  2
BYBLOCK
 70
0
  3

 72
65
 73
0
 40
0.0
  0
LTYPE
  5
15
100
AcDbSymbolTableRecord
100
AcDbLinetypeTableRecord
  2
BYLAYER
 70
0
  3

 72
65
 73
0
 40
0.0
  0
LTYPE
  5
16
100
AcDbSymbolTableRecord
100
AcDbLinetypeTableRecord
  2
CONTINUOUS
 70
64
  3
Solid line
 72
65
 73
0
 40
0.0
  0
LTYPE
  5
1F5
100
AcDbSymbolTableRecord
100
AcDbLinetypeTableRecord
  2
CENTER
 70
64
  3
____ _ ____ _ ____ _ ____ _ ____ _ ____ _ ____
 72
65
 73
4
 40
0.6
 49
0.375
 74
0
 49
-0.075
 74
0
 49
0.075
 74
0
 49
-0.075
 74
0
  0
LTYPE
  5
1F6
100
AcDbSymbolTableRecord
100
AcDbLinetypeTableRecord
  2
HIDDEN
 70
64
  3
- - - - - - - - - - - - - - - - - - - -
 72
65
 73
2
 40
0.2
 49
0.1
 74
0
 49
-0.1
 74
0
  0
LTYPE
  5
1F7
100
AcDbSymbolTableRecord
100
AcDbLinetypeTableRecord
  2
PHANTOM
 70
64
  3
_____ _ _ _____ _ _ _____ _ _ _____
 72
65
 73
6
 40
0.8
 49
0.45
 74
0
 49
-0.05
 74
0
 49
0.1
 74
0
 49
-0.05
 74
0
 49
0.1
 74
0
 49
-0.05
 74
0
  0
LTYPE
  5
1F8
100
AcDbSymbolTableRecord
100
AcDbLinetypeTableRecord
  2
DOT
 70
64
  3
. . . . . . . . . . . . . . . . . . . .
 72
65
 73
2
 40
0.2
 49
0.1
 74
0
 49
-0.1
 74
0
  0
LTYPE
  5
1F9
100
AcDbSymbolTableRecord
100
AcDbLinetypeTableRecord
  2
DASHED
 70
64
  3
- - - - - - - - - - - - - - - - - - - -
 72
65
 73
2
 40
0.2
 49
0.1
 74
0
 49
-0.1
 74
0
  0
ENDTAB
  0
TABLE
  2
LAYER
  5
2
100
AcDbSymbolTable
 70
36
  0
LAYER
  5
10
100
AcDbSymbolTableRecord
100
AcDbLayerTableRecord
  2
0
 70
0
 62
7
  6
CONTINUOUS
370
-3
390
F
  0
LAYER
  5
1FA
100
AcDbSymbolTableRecord
100
AcDbLayerTableRecord
  2
DEFAULT_1
 70
0
 62
7
  6
CENTER
370
-3
390
F
  0
LAYER
  5
1FB
100
AcDbSymbolTableRecord
100
AcDbLayerTableRecord
  2
DEFAULT_2
 70
0
 62
8
  6
HIDDEN
370
-3
390
F
  0
LAYER
  5
1FC
100
AcDbSymbolTableRecord
100
AcDbLayerTableRecord
  2
DEFAULT_3
 70
0
 62
7
  6
PHANTOM
370
-3
390
F
  0
LAYER
  5
1FD
100
AcDbSymbolTableRecord
100
AcDbLayerTableRecord
  2
00_COMPONENTS
 70
0
 62
7
  6
CONTINUOUS
370
-3
390
F
  0
LAYER
  5
1FE
100
AcDbSymbolTableRecord
100
AcDbLayerTableRecord
  2
01_ALL_PLANES
 70
0
 62
7
  6
CONTINUOUS
370
-3
390
F
  0
LAYER
  5
1FF
100
AcDbSymbolTableRecord
100
AcDbLayerTableRecord
  2
02_ALL_CSYS
 70
0
 62
7
  6
CONTINUOUS
370
-3
390
F
  0
LAYER
  5
200
100
AcDbSymbolTableRecord
100
AcDbLayerTableRecord
  2
20_ALL_FEATURES
 70
0
 62
7
  6
CONTINUOUS
370
-3
390
F
  0
LAYER
  5
201
100
AcDbSymbolTableRecord
100
AcDbLayerTableRecord
  2
AXES_REF
 70
0
 62
7
  6
CONTINUOUS
370
-3
390
F
  0
LAYER
  5
202
100
AcDbSymbolTableRecord
100
AcDbLayerTableRecord
  2
DATUM_AXIS
 70
0
 62
7
  6
CONTINUOUS
370
-3
390
F
  0
LAYER
  5
203
100
AcDbSymbolTableRecord
100
AcDbLayerTableRecord
  2
DATUM_PLANE
 70
0
 62
7
  6
CONTINUOUS
370
-3
390
F
  0
LAYER
  5
204
100
AcDbSymbolTableRecord
100
AcDbLayerTableRecord
  2
DATUM_POINT
 70
0
 62
7
  6
CONTINUOUS
370
-3
390
F
  0
LAYER
  5
205
100
AcDbSymbolTableRecord
100
AcDbLayerTableRecord
  2
ELECTRO
 70
0
 62
7
  6
CONTINUOUS
370
-3
390
F
  0
LAYER
  5
206
100
AcDbSymbolTableRecord
100
AcDbLayerTableRecord
  2
INTF_1
 70
0
 62
7
  6
CONTINUOUS
370
-3
390
F
  0
LAYER
  5
207
100
AcDbSymbolTableRecord
100
AcDbLayerTableRecord
  2
INTF_2
 70
0
 62
7
  6
CONTINUOUS
370
-3
390
F
  0
LAYER
  5
208
100
AcDbSymbolTableRecord
100
AcDbLayerTableRecord
  2
INTF_3
 70
0
 62
7
  6
CONTINUOUS
370
-3
390
F
  0
LAYER
  5
209
100
AcDbSymbolTableRecord
100
AcDbLayerTableRecord
  2
PLAN_REF
 70
0
 62
7
  6
CONTINUOUS
370
-3
390
F
  0
LAYER
  5
20A
100
AcDbSymbolTableRecord
100
AcDbLayerTableRecord
  2
RGB__168___25___33__
 70
0
 62
7
  6
CONTINUOUS
370
-3
390
F
  0
LAYER
  5
20B
100
AcDbSymbolTableRecord
100
AcDbLayerTableRecord
  2
RGB__196__229___33__
 70
0
 62
7
  6
CONTINUOUS
370
-3
390
F
  0
LAYER
  5
20C
100
AcDbSymbolTableRecord
100
AcDbLayerTableRecord
  2
RGB__211__216___84__
 70
0
 62
7
  6
CONTINUOUS
370
-3
390
F
  0
LAYER
  5
20D
100
AcDbSymbolTableRecord
100
AcDbLayerTableRecord
  2
RGB__214___45____0__
 70
0
 62
7
  6
CONTINUOUS
370
-3
390
F
  0
LAYER
  5
20E
100
AcDbSymbolTableRecord
100
AcDbLayerTableRecord
  2
RGB__255__249__211__
 70
0
 62
7
  6
CONTINUOUS
370
-3
390
F
  0
LAYER
  5
20F
100
AcDbSymbolTableRecord
100
AcDbLayerTableRecord
  2
RGB____0____0____0__
 70
0
 62
7
  6
CONTINUOUS
370
-3
390
F
  0
LAYER
  5
210
100
AcDbSymbolTableRecord
100
AcDbLayerTableRecord
  2
_CURVE
 70
0
 62
7
  6
CONTINUOUS
370
-3
390
F
  0
LAYER
  5
211
100
AcDbSymbolTableRecord
100
AcDbLayerTableRecord
  2
_SURFACE
 70
0
 62
7
  6
CONTINUOUS
370
-3
390
F
  0
LAYER
  5
212
100
AcDbSymbolTableRecord
100
AcDbLayerTableRecord
  2
_SURFCOPI
 70
0
 62
7
  6
CONTINUOUS
370
-3
390
F
  0
LAYER
  5
213
100
AcDbSymbolTableRecord
100
AcDbLayerTableRecord
  2
_SURFELECTRO
 70
0
 62
7
  6
CONTINUOUS
370
-3
390
F
  0
LAYER
  5
214
100
AcDbSymbolTableRecord
100
AcDbLayerTableRecord
  2
_SURFEXCLU
 70
0
 62
7
  6
CONTINUOUS
370
-3
390
F
  0
LAYER
  5
215
100
AcDbSymbolTableRecord
100
AcDbLayerTableRecord
  2
_SURFEXT
 70
0
 62
7
  6
CONTINUOUS
370
-3
390
F
  0
LAYER
  5
216
100
AcDbSymbolTableRecord
100
AcDbLayerTableRecord
  2
_SURFINI
 70
0
 62
7
  6
CONTINUOUS
370
-3
390
F
  0
LAYER
  5
217
100
AcDbSymbolTableRecord
100
AcDbLayerTableRecord
  2
_SURFINT
 70
0
 62
7
  6
CONTINUOUS
370
-3
390
F
  0
LAYER
  5
218
100
AcDbSymbolTableRecord
100
AcDbLayerTableRecord
  2
___COSMETIC_THREAD
 70
0
 62
7
  6
CONTINUOUS
370
-3
390
F
  0
LAYER
  5
219
100
AcDbSymbolTableRecord
100
AcDbLayerTableRecord
  2
___GDT
 70
0
 62
7
  6
CONTINUOUS
370
-3
390
F
  0
LAYER
  5
21A
100
AcDbSymbolTableRecord
100
AcDbLayerTableRecord
  2
___NOTE
 70
0
 62
7
  6
CONTINUOUS
370
-3
390
F
  0
LAYER
  5
21B
100
AcDbSymbolTableRecord
100
AcDbLayerTableRecord
  2
___SYMBOL
 70
0
 62
7
  6
CONTINUOUS
370
-3
390
F
  0
ENDTAB
  0
TABLE
  2
STYLE
  5
3
100
AcDbSymbolTable
 70
1
  0
STYLE
  5
11
100
AcDbSymbolTableRecord
100
AcDbTextStyleTableRecord
  2
STANDARD
 70
0
 40
0.0
 41
0.8
 50
0.0
 71
0
 42
0.2
  3
txt
  4

  0
STYLE
  5
21C
100
AcDbSymbolTableRecord
100
AcDbTextStyleTableRecord
  2
TEXTSTYLE_1
 70
0
 40
0.0
 41
0.8
 50
0.0
 71
0
 42
0.2
  3
gdt
  4

  0
ENDTAB
  0
TABLE
  2
VIEW
  5
6
100
AcDbSymbolTable
 70
0
  0
ENDTAB
  0
TABLE
  2
UCS
  5
7
100
AcDbSymbolTable
 70
0
  0
ENDTAB
  0
TABLE
  2
APPID
  5
9
100
AcDbSymbolTable
 70
1
  0
APPID
  5
21D
100
AcDbSymbolTableRecord
100
AcDbRegAppTableRecord
  2
ACAD
 70
0
  0
ENDTAB
  0
TABLE
  2
BLOCK_RECORD
  5
1
100
AcDbSymbolTable
 70
0
  0
BLOCK_RECORD
  5
21E
100
AcDbSymbolTableRecord
100
AcDbBlockTableRecord
  2
*Model_Space
  0
BLOCK_RECORD
  5
21F
100
AcDbSymbolTableRecord
100
AcDbBlockTableRecord
  2
*Paper_Space
  0
ENDTAB
  0
TABLE
  2
DIMSTYLE
  5
A
100
AcDbSymbolTable
 70
1
100
AcDbDimStyleTable
 71
0
  0
DIMSTYLE
105
220
100
AcDbSymbolTableRecord
100
AcDbDimStyleTableRecord
  2
STANDARD
 70
0
  3

  4

 40
1.0
 41
3.5
 42
1.0
 43
0.38
 44
1.5
 45
0.0
 46
0.0
 47
0.01
 48
0.01
140
3.5
141
0.09
142
0.0
143
25.4
144
1.0
145
0.0
146
1.0
147
0.625
 71
1.0
 72
0.0
 73
1
 74
1
 75
0
 76
0
 77
0
 78
8
170
0
171
2
172
0
173
0
174
0
175
0
176
0
177
0
178
0
270
2
271
3
272
3
273
2
274
2
275
0
280
0
281
0
282
0
283
1
284
8
285
0
286
0
287
3
288
0
340
11
278
46
  0
ENDTAB
  0
ENDSEC
  0
SECTION
  2
BLOCKS
  0
BLOCK
  5
20
100
AcDbEntity
  8
0
100
AcDbBlockBegin
  2
*Model_Space
 70
0
 10
0.0
 20
0.0
 30
0.0
  3
*Model_Space
  1

  0
ENDBLK
  5
21
100
AcDbEntity
  8
0
100
AcDbBlockEnd
  0
BLOCK
  5
1C
100
AcDbEntity
  8
0
100
AcDbBlockBegin
  2
*Paper_Space
 70
0
 10
0.0
 20
0.0
 30
0.0
  3
*Paper_Space
  1

  0
ENDBLK
  5
1D
100
AcDbEntity
  8
0
100
AcDbBlockEnd
  0
ENDSEC
  0
SECTION
  2
ENTITIES
  0
LINE
  5
221
100
AcDbEntity
  8
0
100
AcDbLine
 62
7
  6
CONTINUOUS
 10
0.0
 20
0.0
 11
0.0
 21
594.0
  0
LINE
  5
222
100
AcDbEntity
  8
0
100
AcDbLine
 62
7
  6
CONTINUOUS
 10
0.0
 20
0.0
 11
841.0
 21
0.0
  0
LINE
  5
223
100
AcDbEntity
  8
0
100
AcDbLine
 62
7
  6
CONTINUOUS
 10
0.0
 20
594.0
 11
841.0
 21
594.0
  0
LINE
  5
224
100
AcDbEntity
  8
0
100
AcDbLine
 62
7
  6
CONTINUOUS
 10
841.0
 20
0.0
 11
841.0
 21
594.0
  0
LWPOLYLINE
  5
225
100
AcDbEntity
  8
_SURFINI
100
AcDbPolyline
 62
7
  6
CONTINUOUS
 90
10
 70
0
 10
60.239556149
 20
199.1478530682
 10
60.2474789403
 20
197.5843542515
 10
60.2710068756
 20
195.9802206504
 10
60.310229188
 20
194.3383131134
 10
60.3651301178
 20
192.6643594416
 10
60.435849671
 20
190.9586241312
 10
60.5229426785
 20
189.2155001141
 10
60.6269109708
 20
187.4349026983
 10
60.7479442365
 20
185.6226818794
 10
60.8400435126
 20
184.3754041897
  0
LWPOLYLINE
  5
226
100
AcDbEntity
  8
_SURFINI
100
AcDbPolyline
 62
7
  6
CONTINUOUS
 90
10
 70
0
 10
60.840344532
 20
213.9540434862
 10
60.7479580071
 20
212.7030355978
 10
60.6269214712
 20
210.8907885585
 10
60.5229503706
 20
209.1101653481
 10
60.4358550149
 20
207.3670162252
 10
60.365133553
 20
205.6612564899
 10
60.3102311308
 20
203.9872788158
 10
60.2710077429
 20
202.345347712
 10
60.2474791588
 20
200.7411912432
 10
60.239556149
 20
199.1776703929
  0
LWPOLYLINE
  5
227
100
AcDbEntity
  8
0
100
AcDbPolyline
 62
7
  6
CONTINUOUS
 90
10
 70
0
 10
83.881811069
 20
246.5529564461
 10
83.8839122299
 20
246.0607368565
 10
83.8901356952
 20
245.5563449193
 10
83.9005141862
 20
245.0404973097
 10
83.915057824
 20
244.5146450344
 10
83.9338102088
 20
243.9788485313
 10
83.9569042622
 20
243.4316772767
 10
83.9844616002
 20
242.8731103968
 10
84.016536672
 20
242.3046380952
 10
84.0337816613
 20
242.0255807574
  0
LWPOLYLINE
  5
228
100
AcDbEntity
  8
0
100
AcDbPolyline
 62
7
  6
CONTINUOUS
 90
9
 70
0
 10
84.0165641836
 20
250.8138313088
 10
83.9844825649
 20
250.2452966092
 10
83.9569196072
 20
249.6866685082
 10
83.9338208542
 20
249.1394377156
 10
83.915064653
 20
248.6035833435
 10
83.9005180403
 20
248.0776743717
 10
83.8901374131
 20
247.5617712606
 10
83.8839126623
 20
247.0573255193
 10
83.881811069
 20
246.5650540767
  0
LINE
  5
229
100
AcDbEntity
  8
DATUM_AXIS
100
AcDbLine
 62
7
  6
CENTER
 10
78.7562271197
 20
204.1064381568
 11
72.6546187722
 21
181.3349257962
  0
LWPOLYLINE
  5
22A
100
AcDbEntity
  8
0
100
AcDbPolyline
 62
7
  6
CONTINUOUS
 90
16
 70
0
 10
84.0337816613
 20
242.0255807574
 10
84.0360989559
 20
241.9966245957
 10
84.0393736435
 20
241.9683546237
 10
84.0441689437
 20
241.9413550909
 10
84.0513134331
 20
241.9154499248
 10
84.0617103194
 20
241.8906949458
 10
84.0757576819
 20
241.8683758082
 10
84.0932072822
 20
241.8498914643
 10
84.1140039826
 20
241.8353380077
 10
84.1379635743
 20
241.8243909853
 10
84.1638553103
 20
241.8169757263
 10
84.1904698743
 20
241.8125760235
 10
84.2177452837
 20
241.8102453889
 10
84.2461361493
 20
241.8092214488
 10
84.2751586556
 20
241.8089634992
 10
128.5321114297
 20
241.8089640945
  0
LINE
  5
22B
100
AcDbEntity
  8
0
100
AcDbLine
 62
7
  6
CONTINUOUS
 10
139.904263304
 20
162.411686553
 11
157.8592633024
 21
162.411686553
  0
LINE
  5
22C
100
AcDbEntity
  8
0
100
AcDbLine
 62
7
  6
CONTINUOUS
 10
139.5817633032
 20
162.734186553
 11
158.1817633032
 21
162.734186553
  0
LINE
  5
22D
100
AcDbEntity
  8
0
100
AcDbLine
 62
7
  6
CONTINUOUS
 10
138.4042633032
 20
163.911686553
 11
159.3592633032
 21
163.911686553
  0
LINE
  5
22E
100
AcDbEntity
  8
0
100
AcDbLine
 62
7
  6
CONTINUOUS
 10
139.9042633118
 20
162.4116865445
 11
138.4042633132
 21
163.911686543
  0
LINE
  5
22F
100
AcDbEntity
  8
0
100
AcDbLine
 62
7
  6
CONTINUOUS
 10
159.3592633032
 20
172.411686553
 11
138.4042633032
 21
172.411686553
  0
LINE
  5
230
100
AcDbEntity
  8
_SURFINI
100
AcDbLine
 62
7
  6
CONTINUOUS
 10
161.6317633032
 20
173.911686553
 11
136.1317633032
 21
173.911686553
  0
LINE
  5
231
100
AcDbEntity
  8
0
100
AcDbLine
 62
7
  6
CONTINUOUS
 10
224.8817788495
 20
166.5146702592
 11
220.3423296611
 21
166.9118206018
  0
LINE
  5
232
100
AcDbEntity
  8
_SURFINI
100
AcDbLine
 62
7
  6
CONTINUOUS
 10
179.3817951037
 20
179.4118206018
 11
218.3817788495
 21
179.4118206018
  0
LINE
  5
233
100
AcDbEntity
  8
0
100
AcDbLine
 62
7
  6
CONTINUOUS
 10
131.3818107514
 20
261.6041974274
 11
131.3818107514
 21
254.1590743112
  0
LINE
  5
234
100
AcDbEntity
  8
0
100
AcDbLine
 62
7
  6
CONTINUOUS
 10
131.3818107514
 20
238.9592170061
 11
131.3818107514
 21
232.1788040648
  0
LINE
  5
235
100
AcDbEntity
  8
0
100
AcDbLine
 62
7
  6
CONTINUOUS
 10
135.1318107514
 20
231.6788040648
 11
135.1318107514
 21
230.5788040648
  0
LINE
  5
236
100
AcDbEntity
  8
DATUM_AXIS
100
AcDbLine
 62
7
  6
CONTINUOUS
 10
135.1318107514
 20
230.5788040648
 11
135.1318107514
 21
231.6788040648
  0
LWPOLYLINE
  5
237
100
AcDbEntity
  8
_SURFINI
100
AcDbPolyline
 62
7
  6
CONTINUOUS
 90
27
 70
0
 10
131.3818107514
 20
230.0788040648
 10
131.3806480433
 20
225.6341595069
 10
131.3653780788
 20
224.813568355
 10
131.3192857441
 20
224.0247900506
 10
131.2300172619
 20
223.2649204105
 10
131.0896332192
 20
222.5346154705
 10
130.8954089732
 20
221.8381796015
 10
130.649909943
 20
221.1806950106
 10
130.3554974017
 20
220.5576263824
 10
130.0135402248
 20
219.9603123826
 10
129.6405934507
 20
219.3986228186
 10
129.2485769875
 20
218.8742241449
 10
128.8309220521
 20
218.3697699441
 10
128.393629702
 20
217.8887657303
 10
127.9429613329
 20
217.4351432769
 10
127.46486349
 20
216.9947558309
 10
126.9632300787
 20
216.5738900145
 10
126.4414991748
 20
216.1785435181
 10
125.8822886765
 20
215.8019813737
 10
125.2871732333
 20
215.4561352863
 10
124.6659782168
 20
215.1578645317
 10
124.0100224812
 20
214.9087488854
 10
123.3147551119
 20
214.7112473182
 10
122.5853184679
 20
214.5680858413
 10
121.8259845041
 20
214.4766407752
 10
121.037178982
 20
214.4290377631
 10
120.2158517833
 20
214.4129425377
  0
LINE
  5
238
100
AcDbEntity
  8
0
100
AcDbLine
 62
7
  6
CONTINUOUS
 10
94.8817944972
 20
183.9136412987
 11
82.300722463
 21
183.9136412987
  0
LINE
  5
239
100
AcDbEntity
  8
0
100
AcDbLine
 62
7
  6
CONTINUOUS
 10
64.3904799945
 20
183.9136412987
 11
61.3385792916
 21
183.9136412987
  0
LINE
  5
23A
100
AcDbEntity
  8
DATUM_AXIS
100
AcDbLine
 62
7
  6
CONTINUOUS
 10
252.3817788495
 20
186.4343206018
 11
224.8817788495
 21
186.4343206018
  0
LINE
  5
23B
100
AcDbEntity
  8
0
100
AcDbLine
 62
7
  6
CONTINUOUS
 10
252.3817788495
 20
186.4343206018
 11
224.8817788495
 21
186.4343206018
  0
LINE
  5
23C
100
AcDbEntity
  8
0
100
AcDbLine
 62
2
  6
CONTINUOUS
 10
253.5592788495
 20
187.6118206018
 11
224.8817788495
 21
187.6118206018
  0
LINE
  5
23D
100
AcDbEntity
  8
_SURFINI
100
AcDbLine
 62
7
  6
CONTINUOUS
 10
136.1317633032
 20
175.7171601536
 11
136.1317633032
 21
173.911686553
  0
LINE
  5
23E
100
AcDbEntity
  8
DATUM_AXIS
100
AcDbLine
 62
7
  6
CONTINUOUS
 10
138.4042633032
 20
173.911686553
 11
138.4042633032
 21
163.911686553
  0
LINE
  5
23F
100
AcDbEntity
  8
0
100
AcDbLine
 62
7
  6
CONTINUOUS
 10
138.4042633032
 20
163.911686553
 11
138.4042633032
 21
173.911686553
  0
LINE
  5
240
100
AcDbEntity
  8
0
100
AcDbLine
 62
2
  6
CONTINUOUS
 10
139.5817633032
 20
162.734186553
 11
139.5817633032
 21
172.411686553
  0
LINE
  5
241
100
AcDbEntity
  8
DATUM_AXIS
100
AcDbLine
 62
7
  6
CENTER
 10
213.8817788495
 20
196.9118206018
 11
258.8817788495
 21
196.9118206018
  0
LINE
  5
242
100
AcDbEntity
  8
_CURVE
100
AcDbLine
 62
40
  6
CONTINUOUS
 10
147.6818107514
 20
262.6891934879
 11
147.6818107514
 21
262.5593957154
  0
LINE
  5
243
100
AcDbEntity
  8
DATUM_AXIS
100
AcDbLine
 62
7
  6
CENTER
 10
148.8817633032
 20
168.911686553
 11
148.8817633032
 21
267.5604789748
  0
LINE
  5
244
100
AcDbEntity
  8
_SURFINI
100
AcDbLine
 62
7
  6
CONTINUOUS
 10
148.8817944972
 20
223.1521019473
 11
148.8817944972
 21
230.0788040647
  0
LINE
  5
245
100
AcDbEntity
  8
_CURVE
100
AcDbLine
 62
40
  6
CONTINUOUS
 10
150.0818107514
 20
262.5594830072
 11
150.0818107514
 21
262.6892807337
  0
LINE
  5
246
100
AcDbEntity
  8
0
100
AcDbLine
 62
2
  6
CONTINUOUS
 10
253.5592788495
 20
206.2118206018
 11
224.8817788495
 21
206.2118206018
  0
LINE
  5
247
100
AcDbEntity
  8
DATUM_AXIS
100
AcDbLine
 62
7
  6
CONTINUOUS
 10
252.3817788495
 20
207.3893206018
 11
224.8817788495
 21
207.3893206018
  0
LINE
  5
248
100
AcDbEntity
  8
0
100
AcDbLine
 62
7
  6
CONTINUOUS
 10
252.3817788495
 20
207.3893206018
 11
224.8817788495
 21
207.3893206018
  0
LINE
  5
249
100
AcDbEntity
  8
0
100
AcDbLine
 62
2
  6
CONTINUOUS
 10
158.1817633032
 20
162.734186553
 11
158.1817633032
 21
172.411686553
  0
LINE
  5
24A
100
AcDbEntity
  8
DATUM_AXIS
100
AcDbLine
 62
7
  6
CONTINUOUS
 10
159.3592633032
 20
173.911686553
 11
159.3592633032
 21
163.911686553
  0
LINE
  5
24B
100
AcDbEntity
  8
0
100
AcDbLine
 62
7
  6
CONTINUOUS
 10
159.3592633032
 20
163.911686553
 11
159.3592633032
 21
173.911686553
  0
LINE
  5
24C
100
AcDbEntity
  8
_SURFINI
100
AcDbLine
 62
7
  6
CONTINUOUS
 10
161.6317633032
 20
173.911686553
 11
161.6317633032
 21
174.2395881719
  0
LINE
  5
24D
100
AcDbEntity
  8
DATUM_AXIS
100
AcDbLine
 62
7
  6
CONTINUOUS
 10
162.6318107514
 20
230.5788040648
 11
162.6318107514
 21
231.6788040648
  0
LWPOLYLINE
  5
24E
100
AcDbEntity
  8
_SURFINI
100
AcDbPolyline
 62
7
  6
CONTINUOUS
 90
13
 70
0
 10
61.3399146693
 20
214.4118142971
 10
61.3314237286
 20
214.4117649428
 10
61.2595696223
 20
214.4055347063
 10
61.1885219702
 20
214.3887688095
 10
61.1203064799
 20
214.3616588654
 10
61.0575282642
 20
214.3253523708
 10
61.0009446379
 20
214.280604814
 10
60.9519809617
 20
214.228903329
 10
60.9118182258
 20
214.1723498499
 10
60.8805708899
 20
214.1123936984
 10
60.8582680483
 20
214.050756249
 10
60.8446350597
 20
213.9894208713
 10
60.8400398975
 20
213.9500518088
  0
LINE
  5
24F
100
AcDbEntity
  8
0
100
AcDbLine
 62
7
  6
CONTINUOUS
 10
61.3399146496
 20
214.4118206065
 11
94.8817944972
 21
214.4118206065
  0
LINE
  5
250
100
AcDbEntity
  8
_SURFINI
100
AcDbLine
 62
7
  6
CONTINUOUS
 10
213.140073468
 20
214.4118206018
 11
218.3817788495
 21
214.4118206018
  0
LINE
  5
251
100
AcDbEntity
  8
_SURFINI
100
AcDbLine
 62
7
  6
CONTINUOUS
 10
120.2158517833
 20
214.4129425377
 11
94.8817944972
 21
214.4118206064
  0
LWPOLYLINE
  5
252
100
AcDbEntity
  8
_SURFINI
100
AcDbPolyline
 62
7
  6
CONTINUOUS
 90
27
 70
0
 10
213.1400733993
 20
214.4118206024
 10
212.5414356641
 20
214.413134241
 10
211.7226513485
 20
214.4292052258
 10
210.9358326112
 20
214.4768628297
 10
210.1781557646
 20
214.5685245773
 10
209.4504115875
 20
214.7121440784
 10
208.7570915215
 20
214.910348491
 10
208.1033455782
 20
215.1603839503
 10
207.4845441744
 20
215.4597952953
 10
206.8920742862
 20
215.8069211716
 10
206.3356834247
 20
216.1847565888
 10
205.8168498787
 20
216.5813067265
 10
205.3182345226
 20
217.0033025043
 10
204.8432180389
 20
217.4447048171
 10
204.3956382181
 20
217.8991870786
 10
203.96150435
 20
218.3809024859
 10
203.5470123252
 20
218.8858774777
 10
203.158087961
 20
219.4105740484
 10
202.7881719494
 20
219.9723289939
 10
202.4490745362
 20
220.5693946278
 10
202.1571488149
 20
221.1918719144
 10
201.913692261
 20
221.8484719334
 10
201.7210625622
 20
222.5437070047
 10
201.5818213791
 20
223.2724938413
 10
201.4932747852
 20
224.0306071051
 10
201.4475623374
 20
224.8174471839
 10
201.4324326556
 20
225.6359501407
  0
LWPOLYLINE
  5
253
100
AcDbEntity
  8
0
100
AcDbPolyline
 62
7
  6
CONTINUOUS
 90
14
 70
0
 10
166.381829551
 20
261.6041843547
 10
166.3785780049
 20
261.6611139098
 10
166.368000489
 20
261.7209654468
 10
166.350515196
 20
261.7783503097
 10
166.3260939932
 20
261.8335947647
 10
166.2951375712
 20
261.8855676123
 10
166.2584710351
 20
261.9330327785
 10
166.2160694379
 20
261.9760497038
 10
166.168833811
 20
262.0136092565
 10
166.117818816
 20
262.0449896689
 10
166.0629038964
 20
262.0702448746
 10
166.0048590451
 20
262.0888121931
 10
165.9454896489
 20
262.1001156602
 10
165.9163818335
 20
262.102989567
  0
LINE
  5
254
100
AcDbEntity
  8
0
100
AcDbLine
 62
7
  6
CONTINUOUS
 10
166.3818107514
 20
261.603429986
 11
166.3818107514
 21
232.1788040648
  0
LINE
  5
255
100
AcDbEntity
  8
DATUM_AXIS
100
AcDbLine
 62
7
  6
CONTINUOUS
 10
170.3092027836
 20
250.8013251594
 11
170.0814716902
 21
230.5788040648
  0
LINE
  5
256
100
AcDbEntity
  8
_SURFACE
100
AcDbLine
 62
6
  6
CONTINUOUS
 10
170.3092027836
 20
250.8013251594
 11
170.0814716902
 21
230.5788040648
  0
LINE
  5
257
100
AcDbEntity
  8
0
100
AcDbLine
 62
7
  6
CONTINUOUS
 10
170.0814716902
 20
230.5788040648
 11
170.3092027836
 21
250.8013251594
  0
LINE
  5
258
100
AcDbEntity
  8
0
100
AcDbLine
 62
7
  6
CONTINUOUS
 10
224.8817788495
 20
227.3089709444
 11
220.3423296611
 21
226.9118206018
  0
LINE
  5
259
100
AcDbEntity
  8
_SURFINI
100
AcDbLine
 62
7
  6
CONTINUOUS
 10
131.8818173944
 20
230.5788040648
 11
148.8818107507
 21
230.5788040648
  0
LINE
  5
25A
100
AcDbEntity
  8
0
100
AcDbLine
 62
7
  6
CONTINUOUS
 10
148.8818107507
 20
230.5788040648
 11
183.9314722681
 21
230.5788040648
  0
LINE
  5
25B
100
AcDbEntity
  8
_SURFACE
100
AcDbLine
 62
7
  6
CONTINUOUS
 10
170.0814716902
 20
230.5788040648
 11
197.7814716902
 21
230.5788040648
  0
LINE
  5
25C
100
AcDbEntity
  8
DATUM_AXIS
100
AcDbLine
 62
7
  6
CONTINUOUS
 10
183.6410808332
 20
230.5788040648
 11
192.0237568067
 21
230.5788040648
  0
LINE
  5
25D
100
AcDbEntity
  8
_SURFINI
100
AcDbLine
 62
7
  6
CONTINUOUS
 10
183.9314722691
 20
230.5787547619
 11
200.9285132356
 21
230.5788040648
  0
LINE
  5
25E
100
AcDbEntity
  8
0
100
AcDbLine
 62
7
  6
CONTINUOUS
 10
165.8818160016
 20
231.6788012458
 11
131.8817647059
 21
231.6788040648
  0
LINE
  5
25F
100
AcDbEntity
  8
AXES_REF
100
AcDbLine
 62
7
  6
CENTER
 10
183.9314716902
 20
254.1788040648
 11
183.9314716902
 21
199.0764413839
  0
LINE
  5
260
100
AcDbEntity
  8
0
100
AcDbLine
 62
7
  6
CONTINUOUS
 10
157.8592632955
 20
162.4116865453
 11
159.3592632942
 21
163.911686544
  0
LINE
  5
261
100
AcDbEntity
  8
DATUM_AXIS
100
AcDbLine
 62
7
  6
CONTINUOUS
 10
197.5537405968
 20
250.8013251594
 11
197.7814716902
 21
230.5788040648
  0
LINE
  5
262
100
AcDbEntity
  8
_SURFACE
100
AcDbLine
 62
6
  6
CONTINUOUS
 10
197.5537405968
 20
250.8013251594
 11
197.7814716902
 21
230.5788040648
  0
LINE
  5
263
100
AcDbEntity
  8
0
100
AcDbLine
 62
7
  6
CONTINUOUS
 10
197.7814716902
 20
230.5788040648
 11
197.5537405968
 21
250.8013251594
  0
LINE
  5
264
100
AcDbEntity
  8
_SURFINI
100
AcDbLine
 62
7
  6
CONTINUOUS
 10
201.4314716902
 20
230.0788040646
 11
201.4324326556
 21
225.6359501407
  0
LWPOLYLINE
  5
265
100
AcDbEntity
  8
0
100
AcDbPolyline
 62
7
  6
CONTINUOUS
 90
16
 70
0
 10
84.2759759276
 20
251.3090472069
 10
84.2468930211
 20
251.308801604
 10
84.218466768
 20
251.3078010459
 10
84.191139879
 20
251.3055006124
 10
84.1644748245
 20
251.3011408895
 10
84.138534884
 20
251.29378115
 10
84.1145094539
 20
251.2829042737
 10
84.0936214724
 20
251.2684215779
 10
84.0760727624
 20
251.2499897567
 10
84.0619431919
 20
251.2277001771
 10
84.0514848255
 20
251.2029575793
 10
84.0442938249
 20
251.177050802
 10
84.0394649696
 20
251.1500348614
 10
84.0361685852
 20
251.1217437716
 10
84.0338393411
 20
251.0927703576
 10
84.0165641836
 20
250.8138313088
  0
LINE
  5
266
100
AcDbEntity
  8
0
100
AcDbLine
 62
7
  6
CONTINUOUS
 10
84.2759759276
 20
251.3090472069
 11
128.531810851
 21
251.3090513792
  0
LINE
  5
267
100
AcDbEntity
  8
_SURFACE
100
AcDbLine
 62
6
  6
CONTINUOUS
 10
195.5538674007
 20
252.7788040648
 11
172.3090759796
 21
252.7788040648
  0
LINE
  5
268
100
AcDbEntity
  8
0
100
AcDbLine
 62
7
  6
CONTINUOUS
 10
172.3090759796
 20
252.7788040648
 11
195.5538674007
 21
252.7788040648
  0
LWPOLYLINE
  5
269
100
AcDbEntity
  8
0
100
AcDbPolyline
 62
7
  6
CONTINUOUS
 90
14
 70
0
 10
131.8472014578
 20
262.1030007863
 10
131.8185631228
 20
262.1001848116
 10
131.7595608241
 20
262.0890283983
 10
131.7017881108
 20
262.0706738688
 10
131.6470189676
 20
262.0456534464
 10
131.5960324612
 20
262.0144941318
 10
131.5487481739
 20
261.9771368332
 10
131.5062403119
 20
261.934292859
 10
131.4694119567
 20
261.8869425769
 10
131.4382527721
 20
261.8350114405
 10
131.4136162842
 20
261.7797356513
 10
131.3959233832
 20
261.7222391385
 10
131.3851626262
 20
261.6621748871
 10
131.3817899421
 20
261.6041980875
  0
LINE
  5
26A
100
AcDbEntity
  8
0
100
AcDbLine
 62
7
  6
CONTINUOUS
 10
218.8817788495
 20
225.3179090849
 11
218.8817788495
 21
168.5057321187
  0
LINE
  5
26B
100
AcDbEntity
  8
0
100
AcDbLine
 62
7
  6
CONTINUOUS
 10
253.8817788581
 20
205.8893205932
 11
252.3817788595
 21
207.3893205918
  0
LINE
  5
26C
100
AcDbEntity
  8
0
100
AcDbLine
 62
7
  6
CONTINUOUS
 10
224.8817788495
 20
166.5146702592
 11
224.8817788495
 21
227.3089709444
  0
LINE
  5
26D
100
AcDbEntity
  8
0
100
AcDbLine
 62
7
  6
CONTINUOUS
 10
253.8817788572
 20
187.9343206095
 11
252.3817788585
 21
186.4343206108
  0
LINE
  5
26E
100
AcDbEntity
  8
0
100
AcDbLine
 62
7
  6
CONTINUOUS
 10
252.3817788495
 20
186.4343206018
 11
252.3817788495
 21
207.3893206018
  0
LINE
  5
26F
100
AcDbEntity
  8
0
100
AcDbLine
 62
7
  6
CONTINUOUS
 10
253.5592788495
 20
187.6118206018
 11
253.5592788495
 21
206.2118206018
  0
LINE
  5
270
100
AcDbEntity
  8
0
100
AcDbLine
 62
7
  6
CONTINUOUS
 10
253.8817788495
 20
187.9343206026
 11
253.8817788495
 21
205.889320601
  0
LINE
  5
271
100
AcDbEntity
  8
0
100
AcDbLine
 62
7
  6
CONTINUOUS
 10
334.1634181832
 20
162.411686553
 11
352.1184181832
 21
162.411686553
  0
LINE
  5
272
100
AcDbEntity
  8
0
100
AcDbLine
 62
7
  6
CONTINUOUS
 10
333.8409181832
 20
162.734186553
 11
352.4409181832
 21
162.734186553
  0
LINE
  5
273
100
AcDbEntity
  8
0
100
AcDbLine
 62
7
  6
CONTINUOUS
 10
332.6634181832
 20
163.911686553
 11
353.6184181832
 21
163.911686553
  0
LINE
  5
274
100
AcDbEntity
  8
0
100
AcDbLine
 62
7
  6
CONTINUOUS
 10
353.6184181832
 20
172.411686553
 11
332.6634181832
 21
172.411686553
  0
LINE
  5
275
100
AcDbEntity
  8
0
100
AcDbLine
 62
7
  6
CONTINUOUS
 10
334.1634181832
 20
162.411686553
 11
332.6634181832
 21
163.911686553
  0
LINE
  5
276
100
AcDbEntity
  8
_SURFINI
100
AcDbLine
 62
7
  6
CONTINUOUS
 10
355.89081585
 20
173.911686553
 11
330.3910205164
 21
173.911686553
  0
LINE
  5
277
100
AcDbEntity
  8
_SURFINI
100
AcDbLine
 62
7
  6
CONTINUOUS
 10
329.1038874217
 20
186.356108085
 11
329.1878628394
 21
186.2523712399
  0
LINE
  5
278
100
AcDbEntity
  8
_SURFINI
100
AcDbLine
 62
7
  6
CONTINUOUS
 10
329.1214639694
 20
186.3605352431
 11
329.1213853525
 21
186.3606549705
  0
LINE
  5
279
100
AcDbEntity
  8
_SURFINI
100
AcDbLine
 62
7
  6
CONTINUOUS
 10
329.1217505614
 20
186.3600941799
 11
329.1235844649
 21
186.3572576314
  0
LINE
  5
27A
100
AcDbEntity
  8
_SURFINI
100
AcDbLine
 62
7
  6
CONTINUOUS
 10
329.1235844649
 20
186.3572576314
 11
329.127072641
 21
186.3518106105
  0
LINE
  5
27B
100
AcDbEntity
  8
_SURFINI
100
AcDbLine
 62
7
  6
CONTINUOUS
 10
329.127072641
 20
186.3518106105
 11
329.1323468128
 21
186.3434902336
  0
LINE
  5
27C
100
AcDbEntity
  8
_SURFINI
100
AcDbLine
 62
7
  6
CONTINUOUS
 10
329.1323468128
 20
186.3434902336
 11
329.1395263118
 21
186.3320407178
  0
LINE
  5
27D
100
AcDbEntity
  8
_SURFINI
100
AcDbLine
 62
7
  6
CONTINUOUS
 10
329.1395263118
 20
186.3320407178
 11
329.1487520063
 21
186.3171575253
  0
LINE
  5
27E
100
AcDbEntity
  8
_SURFINI
100
AcDbLine
 62
7
  6
CONTINUOUS
 10
329.1487520063
 20
186.3171575253
 11
329.1601836328
 21
186.2984872809
  0
LINE
  5
27F
100
AcDbEntity
  8
_SURFINI
100
AcDbLine
 62
7
  6
CONTINUOUS
 10
329.1601836328
 20
186.2984872809
 11
329.1739811683
 21
186.2756535469
  0
LINE
  5
280
100
AcDbEntity
  8
_SURFINI
100
AcDbLine
 62
7
  6
CONTINUOUS
 10
329.1739811683
 20
186.2756535469
 11
329.1902909088
 21
186.2482760391
  0
LINE
  5
281
100
AcDbEntity
  8
_SURFINI
100
AcDbLine
 62
7
  6
CONTINUOUS
 10
329.1902909088
 20
186.2482760391
 11
329.20263138
 21
186.2272994734
  0
LINE
  5
282
100
AcDbEntity
  8
_SURFINI
100
AcDbLine
 62
7
  6
CONTINUOUS
 10
329.20263138
 20
186.2272994734
 11
329.2161823292
 21
186.2040156354
  0
LINE
  5
283
100
AcDbEntity
  8
_SURFINI
100
AcDbLine
 62
7
  6
CONTINUOUS
 10
329.2161823292
 20
186.2040156354
 11
329.2309848778
 21
186.1782901052
  0
LINE
  5
284
100
AcDbEntity
  8
_SURFINI
100
AcDbLine
 62
7
  6
CONTINUOUS
 10
329.2309848778
 20
186.1782901052
 11
329.2470797495
 21
186.1499798103
  0
LINE
  5
285
100
AcDbEntity
  8
_SURFINI
100
AcDbLine
 62
7
  6
CONTINUOUS
 10
329.2470797495
 20
186.1499798103
 11
329.2644849687
 21
186.1189716233
  0
LINE
  5
286
100
AcDbEntity
  8
_SURFINI
100
AcDbLine
 62
7
  6
CONTINUOUS
 10
329.2644849687
 20
186.1189716233
 11
329.2832182825
 21
186.0851427245
  0
LINE
  5
287
100
AcDbEntity
  8
_SURFINI
100
AcDbLine
 62
7
  6
CONTINUOUS
 10
329.2832182825
 20
186.0851427245
 11
329.3033898229
 21
186.0481880303
  0
LINE
  5
288
100
AcDbEntity
  8
_SURFINI
100
AcDbLine
 62
7
  6
CONTINUOUS
 10
329.3033898229
 20
186.0481880303
 11
329.3250556122
 21
186.0078805373
  0
LINE
  5
289
100
AcDbEntity
  8
_SURFINI
100
AcDbLine
 62
7
  6
CONTINUOUS
 10
329.3250556122
 20
186.0078805373
 11
329.3483385379
 21
185.963845012
  0
LINE
  5
28A
100
AcDbEntity
  8
_SURFINI
100
AcDbLine
 62
7
  6
CONTINUOUS
 10
329.3483385379
 20
185.963845012
 11
329.3732761801
 21
185.9158363279
  0
LINE
  5
28B
100
AcDbEntity
  8
_SURFINI
100
AcDbLine
 62
7
  6
CONTINUOUS
 10
329.3732761801
 20
185.9158363279
 11
329.3998720122
 21
185.8636467217
  0
LWPOLYLINE
  5
28C
100
AcDbEntity
  8
_SURFINI
100
AcDbPolyline
 62
7
  6
CONTINUOUS
 90
22
 70
0
 10
329.3998720122
 20
185.8636467217
 10
329.4281567721
 20
185.8069823342
 10
329.4429441078
 20
185.7768647004
 10
329.4581557441
 20
185.7455177247
 10
329.4737768403
 20
185.7129308712
 10
329.4898327371
 20
185.6790061519
 10
329.5063104723
 20
185.6437212618
 10
329.5231848152
 20
185.6070776345
 10
329.5404585127
 20
185.5690127496
 10
329.5581142003
 20
185.5295035063
 10
329.5761220578
 20
185.4885516032
 10
329.5944622361
 20
185.4461332288
 10
329.6131104414
 20
185.4022309536
 10
329.6320349601
 20
185.3568413883
 10
329.6512016618
 20
185.3099641178
 10
329.6705821725
 20
185.2615813534
 10
329.6901405435
 20
185.2116903594
 10
329.7098291846
 20
185.1603158336
 10
329.7296191949
 20
185.1074312248
 10
329.7494678488
 20
185.0530424754
 10
329.7693066715
 20
184.9972263267
 10
329.7890768034
 20
184.9400368468
  0
LWPOLYLINE
  5
28D
100
AcDbEntity
  8
_SURFINI
100
AcDbPolyline
 62
7
  6
CONTINUOUS
 90
35
 70
0
 10
329.7890768034
 20
184.9400368468
 10
329.8087627242
 20
184.8814005602
 10
329.8283568391
 20
184.8212072229
 10
329.8478277336
 20
184.7594326227
 10
329.8671421313
 20
184.6961017093
 10
329.8862861151
 20
184.6311827463
 10
329.9052494954
 20
184.5646284877
 10
329.9239921594
 20
184.4964981981
 10
329.942458619
 20
184.4269218891
 10
329.9606286629
 20
184.3559117905
 10
329.9784856734
 20
184.2834699936
 10
329.9959871614
 20
184.2097131004
 10
330.0131192379
 20
184.1346518651
 10
330.0298700937
 20
184.058292105
 10
330.0462070989
 20
183.9807446542
 10
330.0621220853
 20
183.9020190516
 10
330.0776077826
 20
183.8221247874
 10
330.092639113
 20
183.7411742751
 10
330.1072131213
 20
183.6591764262
 10
330.1213269717
 20
183.5761440313
 10
330.1349617047
 20
183.4921970386
 10
330.1481191286
 20
183.4073446392
 10
330.1608008195
 20
183.3216021132
 10
330.1729932813
 20
183.2351002722
 10
330.1846972589
 20
183.147890785
 10
330.1959245588
 20
183.0599492805
 10
330.2066816497
 20
182.9712933155
 10
330.2169739704
 20
182.8819558947
 10
330.2268120428
 20
182.7919321354
 10
330.2362100313
 20
182.7011825687
 10
330.2451776016
 20
182.6097090478
 10
330.2537225449
 20
182.5175387579
 10
330.2618560287
 20
182.4246702413
 10
330.269588039
 20
182.3311212235
 10
330.2769296286
 20
182.2369051513
  0
LWPOLYLINE
  5
28E
100
AcDbEntity
  8
_SURFINI
100
AcDbPolyline
 62
7
  6
CONTINUOUS
 90
7
 70
0
 10
326.3364364079
 20
191.7743862718
 10
326.532109968
 20
191.1737594208
 10
326.9095223865
 20
190.1829822455
 10
327.3549100302
 20
189.1999541326
 10
327.86987941
 20
188.2289244135
 10
328.4538892972
 20
187.2776331443
 10
329.1038874217
 20
186.356108085
  0
LWPOLYLINE
  5
28F
100
AcDbEntity
  8
_SURFINI
100
AcDbPolyline
 62
7
  6
CONTINUOUS
 90
9
 70
0
 10
325.6241098718
 20
195.5734101753
 10
325.6718363673
 20
195.0425901005
 10
325.7361471751
 20
194.5112281124
 10
325.8172266276
 20
193.9790868371
 10
325.9152396324
 20
193.4464146664
 10
326.0304033833
 20
192.9137263487
 10
326.1629033583
 20
192.3819009663
 10
326.3128406237
 20
191.852153645
 10
326.3364079387
 20
191.7743595484
  0
LINE
  5
290
100
AcDbEntity
  8
_SURFINI
100
AcDbLine
 62
7
  6
CONTINUOUS
 10
325.6129991848
 20
195.732520407
 11
325.6241098718
 21
195.5734101753
  0
LWPOLYLINE
  5
291
100
AcDbEntity
  8
_SURFINI
100
AcDbPolyline
 62
7
  6
CONTINUOUS
 90
5
 70
0
 10
325.5741285163
 20
196.4040064227
 10
325.5828216997
 20
196.2333062586
 10
325.5923069841
 20
196.0624971979
 10
325.6026052137
 20
195.8915950211
 10
325.613235347
 20
195.7280505374
  0
LINE
  5
292
100
AcDbEntity
  8
_SURFINI
100
AcDbLine
 62
7
  6
CONTINUOUS
 10
325.5590308746
 20
196.7450866508
 11
325.5741285163
 21
196.4040064227
  0
LINE
  5
293
100
AcDbEntity
  8
_SURFINI
100
AcDbLine
 62
7
  6
CONTINUOUS
 10
325.546840887
 20
197.0856990131
 11
325.5590308746
 21
196.7450866508
  0
LINE
  5
294
100
AcDbEntity
  8
_SURFINI
100
AcDbLine
 62
7
  6
CONTINUOUS
 10
325.5373838785
 20
197.4258223449
 11
325.546840887
 21
197.0856990131
  0
LINE
  5
295
100
AcDbEntity
  8
_SURFINI
100
AcDbLine
 62
7
  6
CONTINUOUS
 10
325.5304851492
 20
197.765418472
 11
325.5373838785
 21
197.4258223449
  0
LINE
  5
296
100
AcDbEntity
  8
_SURFINI
100
AcDbLine
 62
7
  6
CONTINUOUS
 10
325.5259693887
 20
198.1044503733
 11
325.5304851492
 21
197.765418472
  0
LINE
  5
297
100
AcDbEntity
  8
_SURFINI
100
AcDbLine
 62
7
  6
CONTINUOUS
 10
325.6813154057
 20
209.9731237624
 11
325.6903669501
 21
209.0777498097
  0
LINE
  5
298
100
AcDbEntity
  8
_SURFINI
100
AcDbLine
 62
7
  6
CONTINUOUS
 10
325.634964848
 20
213.928622861
 11
325.6813154057
 21
209.9731237624
  0
LINE
  5
299
100
AcDbEntity
  8
_SURFINI
100
AcDbLine
 62
7
  6
CONTINUOUS
 10
325.6903669501
 20
209.0777498097
 11
325.695782418
 21
208.3203935956
  0
LINE
  5
29A
100
AcDbEntity
  8
_SURFINI
100
AcDbLine
 62
7
  6
CONTINUOUS
 10
325.5236609067
 20
198.4428981655
 11
325.5259693887
 21
198.1044503733
  0
LINE
  5
29B
100
AcDbEntity
  8
_SURFINI
100
AcDbLine
 62
7
  6
CONTINUOUS
 10
325.6270276935
 20
215.2590006542
 11
325.634964848
 21
213.928622861
  0
LINE
  5
29C
100
AcDbEntity
  8
_SURFINI
100
AcDbLine
 62
7
  6
CONTINUOUS
 10
325.695782418
 20
208.3203935956
 11
325.6981334882
 21
207.7075990694
  0
LINE
  5
29D
100
AcDbEntity
  8
0
100
AcDbLine
 62
7
  6
CONTINUOUS
 10
325.6393394583
 20
261.603429986
 11
325.6393394583
 21
232.1788040648
  0
LINE
  5
29E
100
AcDbEntity
  8
_SURFINI
100
AcDbLine
 62
7
  6
CONTINUOUS
 10
325.6406582468
 20
223.1521019472
 11
325.6406582497
 21
230.0788040646
  0
LINE
  5
29F
100
AcDbEntity
  8
_SURFINI
100
AcDbLine
 62
7
  6
CONTINUOUS
 10
325.5233843074
 20
198.7807256873
 11
325.5236609067
 21
198.4428981655
  0
LINE
  5
2A0
100
AcDbEntity
  8
_SURFINI
100
AcDbLine
 62
7
  6
CONTINUOUS
 10
325.625023373
 20
217.052063724
 11
325.6270276935
 21
215.2590006542
  0
LINE
  5
2A1
100
AcDbEntity
  8
_SURFINI
100
AcDbLine
 62
7
  6
CONTINUOUS
 10
325.6981334882
 20
207.7075990694
 11
325.6982419907
 21
207.0889408026
  0
LINE
  5
2A2
100
AcDbEntity
  8
_SURFINI
100
AcDbLine
 62
7
  6
CONTINUOUS
 10
325.6406768453
 20
222.9041115744
 11
325.6383468688
 21
221.553838388
  0
LINE
  5
2A3
100
AcDbEntity
  8
_SURFINI
100
AcDbLine
 62
7
  6
CONTINUOUS
 10
325.6383468688
 20
221.553838388
 11
325.625023373
 21
217.052063724
  0
LINE
  5
2A4
100
AcDbEntity
  8
_SURFINI
100
AcDbLine
 62
7
  6
CONTINUOUS
 10
325.6982419907
 20
207.0889408026
 11
325.6956422588
 21
206.4647164504
  0
LINE
  5
2A5
100
AcDbEntity
  8
_SURFINI
100
AcDbLine
 62
7
  6
CONTINUOUS
 10
325.5249643529
 20
199.1178980319
 11
325.5233843074
 21
198.7807256873
  0
LINE
  5
2A6
100
AcDbEntity
  8
_SURFINI
100
AcDbLine
 62
7
  6
CONTINUOUS
 10
325.6956422588
 20
206.4647164504
 11
325.6916247856
 21
205.9930997502
  0
LINE
  5
2A7
100
AcDbEntity
  8
_SURFINI
100
AcDbLine
 62
7
  6
CONTINUOUS
 10
325.5282264179
 20
199.4543966161
 11
325.5249643529
 21
199.1178980319
  0
LINE
  5
2A8
100
AcDbEntity
  8
_SURFINI
100
AcDbLine
 62
7
  6
CONTINUOUS
 10
325.6916247856
 20
205.9930997502
 11
325.6856390676
 21
205.5186535871
  0
LINE
  5
2A9
100
AcDbEntity
  8
_SURFINI
100
AcDbLine
 62
7
  6
CONTINUOUS
 10
325.5358930019
 20
199.9578057131
 11
325.5282264179
 21
199.4543966161
  0
LINE
  5
2AA
100
AcDbEntity
  8
_SURFINI
100
AcDbLine
 62
7
  6
CONTINUOUS
 10
325.6856390676
 20
205.5186535871
 11
325.6776316881
 21
205.0413565214
  0
LINE
  5
2AB
100
AcDbEntity
  8
_SURFINI
100
AcDbLine
 62
7
  6
CONTINUOUS
 10
325.6776316881
 20
205.0413565214
 11
325.6675758694
 21
204.5611478461
  0
LINE
  5
2AC
100
AcDbEntity
  8
_SURFINI
100
AcDbLine
 62
7
  6
CONTINUOUS
 10
325.5463701673
 20
200.4595272539
 11
325.5358930019
 21
199.9578057131
  0
LINE
  5
2AD
100
AcDbEntity
  8
_SURFINI
100
AcDbLine
 62
7
  6
CONTINUOUS
 10
325.6675758694
 20
204.5611478461
 11
325.6554575287
 21
204.0779569152
  0
LINE
  5
2AE
100
AcDbEntity
  8
_SURFINI
100
AcDbLine
 62
7
  6
CONTINUOUS
 10
325.563716633
 20
201.1257022573
 11
325.5463701673
 21
200.4595272539
  0
LINE
  5
2AF
100
AcDbEntity
  8
_SURFINI
100
AcDbLine
 62
7
  6
CONTINUOUS
 10
325.6554575287
 20
204.0779569152
 11
325.6365691084
 21
203.4292287728
  0
LINE
  5
2B0
100
AcDbEntity
  8
_SURFINI
100
AcDbLine
 62
7
  6
CONTINUOUS
 10
325.6365691084
 20
203.4292287728
 11
325.563716633
 21
201.1257022573
  0
LINE
  5
2B1
100
AcDbEntity
  8
_SURFINI
100
AcDbLine
 62
7
  6
CONTINUOUS
 10
330.2769296286
 20
182.2369051513
 11
330.2904929247
 21
182.0464679318
  0
LINE
  5
2B2
100
AcDbEntity
  8
_SURFINI
100
AcDbLine
 62
7
  6
CONTINUOUS
 10
330.2904929247
 20
182.0464679318
 11
330.3026477344
 21
181.853440886
  0
LINE
  5
2B3
100
AcDbEntity
  8
_SURFINI
100
AcDbLine
 62
7
  6
CONTINUOUS
 10
330.3026477344
 20
181.853440886
 11
330.3135075294
 21
181.6578808119
  0
LINE
  5
2B4
100
AcDbEntity
  8
_SURFINI
100
AcDbLine
 62
7
  6
CONTINUOUS
 10
330.3135075294
 20
181.6578808119
 11
330.3231961973
 21
181.4598385105
  0
LINE
  5
2B5
100
AcDbEntity
  8
_SURFINI
100
AcDbLine
 62
7
  6
CONTINUOUS
 10
330.3231961973
 20
181.4598385105
 11
330.331846694
 21
181.2594072041
  0
LINE
  5
2B6
100
AcDbEntity
  8
_SURFINI
100
AcDbLine
 62
7
  6
CONTINUOUS
 10
330.331846694
 20
181.2594072041
 11
330.3431997871
 21
180.9544240111
  0
LINE
  5
2B7
100
AcDbEntity
  8
_SURFINI
100
AcDbLine
 62
7
  6
CONTINUOUS
 10
330.3431997871
 20
180.9544240111
 11
330.3530519897
 21
180.6445162512
  0
LINE
  5
2B8
100
AcDbEntity
  8
_SURFINI
100
AcDbLine
 62
7
  6
CONTINUOUS
 10
330.3530519897
 20
180.6445162512
 11
330.361599416
 21
180.3298386146
  0
LINE
  5
2B9
100
AcDbEntity
  8
_SURFINI
100
AcDbLine
 62
7
  6
CONTINUOUS
 10
330.361599416
 20
180.3298386146
 11
330.3710350377
 21
179.9030045066
  0
LINE
  5
2BA
100
AcDbEntity
  8
_SURFINI
100
AcDbLine
 62
7
  6
CONTINUOUS
 10
330.3710350377
 20
179.9030045066
 11
330.3783479456
 21
179.46805324
  0
LINE
  5
2BB
100
AcDbEntity
  8
_SURFINI
100
AcDbLine
 62
7
  6
CONTINUOUS
 10
330.3783479456
 20
179.46805324
 11
330.3847714721
 21
178.9132537833
  0
LINE
  5
2BC
100
AcDbEntity
  8
_SURFINI
100
AcDbLine
 62
7
  6
CONTINUOUS
 10
330.3847714721
 20
178.9132537833
 11
330.3885986853
 21
178.3464029326
  0
LINE
  5
2BD
100
AcDbEntity
  8
_SURFINI
100
AcDbLine
 62
7
  6
CONTINUOUS
 10
330.3885986853
 20
178.3464029326
 11
330.3907182486
 21
177.5331623619
  0
LINE
  5
2BE
100
AcDbEntity
  8
_SURFINI
100
AcDbLine
 62
7
  6
CONTINUOUS
 10
330.3907182486
 20
177.5331623619
 11
330.3909056884
 21
177.177774787
  0
LINE
  5
2BF
100
AcDbEntity
  8
DATUM_AXIS
100
AcDbLine
 62
7
  6
CONTINUOUS
 10
329.3909181832
 20
230.5788040648
 11
329.3909181832
 21
231.6788040648
  0
LINE
  5
2C0
100
AcDbEntity
  8
_SURFINI
100
AcDbLine
 62
7
  6
CONTINUOUS
 10
330.3909056884
 20
177.177774787
 11
330.390925662
 21
176.9061481247
  0
LINE
  5
2C1
100
AcDbEntity
  8
_SURFINI
100
AcDbLine
 62
7
  6
CONTINUOUS
 10
330.3909181832
 20
176.8860156083
 11
330.3909181832
 21
173.911686553
  0
LINE
  5
2C2
100
AcDbEntity
  8
DATUM_AXIS
100
AcDbLine
 62
7
  6
CONTINUOUS
 10
329.3033055705
 20
231.6788040648
 11
329.2909181832
 21
230.5788040648
  0
LINE
  5
2C3
100
AcDbEntity
  8
_SURFACE
100
AcDbLine
 62
6
  6
CONTINUOUS
 10
329.3033055705
 20
231.6788040648
 11
329.2909181832
 21
230.5788040648
  0
LINE
  5
2C4
100
AcDbEntity
  8
DATUM_AXIS
100
AcDbLine
 62
7
  6
CONTINUOUS
 10
332.6634181832
 20
173.911686553
 11
332.6634181832
 21
163.911686553
  0
LINE
  5
2C5
100
AcDbEntity
  8
0
100
AcDbLine
 62
2
  6
CONTINUOUS
 10
333.8409181832
 20
162.734186553
 11
333.8409181832
 21
172.411686553
  0
LINE
  5
2C6
100
AcDbEntity
  8
_CURVE
100
AcDbLine
 62
40
  6
CONTINUOUS
 10
335.1409181832
 20
262.5624662838
 11
335.1409181832
 21
262.5594985001
  0
LINE
  5
2C7
100
AcDbEntity
  8
_CURVE
100
AcDbLine
 62
40
  6
CONTINUOUS
 10
351.1409181832
 20
262.5593957154
 11
351.1409181832
 21
262.5623635006
  0
LINE
  5
2C8
100
AcDbEntity
  8
0
100
AcDbLine
 62
2
  6
CONTINUOUS
 10
352.4409181832
 20
162.734186553
 11
352.4409181832
 21
172.411686553
  0
LINE
  5
2C9
100
AcDbEntity
  8
DATUM_AXIS
100
AcDbLine
 62
7
  6
CONTINUOUS
 10
353.6184181832
 20
173.911686553
 11
353.6184181832
 21
163.911686553
  0
LINE
  5
2CA
100
AcDbEntity
  8
DATUM_AXIS
100
AcDbLine
 62
7
  6
CONTINUOUS
 10
356.9785307958
 20
231.6788040648
 11
356.9909181832
 21
230.5788040648
  0
LINE
  5
2CB
100
AcDbEntity
  8
_SURFACE
100
AcDbLine
 62
6
  6
CONTINUOUS
 10
356.9785307958
 20
231.6788040648
 11
356.9909181832
 21
230.5788040648
  0
LINE
  5
2CC
100
AcDbEntity
  8
_SURFINI
100
AcDbLine
 62
7
  6
CONTINUOUS
 10
355.8909181832
 20
176.9045965977
 11
355.8909181832
 21
173.911686553
  0
LINE
  5
2CD
100
AcDbEntity
  8
DATUM_AXIS
100
AcDbLine
 62
7
  6
CONTINUOUS
 10
356.8909181832
 20
230.5788040648
 11
356.8909181832
 21
231.6788040648
  0
LINE
  5
2CE
100
AcDbEntity
  8
_SURFINI
100
AcDbLine
 62
7
  6
CONTINUOUS
 10
355.8909089774
 20
176.9064622734
 11
355.8910257449
 21
177.4132470951
  0
LINE
  5
2CF
100
AcDbEntity
  8
_SURFINI
100
AcDbLine
 62
7
  6
CONTINUOUS
 10
355.8910257449
 20
177.4132470951
 11
355.892745533
 21
178.2298021146
  0
LINE
  5
2D0
100
AcDbEntity
  8
_SURFINI
100
AcDbLine
 62
7
  6
CONTINUOUS
 10
355.892745533
 20
178.2298021146
 11
355.8964973202
 21
178.8445466676
  0
LINE
  5
2D1
100
AcDbEntity
  8
_SURFINI
100
AcDbLine
 62
7
  6
CONTINUOUS
 10
355.8964973202
 20
178.8445466676
 11
355.9016159791
 21
179.328012013
  0
LINE
  5
2D2
100
AcDbEntity
  8
_SURFINI
100
AcDbLine
 62
7
  6
CONTINUOUS
 10
355.9016159791
 20
179.328012013
 11
355.9079262413
 21
179.7449760395
  0
LINE
  5
2D3
100
AcDbEntity
  8
_SURFINI
100
AcDbLine
 62
7
  6
CONTINUOUS
 10
355.9079262413
 20
179.7449760395
 11
355.9148451682
 21
180.097859199
  0
LINE
  5
2D4
100
AcDbEntity
  8
_SURFINI
100
AcDbLine
 62
7
  6
CONTINUOUS
 10
355.9148451682
 20
180.097859199
 11
355.9232628561
 21
180.4465568544
  0
LINE
  5
2D5
100
AcDbEntity
  8
_SURFINI
100
AcDbLine
 62
7
  6
CONTINUOUS
 10
355.9232628561
 20
180.4465568544
 11
355.9332621854
 21
180.7910386437
  0
LINE
  5
2D6
100
AcDbEntity
  8
_SURFINI
100
AcDbLine
 62
7
  6
CONTINUOUS
 10
355.9332621854
 20
180.7910386437
 11
355.942916835
 21
181.0759619592
  0
LINE
  5
2D7
100
AcDbEntity
  8
_SURFINI
100
AcDbLine
 62
7
  6
CONTINUOUS
 10
355.942916835
 20
181.0759619592
 11
355.9517418519
 21
181.3028248767
  0
LINE
  5
2D8
100
AcDbEntity
  8
_SURFINI
100
AcDbLine
 62
7
  6
CONTINUOUS
 10
355.9517418519
 20
181.3028248767
 11
355.9591574471
 21
181.4720590253
  0
LINE
  5
2D9
100
AcDbEntity
  8
_SURFINI
100
AcDbLine
 62
7
  6
CONTINUOUS
 10
355.9591574471
 20
181.4720590253
 11
355.9673603819
 21
181.6403214459
  0
LINE
  5
2DA
100
AcDbEntity
  8
_SURFINI
100
AcDbLine
 62
7
  6
CONTINUOUS
 10
355.9673603819
 20
181.6403214459
 11
355.976438851
 21
181.8074527622
  0
LINE
  5
2DB
100
AcDbEntity
  8
_SURFINI
100
AcDbLine
 62
7
  6
CONTINUOUS
 10
355.976438851
 20
181.8074527622
 11
355.9864755231
 21
181.9733027262
  0
LINE
  5
2DC
100
AcDbEntity
  8
_SURFINI
100
AcDbLine
 62
7
  6
CONTINUOUS
 10
355.9864755231
 20
181.9733027262
 11
355.9937372546
 21
182.0830876985
  0
LINE
  5
2DD
100
AcDbEntity
  8
_SURFINI
100
AcDbLine
 62
7
  6
CONTINUOUS
 10
355.9937372546
 20
182.0830876985
 11
356.0014804536
 21
182.1921986622
  0
LINE
  5
2DE
100
AcDbEntity
  8
_SURFINI
100
AcDbLine
 62
7
  6
CONTINUOUS
 10
356.0014804536
 20
182.1921986622
 11
356.0097255595
 21
182.300600422
  0
LINE
  5
2DF
100
AcDbEntity
  8
_SURFINI
100
AcDbLine
 62
7
  6
CONTINUOUS
 10
356.0097255595
 20
182.300600422
 11
356.0184914859
 21
182.40825426
  0
LINE
  5
2E0
100
AcDbEntity
  8
_SURFINI
100
AcDbLine
 62
7
  6
CONTINUOUS
 10
356.0184914859
 20
182.40825426
 11
356.02779601
 21
182.5151237879
  0
LINE
  5
2E1
100
AcDbEntity
  8
_SURFINI
100
AcDbLine
 62
7
  6
CONTINUOUS
 10
356.02779601
 20
182.5151237879
 11
356.0376560394
 21
182.6211774821
  0
LINE
  5
2E2
100
AcDbEntity
  8
_SURFINI
100
AcDbLine
 62
7
  6
CONTINUOUS
 10
356.0376560394
 20
182.6211774821
 11
356.0480869462
 21
182.7263810896
  0
LINE
  5
2E3
100
AcDbEntity
  8
_SURFINI
100
AcDbLine
 62
7
  6
CONTINUOUS
 10
356.0480869462
 20
182.7263810896
 11
356.059102949
 21
182.8307022423
  0
LINE
  5
2E4
100
AcDbEntity
  8
_SURFINI
100
AcDbLine
 62
7
  6
CONTINUOUS
 10
356.059102949
 20
182.8307022423
 11
356.0707173708
 21
182.9341124754
  0
LINE
  5
2E5
100
AcDbEntity
  8
_SURFINI
100
AcDbLine
 62
7
  6
CONTINUOUS
 10
356.0707173708
 20
182.9341124754
 11
356.0829419897
 21
183.0365811021
  0
LINE
  5
2E6
100
AcDbEntity
  8
_SURFINI
100
AcDbLine
 62
7
  6
CONTINUOUS
 10
360.7211593538
 20
201.1906941755
 11
360.6508363959
 21
203.5097277794
  0
LINE
  5
2E7
100
AcDbEntity
  8
_SURFINI
100
AcDbLine
 62
7
  6
CONTINUOUS
 10
360.6508363959
 20
203.5097277794
 11
360.6322469973
 21
204.1791896226
  0
LINE
  5
2E8
100
AcDbEntity
  8
_SURFINI
100
AcDbLine
 62
7
  6
CONTINUOUS
 10
360.7370258646
 20
200.5561189279
 11
360.7211593538
 21
201.1906941755
  0
LINE
  5
2E9
100
AcDbEntity
  8
_SURFINI
100
AcDbLine
 62
7
  6
CONTINUOUS
 10
360.6322469973
 20
204.1791896226
 11
360.6189615935
 21
204.7474512996
  0
LINE
  5
2EA
100
AcDbEntity
  8
_SURFINI
100
AcDbLine
 62
7
  6
CONTINUOUS
 10
360.7469817724
 20
200.065251301
 11
360.7370258646
 21
200.5561189279
  0
LINE
  5
2EB
100
AcDbEntity
  8
_SURFINI
100
AcDbLine
 62
7
  6
CONTINUOUS
 10
360.6189615935
 20
204.7474512996
 11
360.6091933034
 21
205.2638048555
  0
LINE
  5
2EC
100
AcDbEntity
  8
_SURFINI
100
AcDbLine
 62
7
  6
CONTINUOUS
 10
360.7531538994
 20
199.6711470193
 11
360.7469817724
 21
200.065251301
  0
LINE
  5
2ED
100
AcDbEntity
  8
_SURFINI
100
AcDbLine
 62
7
  6
CONTINUOUS
 10
360.6091933034
 20
205.2638048555
 11
360.6017001703
 21
205.7766136473
  0
LINE
  5
2EE
100
AcDbEntity
  8
_SURFINI
100
AcDbLine
 62
7
  6
CONTINUOUS
 10
360.7570191383
 20
199.3254596649
 11
360.7531538994
 21
199.6711470193
  0
LINE
  5
2EF
100
AcDbEntity
  8
_SURFINI
100
AcDbLine
 62
7
  6
CONTINUOUS
 10
360.6017001703
 20
205.7766136473
 11
360.5960743908
 21
206.3328211137
  0
LINE
  5
2F0
100
AcDbEntity
  8
_SURFINI
100
AcDbLine
 62
7
  6
CONTINUOUS
 10
360.7592625823
 20
198.9791398217
 11
360.7570191383
 21
199.3254596649
  0
LINE
  5
2F1
100
AcDbEntity
  8
_SURFINI
100
AcDbLine
 62
7
  6
CONTINUOUS
 10
360.5960743908
 20
206.3328211137
 11
360.5929149279
 21
206.8858424435
  0
LINE
  5
2F2
100
AcDbEntity
  8
_SURFINI
100
AcDbLine
 62
7
  6
CONTINUOUS
 10
360.6441140129
 20
221.2847674039
 11
360.6410920822
 21
222.5409557646
  0
LINE
  5
2F3
100
AcDbEntity
  8
_SURFINI
100
AcDbLine
 62
7
  6
CONTINUOUS
 10
360.6410920822
 20
222.5409557646
 11
360.6409037989
 21
222.6979458741
  0
LINE
  5
2F4
100
AcDbEntity
  8
0
100
AcDbLine
 62
7
  6
CONTINUOUS
 10
360.6393394583
 20
261.603429986
 11
360.6393394583
 21
232.1788040648
  0
LINE
  5
2F5
100
AcDbEntity
  8
_SURFINI
100
AcDbLine
 62
7
  6
CONTINUOUS
 10
360.6406582529
 20
223.1521019473
 11
360.6406582501
 21
230.0788040647
  0
LINE
  5
2F6
100
AcDbEntity
  8
_SURFINI
100
AcDbLine
 62
7
  6
CONTINUOUS
 10
360.5929149279
 20
206.8858424435
 11
360.5919148571
 21
207.4807879945
  0
LINE
  5
2F7
100
AcDbEntity
  8
_SURFINI
100
AcDbLine
 62
7
  6
CONTINUOUS
 10
360.7597565386
 20
198.6819054487
 11
360.7592625823
 21
198.9791398217
  0
LINE
  5
2F8
100
AcDbEntity
  8
_SURFINI
100
AcDbLine
 62
7
  6
CONTINUOUS
 10
360.5919148571
 20
207.4807879945
 11
360.5933973547
 21
208.1610319309
  0
LINE
  5
2F9
100
AcDbEntity
  8
_SURFINI
100
AcDbLine
 62
7
  6
CONTINUOUS
 10
360.7588090635
 20
198.384362988
 11
360.7597565386
 21
198.6819054487
  0
LINE
  5
2FA
100
AcDbEntity
  8
_SURFINI
100
AcDbLine
 62
7
  6
CONTINUOUS
 10
360.5933973547
 20
208.1610319309
 11
360.5977988219
 21
208.9226034114
  0
LINE
  5
2FB
100
AcDbEntity
  8
_SURFINI
100
AcDbLine
 62
7
  6
CONTINUOUS
 10
360.7568342823
 20
198.1362135268
 11
360.7588090635
 21
198.384362988
  0
LINE
  5
2FC
100
AcDbEntity
  8
_SURFINI
100
AcDbLine
 62
7
  6
CONTINUOUS
 10
360.5977988219
 20
208.9226034114
 11
360.6060884762
 21
209.8473048029
  0
LINE
  5
2FD
100
AcDbEntity
  8
_SURFINI
100
AcDbLine
 62
7
  6
CONTINUOUS
 10
360.6060884762
 20
209.8473048029
 11
360.6441140129
 21
221.2847674039
  0
LINE
  5
2FE
100
AcDbEntity
  8
_SURFINI
100
AcDbLine
 62
7
  6
CONTINUOUS
 10
360.7537098272
 20
197.8879241109
 11
360.7568342823
 21
198.1362135268
  0
LINE
  5
2FF
100
AcDbEntity
  8
_SURFINI
100
AcDbLine
 62
7
  6
CONTINUOUS
 10
360.7493680131
 20
197.6395390274
 11
360.7537098272
 21
197.8879241109
  0
LINE
  5
300
100
AcDbEntity
  8
_SURFINI
100
AcDbLine
 62
7
  6
CONTINUOUS
 10
360.7437413758
 20
197.3911092207
 11
360.7493680131
 21
197.6395390274
  0
LINE
  5
301
100
AcDbEntity
  8
_SURFINI
100
AcDbLine
 62
7
  6
CONTINUOUS
 10
360.7382692904
 20
197.1923436938
 11
360.7437413758
 21
197.3911092207
  0
LINE
  5
302
100
AcDbEntity
  8
_SURFINI
100
AcDbLine
 62
7
  6
CONTINUOUS
 10
360.7318957738
 20
196.9935222123
 11
360.7382692904
 21
197.1923436938
  0
LINE
  5
303
100
AcDbEntity
  8
_SURFINI
100
AcDbLine
 62
7
  6
CONTINUOUS
 10
360.7245854025
 20
196.7946045091
 11
360.7318957738
 21
196.9935222123
  0
LINE
  5
304
100
AcDbEntity
  8
_SURFINI
100
AcDbLine
 62
7
  6
CONTINUOUS
 10
360.7163030078
 20
196.5955493713
 11
360.7245854025
 21
196.7946045091
  0
LINE
  5
305
100
AcDbEntity
  8
_SURFINI
100
AcDbLine
 62
7
  6
CONTINUOUS
 10
360.707013708
 20
196.3963152004
 11
360.7163030078
 21
196.5955493713
  0
LINE
  5
306
100
AcDbEntity
  8
_SURFINI
100
AcDbLine
 62
7
  6
CONTINUOUS
 10
360.6966828278
 20
196.1968582487
 11
360.707013708
 21
196.3963152004
  0
LINE
  5
307
100
AcDbEntity
  8
_SURFINI
100
AcDbLine
 62
7
  6
CONTINUOUS
 10
360.6852758974
 20
195.9971331826
 11
360.6966828278
 21
196.1968582487
  0
LINE
  5
308
100
AcDbEntity
  8
_SURFINI
100
AcDbLine
 62
7
  6
CONTINUOUS
 10
360.6727586469
 20
195.797093398
 11
360.6852758974
 21
195.9971331826
  0
LINE
  5
309
100
AcDbEntity
  8
_SURFINI
100
AcDbLine
 62
7
  6
CONTINUOUS
 10
356.0829419897
 20
183.0365811021
 11
356.0957873736
 21
183.1380786241
  0
LINE
  5
30A
100
AcDbEntity
  8
_SURFINI
100
AcDbLine
 62
7
  6
CONTINUOUS
 10
356.0957873736
 20
183.1380786241
 11
356.1092631566
 21
183.2385786531
  0
LINE
  5
30B
100
AcDbEntity
  8
_SURFINI
100
AcDbLine
 62
7
  6
CONTINUOUS
 10
356.1092631566
 20
183.2385786531
 11
356.1233773594
 21
183.3380526223
  0
LINE
  5
30C
100
AcDbEntity
  8
_SURFINI
100
AcDbLine
 62
7
  6
CONTINUOUS
 10
356.1233773594
 20
183.3380526223
 11
356.1381366085
 21
183.4364719481
  0
LINE
  5
30D
100
AcDbEntity
  8
_SURFINI
100
AcDbLine
 62
7
  6
CONTINUOUS
 10
356.1381366085
 20
183.4364719481
 11
356.1535465361
 21
183.5338106791
  0
LWPOLYLINE
  5
30E
100
AcDbEntity
  8
_SURFINI
100
AcDbPolyline
 62
7
  6
CONTINUOUS
 90
34
 70
0
 10
356.1535465361
 20
183.5338106791
 10
356.1696109084
 20
183.6300399161
 10
356.1778891014
 20
183.6777284184
 10
356.1863316178
 20
183.7251286329
 10
356.1949386529
 20
183.7722377581
 10
356.2037094829
 20
183.8190485777
 10
356.2126442355
 20
183.8655591084
 10
356.221742769
 20
183.9117663575
 10
356.2310036685
 20
183.9576615288
 10
356.2404267817
 20
184.0032428332
 10
356.2500115744
 20
184.0485070113
 10
356.2597557001
 20
184.0934429806
 10
356.2696586931
 20
184.1380491856
 10
356.2797195514
 20
184.1823220155
 10
356.2899346618
 20
184.2262472151
 10
356.3003031969
 20
184.269823509
 10
356.3108235856
 20
184.3130468477
 10
356.3214904966
 20
184.355898725
 10
356.3323026701
 20
184.3983781942
 10
356.3432578367
 20
184.4404806875
 10
356.3543483619
 20
184.4821821976
 10
356.3655724511
 20
184.5234821416
 10
356.3769269801
 20
184.5643753864
 10
356.3884012917
 20
184.6048310769
 10
356.3999929111
 20
184.6448489918
 10
356.411697683
 20
184.684423454
 10
356.4235011119
 20
184.7235154882
 10
356.435391079
 20
184.7620970229
 10
356.4473706322
 20
184.8001901333
 10
356.4594479578
 20
184.8378311832
 10
356.4716229665
 20
184.875031318
 10
356.4838835815
 20
184.9117762376
 10
356.4962210371
 20
184.9480651108
 10
356.5086370942
 20
184.9839270049
  0
LINE
  5
30F
100
AcDbEntity
  8
_SURFINI
100
AcDbLine
 62
7
  6
CONTINUOUS
 10
326.1408605532
 20
230.5788040648
 11
360.1409181832
 21
230.5788040648
  0
LINE
  5
310
100
AcDbEntity
  8
0
100
AcDbLine
 62
7
  6
CONTINUOUS
 10
360.1393593696
 20
231.6788040648
 11
326.1392211505
 21
231.6788040648
  0
LWPOLYLINE
  5
311
100
AcDbEntity
  8
_SURFINI
100
AcDbPolyline
 62
7
  6
CONTINUOUS
 90
9
 70
0
 10
359.945225205
 20
191.7752966416
 10
360.1176789963
 20
192.3800254869
 10
360.2557760826
 20
192.9362012147
 10
360.3732461655
 20
193.4842607121
 10
360.4711289527
 20
194.0230062872
 10
360.550432629
 20
194.551282236
 10
360.6122432463
 20
195.068906216
 10
360.6576828053
 20
195.5764486983
 10
360.6727586469
 20
195.797093398
  0
LWPOLYLINE
  5
312
100
AcDbEntity
  8
_SURFINI
100
AcDbPolyline
 62
7
  6
CONTINUOUS
 90
13
 70
0
 10
356.5086370942
 20
184.9839270049
 10
356.5211143007
 20
185.0193346376
 10
356.533614377
 20
185.0542046843
 10
356.5461181802
 20
185.0885110222
 10
356.5586270507
 20
185.1222836439
 10
356.5711325388
 20
185.1555244618
 10
356.5836262267
 20
185.1882349758
 10
356.5960999186
 20
185.2204167934
 10
356.6085457604
 20
185.2520719267
 10
356.6209557852
 20
185.2832016351
 10
356.6333222613
 20
185.313807335
 10
356.6456379649
 20
185.3438912538
 10
356.6578953541
 20
185.3734544031
  0
LINE
  5
313
100
AcDbEntity
  8
_SURFINI
100
AcDbLine
 62
7
  6
CONTINUOUS
 10
356.6578953541
 20
185.3734544031
 11
356.682206931
 21
185.4310250131
  0
LINE
  5
314
100
AcDbEntity
  8
_SURFINI
100
AcDbLine
 62
7
  6
CONTINUOUS
 10
356.682206931
 20
185.4310250131
 11
356.7062021203
 21
185.4865322196
  0
LINE
  5
315
100
AcDbEntity
  8
_SURFINI
100
AcDbLine
 62
7
  6
CONTINUOUS
 10
356.7062021203
 20
185.4865322196
 11
356.7298297476
 21
185.5399912854
  0
LINE
  5
316
100
AcDbEntity
  8
_SURFINI
100
AcDbLine
 62
7
  6
CONTINUOUS
 10
356.7298297476
 20
185.5399912854
 11
356.7530403512
 21
185.5914152539
  0
LINE
  5
317
100
AcDbEntity
  8
_SURFINI
100
AcDbLine
 62
7
  6
CONTINUOUS
 10
356.7530403512
 20
185.5914152539
 11
356.7757886769
 21
185.6408206991
  0
LINE
  5
318
100
AcDbEntity
  8
_SURFINI
100
AcDbLine
 62
7
  6
CONTINUOUS
 10
356.7757886769
 20
185.6408206991
 11
356.7980335969
 21
185.6882273924
  0
LINE
  5
319
100
AcDbEntity
  8
_SURFINI
100
AcDbLine
 62
7
  6
CONTINUOUS
 10
356.7980335969
 20
185.6882273924
 11
356.8197347736
 21
185.7336512877
  0
LINE
  5
31A
100
AcDbEntity
  8
_SURFINI
100
AcDbLine
 62
7
  6
CONTINUOUS
 10
356.8197347736
 20
185.7336512877
 11
356.8408571743
 21
185.7771142543
  0
LINE
  5
31B
100
AcDbEntity
  8
_SURFINI
100
AcDbLine
 62
7
  6
CONTINUOUS
 10
356.8408571743
 20
185.7771142543
 11
356.8613699038
 21
185.8186414487
  0
LINE
  5
31C
100
AcDbEntity
  8
_SURFINI
100
AcDbLine
 62
7
  6
CONTINUOUS
 10
356.8613699038
 20
185.8186414487
 11
356.8812417211
 21
185.8582524076
  0
LINE
  5
31D
100
AcDbEntity
  8
_SURFINI
100
AcDbLine
 62
7
  6
CONTINUOUS
 10
356.8812417211
 20
185.8582524076
 11
356.9004476389
 21
185.8959745415
  0
LINE
  5
31E
100
AcDbEntity
  8
_SURFINI
100
AcDbLine
 62
7
  6
CONTINUOUS
 10
356.9004476389
 20
185.8959745415
 11
356.9189664181
 21
185.9318379655
  0
LINE
  5
31F
100
AcDbEntity
  8
_SURFINI
100
AcDbLine
 62
7
  6
CONTINUOUS
 10
356.9189664181
 20
185.9318379655
 11
356.9367753345
 21
185.9658656066
  0
LINE
  5
320
100
AcDbEntity
  8
_SURFINI
100
AcDbLine
 62
7
  6
CONTINUOUS
 10
356.9367753345
 20
185.9658656066
 11
356.9538585303
 21
185.9980895268
  0
LINE
  5
321
100
AcDbEntity
  8
_SURFINI
100
AcDbLine
 62
7
  6
CONTINUOUS
 10
356.9538585303
 20
185.9980895268
 11
356.9701995657
 21
186.0285367644
  0
LINE
  5
322
100
AcDbEntity
  8
_SURFINI
100
AcDbLine
 62
7
  6
CONTINUOUS
 10
356.9701995657
 20
186.0285367644
 11
356.9857947864
 21
186.0572543032
  0
LINE
  5
323
100
AcDbEntity
  8
_SURFINI
100
AcDbLine
 62
7
  6
CONTINUOUS
 10
356.9857947864
 20
186.0572543032
 11
357.0006774975
 21
186.0843521929
  0
LINE
  5
324
100
AcDbEntity
  8
_SURFINI
100
AcDbLine
 62
7
  6
CONTINUOUS
 10
357.0006774975
 20
186.0843521929
 11
357.0148703816
 21
186.1099156559
  0
LINE
  5
325
100
AcDbEntity
  8
_SURFINI
100
AcDbLine
 62
7
  6
CONTINUOUS
 10
357.0148703816
 20
186.1099156559
 11
357.0348669317
 21
186.1454717565
  0
LINE
  5
326
100
AcDbEntity
  8
_SURFINI
100
AcDbLine
 62
7
  6
CONTINUOUS
 10
357.0348669317
 20
186.1454717565
 11
357.05329899
 21
186.1777663501
  0
LINE
  5
327
100
AcDbEntity
  8
_SURFINI
100
AcDbLine
 62
7
  6
CONTINUOUS
 10
357.05329899
 20
186.1777663501
 11
357.0701633658
 21
186.2069051943
  0
LINE
  5
328
100
AcDbEntity
  8
_SURFINI
100
AcDbLine
 62
7
  6
CONTINUOUS
 10
357.0701633658
 20
186.2069051943
 11
357.0854642934
 21
186.2329959066
  0
LINE
  5
329
100
AcDbEntity
  8
_SURFINI
100
AcDbLine
 62
7
  6
CONTINUOUS
 10
357.0854642934
 20
186.2329959066
 11
357.0992128479
 21
186.2561477259
  0
LINE
  5
32A
100
AcDbEntity
  8
_SURFINI
100
AcDbLine
 62
7
  6
CONTINUOUS
 10
357.0992128479
 20
186.2561477259
 11
357.1114261957
 21
186.2764709592
  0
LINE
  5
32B
100
AcDbEntity
  8
_SURFINI
100
AcDbLine
 62
7
  6
CONTINUOUS
 10
357.1114261957
 20
186.2764709592
 11
357.1221281925
 21
186.294078611
  0
LINE
  5
32C
100
AcDbEntity
  8
_SURFINI
100
AcDbLine
 62
7
  6
CONTINUOUS
 10
357.1221281925
 20
186.294078611
 11
357.1313578224
 21
186.3091005468
  0
LINE
  5
32D
100
AcDbEntity
  8
_SURFINI
100
AcDbLine
 62
7
  6
CONTINUOUS
 10
357.1313578224
 20
186.3091005468
 11
357.1391611899
 21
186.3216703952
  0
LINE
  5
32E
100
AcDbEntity
  8
_SURFINI
100
AcDbLine
 62
7
  6
CONTINUOUS
 10
357.1391611899
 20
186.3216703952
 11
357.1455649968
 21
186.3318838497
  0
LINE
  5
32F
100
AcDbEntity
  8
_SURFINI
100
AcDbLine
 62
7
  6
CONTINUOUS
 10
357.1455649968
 20
186.3318838497
 11
357.1519698279
 21
186.3419879951
  0
LINE
  5
330
100
AcDbEntity
  8
_SURFINI
100
AcDbLine
 62
7
  6
CONTINUOUS
 10
357.1519698279
 20
186.3419879951
 11
357.1559935858
 21
186.3482600546
  0
LINE
  5
331
100
AcDbEntity
  8
_SURFINI
100
AcDbLine
 62
7
  6
CONTINUOUS
 10
357.1559935858
 20
186.3482600546
 11
357.157505006
 21
186.3505919494
  0
LWPOLYLINE
  5
332
100
AcDbEntity
  8
_SURFINI
100
AcDbPolyline
 62
7
  6
CONTINUOUS
 90
7
 70
0
 10
357.0913693924
 20
186.2429714032
 10
357.6947737636
 20
187.0727896112
 10
358.3071742882
 20
188.0428281159
 10
358.8503613095
 20
189.0418520373
 10
359.322493744
 20
190.0622141712
 10
359.7237704588
 20
191.0991752292
 10
359.9452642937
 20
191.7752764615
  0
LINE
  5
333
100
AcDbEntity
  8
0
100
AcDbLine
 62
7
  6
CONTINUOUS
 10
352.1184181832
 20
162.411686553
 11
353.6184181832
 21
163.911686553
  0
LINE
  5
334
100
AcDbEntity
  8
_SURFINI
100
AcDbLine
 62
7
  6
CONTINUOUS
 10
60.8248284117
 20
346.0530242309
 11
60.8248444937
 21
346.0531829061
  0
LWPOLYLINE
  5
335
100
AcDbEntity
  8
0
100
AcDbPolyline
 62
7
  6
CONTINUOUS
 90
19
 70
0
 10
132.2785014718
 20
340.5347670583
 10
132.207252111
 20
340.3439132407
 10
132.1219914144
 20
340.1575203146
 10
132.0232504154
 20
339.9772260462
 10
131.9121043505
 20
339.8049963737
 10
131.789258801
 20
339.641685059
 10
131.6546514284
 20
339.4871959182
 10
131.5092456616
 20
339.3427348493
 10
131.354253224
 20
339.2094337099
 10
131.1896650284
 20
339.0872839886
 10
131.0167227167
 20
338.9772786873
 10
130.8367927914
 20
338.8802200999
 10
130.6498633176
 20
338.796104149
 10
130.4574521332
 20
338.7256681079
 10
130.2610174539
 20
338.6693723244
 10
130.0604005096
 20
338.6271832556
 10
129.8566505076
 20
338.5994630285
 10
129.6520247801
 20
338.5865219621
 10
129.5745717312
 20
338.5854693224
  0
LWPOLYLINE
  5
336
100
AcDbEntity
  8
_SURFINI
100
AcDbPolyline
 62
7
  6
CONTINUOUS
 90
3
 70
0
 10
187.9077045405
 20
317.9611186386
 10
188.3465473736
 20
318.0693303521
 10
188.4338850505
 20
318.093597363
  0
LINE
  5
337
100
AcDbEntity
  8
_SURFINI
100
AcDbLine
 62
7
  6
CONTINUOUS
 10
187.6516388493
 20
317.9034715121
 11
187.9077045405
 21
317.9611186386
  0
LINE
  5
338
100
AcDbEntity
  8
_SURFINI
100
AcDbLine
 62
7
  6
CONTINUOUS
 10
187.5414546845
 20
317.8798905756
 11
187.6516388493
 21
317.9034715121
  0
LINE
  5
339
100
AcDbEntity
  8
_SURFINI
100
AcDbLine
 62
7
  6
CONTINUOUS
 10
187.4191287078
 20
317.85457465
 11
187.5414546845
 21
317.8798905756
  0
LINE
  5
33A
100
AcDbEntity
  8
_SURFINI
100
AcDbLine
 62
7
  6
CONTINUOUS
 10
187.3999741633
 20
317.8506922869
 11
187.4191287078
 21
317.85457465
  0
LINE
  5
33B
100
AcDbEntity
  8
_SURFINI
100
AcDbLine
 62
7
  6
CONTINUOUS
 10
189.5553522241
 20
318.4256452335
 11
189.5031414897
 21
318.416057797
  0
LINE
  5
33C
100
AcDbEntity
  8
_SURFINI
100
AcDbLine
 62
7
  6
CONTINUOUS
 10
185.3269166474
 20
317.6491792838
 11
184.6039309195
 21
317.516417701
  0
LINE
  5
33D
100
AcDbEntity
  8
_SURFINI
100
AcDbLine
 62
7
  6
CONTINUOUS
 10
185.3887507192
 20
317.5643127969
 11
185.3861001062
 21
317.5640913581
  0
LINE
  5
33E
100
AcDbEntity
  8
_SURFINI
100
AcDbLine
 62
7
  6
CONTINUOUS
 10
185.3416863931
 20
317.5604470486
 11
185.3834357767
 21
317.5638691788
  0
LINE
  5
33F
100
AcDbEntity
  8
0
100
AcDbLine
 62
7
  6
CONTINUOUS
 10
220.3423296611
 20
305.0032587683
 11
224.8817788495
 21
304.6061084257
  0
LINE
  5
340
100
AcDbEntity
  8
_SURFINI
100
AcDbLine
 62
7
  6
CONTINUOUS
 10
142.4875268139
 20
318.7132430027
 11
142.5895774402
 21
318.6735743376
  0
LINE
  5
341
100
AcDbEntity
  8
_SURFINI
100
AcDbLine
 62
7
  6
CONTINUOUS
 10
142.3851221865
 20
318.7537895242
 11
142.4875268139
 21
318.7132430027
  0
LINE
  5
342
100
AcDbEntity
  8
_SURFINI
100
AcDbLine
 62
7
  6
CONTINUOUS
 10
142.2824274553
 20
318.7952014059
 11
142.3851221865
 21
318.7537895242
  0
LINE
  5
343
100
AcDbEntity
  8
_SURFINI
100
AcDbLine
 62
7
  6
CONTINUOUS
 10
142.1795286422
 20
318.8374554267
 11
142.2824274553
 21
318.7952014059
  0
LINE
  5
344
100
AcDbEntity
  8
_SURFINI
100
AcDbLine
 62
7
  6
CONTINUOUS
 10
142.0765230088
 20
318.8805213629
 11
142.1795286422
 21
318.8374554267
  0
LINE
  5
345
100
AcDbEntity
  8
_SURFINI
100
AcDbLine
 62
7
  6
CONTINUOUS
 10
141.9734971673
 20
318.9243709047
 11
142.0765230088
 21
318.8805213629
  0
LINE
  5
346
100
AcDbEntity
  8
_SURFINI
100
AcDbLine
 62
7
  6
CONTINUOUS
 10
141.8701388353
 20
318.9691473864
 11
141.9734971673
 21
318.9243709047
  0
LINE
  5
347
100
AcDbEntity
  8
_SURFINI
100
AcDbLine
 62
7
  6
CONTINUOUS
 10
141.766478577
 20
319.0148508581
 11
141.8701388353
 21
318.9691473864
  0
LINE
  5
348
100
AcDbEntity
  8
_SURFINI
100
AcDbLine
 62
7
  6
CONTINUOUS
 10
141.6627292347
 20
319.0613981147
 11
141.766478577
 21
319.0148508581
  0
LINE
  5
349
100
AcDbEntity
  8
_SURFINI
100
AcDbLine
 62
7
  6
CONTINUOUS
 10
141.5591118363
 20
319.1086957289
 11
141.6627292347
 21
319.0613981147
  0
LINE
  5
34A
100
AcDbEntity
  8
_SURFINI
100
AcDbLine
 62
7
  6
CONTINUOUS
 10
141.4558642645
 20
319.1566355298
 11
141.5591118363
 21
319.1086957289
  0
LINE
  5
34B
100
AcDbEntity
  8
_SURFINI
100
AcDbLine
 62
7
  6
CONTINUOUS
 10
141.3532820207
 20
319.2050744135
 11
141.4558642645
 21
319.1566355298
  0
LINE
  5
34C
100
AcDbEntity
  8
_SURFINI
100
AcDbLine
 62
7
  6
CONTINUOUS
 10
141.2517790676
 20
319.2538025445
 11
141.3532820207
 21
319.2050744135
  0
LINE
  5
34D
100
AcDbEntity
  8
_SURFINI
100
AcDbLine
 62
7
  6
CONTINUOUS
 10
141.1515872079
 20
319.3026865506
 11
141.2517790676
 21
319.2538025445
  0
LINE
  5
34E
100
AcDbEntity
  8
_SURFINI
100
AcDbLine
 62
7
  6
CONTINUOUS
 10
141.0529210729
 20
319.3515942886
 11
141.1515872079
 21
319.3026865506
  0
LINE
  5
34F
100
AcDbEntity
  8
_SURFINI
100
AcDbLine
 62
7
  6
CONTINUOUS
 10
140.9559978897
 20
319.400385574
 11
141.0529210729
 21
319.3515942886
  0
LINE
  5
350
100
AcDbEntity
  8
_SURFINI
100
AcDbLine
 62
7
  6
CONTINUOUS
 10
140.8610303667
 20
319.4489158835
 11
140.9559978897
 21
319.400385574
  0
LINE
  5
351
100
AcDbEntity
  8
_SURFINI
100
AcDbLine
 62
7
  6
CONTINUOUS
 10
140.7682180589
 20
319.4970412253
 11
140.8610303667
 21
319.4489158835
  0
LINE
  5
352
100
AcDbEntity
  8
_SURFINI
100
AcDbLine
 62
7
  6
CONTINUOUS
 10
140.6777387985
 20
319.5446234045
 11
140.7682180589
 21
319.4970412253
  0
LINE
  5
353
100
AcDbEntity
  8
_SURFINI
100
AcDbLine
 62
7
  6
CONTINUOUS
 10
140.5897417247
 20
319.5915348249
 11
140.6777387985
 21
319.5446234045
  0
LINE
  5
354
100
AcDbEntity
  8
_SURFINI
100
AcDbLine
 62
7
  6
CONTINUOUS
 10
140.504343022
 20
319.6376621104
 11
140.5897417247
 21
319.5915348249
  0
LINE
  5
355
100
AcDbEntity
  8
_SURFINI
100
AcDbLine
 62
7
  6
CONTINUOUS
 10
140.4216248145
 20
319.6829081309
 11
140.504343022
 21
319.6376621104
  0
LINE
  5
356
100
AcDbEntity
  8
_SURFINI
100
AcDbLine
 62
7
  6
CONTINUOUS
 10
140.3416370066
 20
319.7271923704
 11
140.4216248145
 21
319.6829081309
  0
LINE
  5
357
100
AcDbEntity
  8
_SURFINI
100
AcDbLine
 62
7
  6
CONTINUOUS
 10
140.2644013782
 20
319.7704498773
 11
140.3416370066
 21
319.7271923704
  0
LINE
  5
358
100
AcDbEntity
  8
_SURFINI
100
AcDbLine
 62
7
  6
CONTINUOUS
 10
140.1899170264
 20
319.8126292115
 11
140.2644013782
 21
319.7704498773
  0
LINE
  5
359
100
AcDbEntity
  8
_SURFINI
100
AcDbLine
 62
7
  6
CONTINUOUS
 10
140.1181662683
 20
319.8536898511
 11
140.1899170264
 21
319.8126292115
  0
LINE
  5
35A
100
AcDbEntity
  8
_SURFINI
100
AcDbLine
 62
7
  6
CONTINUOUS
 10
140.0266995253
 20
319.9066424944
 11
140.1181662683
 21
319.8536898511
  0
LINE
  5
35B
100
AcDbEntity
  8
_SURFINI
100
AcDbLine
 62
7
  6
CONTINUOUS
 10
139.9399596749
 20
319.9574860082
 11
140.0266995253
 21
319.9066424944
  0
LINE
  5
35C
100
AcDbEntity
  8
_SURFINI
100
AcDbLine
 62
7
  6
CONTINUOUS
 10
139.857841548
 20
320.0061781969
 11
139.9399596749
 21
319.9574860082
  0
LINE
  5
35D
100
AcDbEntity
  8
_SURFINI
100
AcDbLine
 62
7
  6
CONTINUOUS
 10
139.7801775482
 20
320.0527219937
 11
139.857841548
 21
320.0061781969
  0
LINE
  5
35E
100
AcDbEntity
  8
_SURFINI
100
AcDbLine
 62
7
  6
CONTINUOUS
 10
139.6891482399
 20
320.1078735305
 11
139.7801775482
 21
320.0527219937
  0
LINE
  5
35F
100
AcDbEntity
  8
_SURFINI
100
AcDbLine
 62
7
  6
CONTINUOUS
 10
139.6046433934
 20
320.1596334945
 11
139.6891482399
 21
320.1078735305
  0
LINE
  5
360
100
AcDbEntity
  8
_SURFINI
100
AcDbLine
 62
7
  6
CONTINUOUS
 10
139.5116463599
 20
320.2171922896
 11
139.6046433934
 21
320.1596334945
  0
LINE
  5
361
100
AcDbEntity
  8
_SURFINI
100
AcDbLine
 62
7
  6
CONTINUOUS
 10
139.414588027
 20
320.2778857289
 11
139.5116463599
 21
320.2171922896
  0
LINE
  5
362
100
AcDbEntity
  8
_SURFINI
100
AcDbLine
 62
7
  6
CONTINUOUS
 10
139.0966946524
 20
320.4794578317
 11
139.1026892092
 21
320.4756904403
  0
LINE
  5
363
100
AcDbEntity
  8
_SURFINI
100
AcDbLine
 62
7
  6
CONTINUOUS
 10
139.2870141661
 20
320.3584891665
 11
139.414588027
 21
320.2778857289
  0
LINE
  5
364
100
AcDbEntity
  8
_SURFINI
100
AcDbLine
 62
7
  6
CONTINUOUS
 10
139.1026892092
 20
320.4756904403
 11
139.1577026015
 21
320.4407842669
  0
LINE
  5
365
100
AcDbEntity
  8
_SURFINI
100
AcDbLine
 62
7
  6
CONTINUOUS
 10
139.1577026015
 20
320.4407842669
 11
139.2870141661
 21
320.3584891665
  0
LWPOLYLINE
  5
366
100
AcDbEntity
  8
_SURFINI
100
AcDbPolyline
 62
7
  6
CONTINUOUS
 90
4
 70
0
 10
185.1079988551
 20
317.5431048793
 10
185.1573184169
 20
317.5465019801
 10
185.2040075421
 20
317.5498468627
 10
185.3416863931
 20
317.5604470486
  0
LINE
  5
367
100
AcDbEntity
  8
_SURFINI
100
AcDbLine
 62
7
  6
CONTINUOUS
 10
185.0010452277
 20
317.5362186766
 11
185.1079988551
 21
317.5431048793
  0
LINE
  5
368
100
AcDbEntity
  8
_SURFINI
100
AcDbLine
 62
7
  6
CONTINUOUS
 10
185.379819683
 20
317.5635682826
 11
184.5335645409
 21
317.5138510748
  0
LINE
  5
369
100
AcDbEntity
  8
_SURFINI
100
AcDbLine
 62
7
  6
CONTINUOUS
 10
184.8846430644
 20
317.5294715723
 11
185.0010452277
 21
317.5362186766
  0
LINE
  5
36A
100
AcDbEntity
  8
_SURFINI
100
AcDbLine
 62
7
  6
CONTINUOUS
 10
184.7614001062
 20
317.5231767299
 11
184.8846430644
 21
317.5294715723
  0
LINE
  5
36B
100
AcDbEntity
  8
_SURFINI
100
AcDbLine
 62
7
  6
CONTINUOUS
 10
184.6332641079
 20
317.5175574792
 11
184.7614001062
 21
317.5231767299
  0
LINE
  5
36C
100
AcDbEntity
  8
_SURFINI
100
AcDbLine
 62
7
  6
CONTINUOUS
 10
184.5040881702
 20
317.512847657
 11
184.6332641079
 21
317.5175574792
  0
LINE
  5
36D
100
AcDbEntity
  8
_SURFINI
100
AcDbLine
 62
7
  6
CONTINUOUS
 10
184.3735341881
 20
317.5090620198
 11
184.5040881702
 21
317.512847657
  0
LINE
  5
36E
100
AcDbEntity
  8
_SURFINI
100
AcDbLine
 62
7
  6
CONTINUOUS
 10
184.2434278608
 20
317.506264141
 11
184.3735341881
 21
317.5090620198
  0
LINE
  5
36F
100
AcDbEntity
  8
_SURFINI
100
AcDbLine
 62
7
  6
CONTINUOUS
 10
183.9314716902
 20
317.5035187015
 11
184.5333030484
 21
317.5138703627
  0
LINE
  5
370
100
AcDbEntity
  8
_SURFINI
100
AcDbLine
 62
7
  6
CONTINUOUS
 10
184.1155150716
 20
317.5044621913
 11
184.2434278608
 21
317.506264141
  0
LINE
  5
371
100
AcDbEntity
  8
_SURFINI
100
AcDbLine
 62
7
  6
CONTINUOUS
 10
185.6433601033
 20
317.4585721669
 11
188.4395615939
 21
317.4883848686
  0
LINE
  5
372
100
AcDbEntity
  8
_SURFINI
100
AcDbLine
 62
7
  6
CONTINUOUS
 10
188.4395615939
 20
317.4883848686
 11
189.4257405143
 21
317.496778333
  0
LINE
  5
373
100
AcDbEntity
  8
_SURFINI
100
AcDbLine
 62
7
  6
CONTINUOUS
 10
184.7582126905
 20
317.4524665485
 11
185.6433601033
 21
317.4585721669
  0
LINE
  5
374
100
AcDbEntity
  8
_SURFINI
100
AcDbLine
 62
7
  6
CONTINUOUS
 10
184.0137020932
 20
317.503700083
 11
184.1155150716
 21
317.5044621913
  0
LWPOLYLINE
  5
375
100
AcDbEntity
  8
_SURFINI
100
AcDbPolyline
 62
7
  6
CONTINUOUS
 90
6
 70
0
 10
164.7236906274
 20
317.4164254785
 10
166.5036092271
 20
317.4270201491
 10
168.3100135828
 20
317.4352963594
 10
170.1439705235
 20
317.4414597921
 10
172.0057905967
 20
317.4457415289
 10
173.8953552447
 20
317.448415749
  0
LINE
  5
376
100
AcDbEntity
  8
_SURFINI
100
AcDbLine
 62
7
  6
CONTINUOUS
 10
189.4257405143
 20
317.496778333
 11
190.4504619875
 21
317.5021274818
  0
LINE
  5
377
100
AcDbEntity
  8
_SURFINI
100
AcDbLine
 62
7
  6
CONTINUOUS
 10
183.9314859977
 20
317.4503333296
 11
184.7582126905
 21
317.4524665485
  0
LINE
  5
378
100
AcDbEntity
  8
_SURFINI
100
AcDbLine
 62
7
  6
CONTINUOUS
 10
173.8953552447
 20
317.448415749
 11
177.7566480217
 21
317.4503558304
  0
LINE
  5
379
100
AcDbEntity
  8
_SURFINI
100
AcDbLine
 62
7
  6
CONTINUOUS
 10
177.7566480217
 20
317.4503558304
 11
183.9314143196
 21
317.450661015
  0
LINE
  5
37A
100
AcDbEntity
  8
_SURFINI
100
AcDbLine
 62
7
  6
CONTINUOUS
 10
190.4504619875
 20
317.5021274818
 11
218.3817788495
 21
317.5032111463
  0
LINE
  5
37B
100
AcDbEntity
  8
0
100
AcDbLine
 62
7
  6
CONTINUOUS
 10
148.8817944972
 20
317.5035187013
 11
183.9314722968
 21
317.5035187013
  0
LINE
  5
37C
100
AcDbEntity
  8
_SURFINI
100
AcDbLine
 62
7
  6
CONTINUOUS
 10
183.9323371663
 20
317.5035186045
 11
184.0137020932
 21
317.503700083
  0
LWPOLYLINE
  5
37D
100
AcDbEntity
  8
_SURFINI
100
AcDbPolyline
 62
7
  6
CONTINUOUS
 90
8
 70
0
 10
152.8589230181
 20
317.4942483329
 10
153.0188089101
 20
317.4867029198
 10
154.6001455346
 20
317.435332655
 10
156.2142797482
 20
317.4032446498
 10
157.8588871888
 20
317.3874710735
 10
159.5340649574
 20
317.3847670859
 10
161.2386968877
 20
317.3915182845
 10
164.7236906274
 20
317.4164254785
  0
LINE
  5
37E
100
AcDbEntity
  8
_SURFINI
100
AcDbLine
 62
7
  6
CONTINUOUS
 10
142.4559091051
 20
318.5994454329
 11
143.0595334026
 21
318.5002472477
  0
LINE
  5
37F
100
AcDbEntity
  8
_SURFINI
100
AcDbLine
 62
7
  6
CONTINUOUS
 10
141.5230824654
 20
318.7568020149
 11
142.4559091051
 21
318.5994454329
  0
LINE
  5
380
100
AcDbEntity
  8
_SURFINI
100
AcDbLine
 62
7
  6
CONTINUOUS
 10
140.5512657142
 20
318.9246298914
 11
141.5230824654
 21
318.7568020149
  0
LINE
  5
381
100
AcDbEntity
  8
_SURFINI
100
AcDbLine
 62
7
  6
CONTINUOUS
 10
140.5512657142
 20
318.9246298914
 11
139.784052247
 21
319.0593397732
  0
LINE
  5
382
100
AcDbEntity
  8
_CURVE
100
AcDbLine
 62
40
  6
CONTINUOUS
 10
147.6818107514
 20
343.0032587683
 11
147.6818107514
 21
327.0032587683
  0
LINE
  5
383
100
AcDbEntity
  8
_CURVE
100
AcDbLine
 62
40
  6
CONTINUOUS
 10
150.0818107514
 20
327.0032587683
 11
150.0818107514
 21
343.0032587683
  0
LINE
  5
384
100
AcDbEntity
  8
_SURFINI
100
AcDbLine
 62
7
  6
CONTINUOUS
 10
61.3222552036
 20
323.5035933021
 11
94.8817944972
 21
323.5035933021
  0
LINE
  5
385
100
AcDbEntity
  8
DATUM_AXIS
100
AcDbLine
 62
7
  6
CONTINUOUS
 10
252.3817788495
 20
324.5257587683
 11
224.8817788495
 21
324.5257587683
  0
LINE
  5
386
100
AcDbEntity
  8
0
100
AcDbLine
 62
2
  6
CONTINUOUS
 10
253.5592788495
 20
325.7032587683
 11
224.8817788495
 21
325.7032587683
  0
LINE
  5
387
100
AcDbEntity
  8
_CURVE
100
AcDbLine
 62
40
  6
CONTINUOUS
 10
147.6818107514
 20
327.0032587683
 11
150.081810645
 21
327.0032587683
  0
LWPOLYLINE
  5
388
100
AcDbEntity
  8
_SURFINI
100
AcDbPolyline
 62
7
  6
CONTINUOUS
 90
13
 70
0
 10
94.8817944972
 20
323.5035933014
 10
98.7069329613
 20
323.5002063556
 10
102.8041196658
 20
323.4733447108
 10
106.8253362219
 20
323.3994661023
 10
110.7778512522
 20
323.2570975486
 10
114.6591838229
 20
323.0271680848
 10
118.4571935564
 20
322.6941454684
 10
122.1686519345
 20
322.2452959631
 10
125.8004767913
 20
321.6813417512
 10
129.3555064438
 20
321.0428377035
 10
132.8310938765
 20
320.3747620909
 10
136.2324267547
 20
319.7154039886
 10
139.784052247
 20
319.0593397732
  0
LINE
  5
389
100
AcDbEntity
  8
0
100
AcDbLine
 62
7
  6
CONTINUOUS
 10
84.2769874334
 20
331.4212487457
 11
129.5758902933
 21
331.4212487457
  0
LWPOLYLINE
  5
38A
100
AcDbEntity
  8
0
100
AcDbPolyline
 62
7
  6
CONTINUOUS
 90
19
 70
0
 10
129.5757149703
 20
331.4212188228
 10
129.6696625802
 20
331.4196660048
 10
129.8875187806
 20
331.4041045223
 10
130.1007448302
 20
331.3724240052
 10
130.3061314094
 20
331.326006434
 10
130.5031459376
 20
331.2660657486
 10
130.6939175938
 20
331.192641442
 10
130.8774661745
 20
331.1065036323
 10
131.0521153386
 20
331.0089010501
 10
131.2188782905
 20
330.8997452053
 10
131.3764817751
 20
330.7800750958
 10
131.5241701047
 20
330.650930793
 10
131.6631785376
 20
330.5113184341
 10
131.7920334263
 20
330.3626422608
 10
131.9102644232
 20
330.2055553079
 10
132.0194778782
 20
330.0371927185
 10
132.1188398942
 20
329.8571883268
 10
132.2059377005
 20
329.6681676131
 10
132.2795853607
 20
329.4716547769
  0
LWPOLYLINE
  5
38B
100
AcDbEntity
  8
0
100
AcDbPolyline
 62
7
  6
CONTINUOUS
 90
16
 70
0
 10
84.2698088806
 20
338.5855424834
 10
84.241015032
 20
338.5852891744
 10
84.212924384
 20
338.584276058
 10
84.185970551
 20
338.5819665566
 10
84.1597750891
 20
338.5776295606
 10
84.1344093051
 20
338.5703941345
 10
84.1109408806
 20
338.5597837585
 10
84.0904607662
 20
338.5456944281
 10
84.0731428476
 20
338.5277874896
 10
84.0590579299
 20
338.5061520059
 10
84.0484461942
 20
338.4820824292
 10
84.0409459013
 20
338.4567689496
 10
84.0357125307
 20
338.4302761229
 10
84.0319549012
 20
338.4024811949
 10
84.0291376718
 20
338.3739893273
 10
84.0276109036
 20
338.3558139205
  0
LINE
  5
38C
100
AcDbEntity
  8
0
100
AcDbLine
 62
7
  6
CONTINUOUS
 10
129.5749075522
 20
338.5854700133
 11
84.2698088806
 21
338.5855424834
  0
LINE
  5
38D
100
AcDbEntity
  8
_CURVE
100
AcDbLine
 62
40
  6
CONTINUOUS
 10
150.0818107514
 20
343.0032587683
 11
147.6818107732
 21
343.0032587683
  0
LINE
  5
38E
100
AcDbEntity
  8
0
100
AcDbLine
 62
2
  6
CONTINUOUS
 10
253.5592788495
 20
344.3032587683
 11
224.8817788495
 21
344.3032587683
  0
LINE
  5
38F
100
AcDbEntity
  8
DATUM_AXIS
100
AcDbLine
 62
7
  6
CONTINUOUS
 10
252.3817788495
 20
345.4807587683
 11
224.8817788495
 21
345.4807587683
  0
LINE
  5
390
100
AcDbEntity
  8
_SURFINI
100
AcDbLine
 62
7
  6
CONTINUOUS
 10
94.8817944972
 20
346.5029298629
 11
61.3428225796
 21
346.5029298629
  0
LWPOLYLINE
  5
391
100
AcDbEntity
  8
_SURFINI
100
AcDbPolyline
 62
7
  6
CONTINUOUS
 90
13
 70
0
 10
61.3428184669
 20
346.5026096988
 10
61.3145475867
 20
346.5029688912
 10
61.2412589759
 20
346.4964128626
 10
61.1688568531
 20
346.4788925053
 10
61.0996804781
 20
346.4507202501
 10
61.036251732
 20
346.4131020608
 10
60.9796175
 20
346.3671024963
 10
60.9308281553
 20
346.3140412635
 10
60.8913318269
 20
346.2564932971
 10
60.8617244021
 20
346.1975736869
 10
60.8413437066
 20
346.1396280177
 10
60.8289047448
 20
346.0839059418
 10
60.8246640596
 20
346.0514025452
  0
LWPOLYLINE
  5
392
100
AcDbEntity
  8
_SURFINI
100
AcDbPolyline
 62
7
  6
CONTINUOUS
 90
13
 70
0
 10
139.5728901148
 20
350.9092600178
 10
136.230739187
 20
350.2903331665
 10
132.8285656665
 20
349.6308961095
 10
129.3523136167
 20
348.962805585
 10
125.7968575384
 20
348.3243746015
 10
122.1647794774
 20
347.7605682056
 10
118.4533613251
 20
347.3119134555
 10
114.6558715355
 20
346.9790830135
 10
110.7753709045
 20
346.7492996572
 10
106.8235984526
 20
346.6070113978
 10
102.8029334772
 20
346.5331668437
 10
98.7063110521
 20
346.5063157786
 10
94.8817944972
 20
346.5029298631
  0
LINE
  5
393
100
AcDbEntity
  8
_SURFINI
100
AcDbLine
 62
7
  6
CONTINUOUS
 10
140.7853367187
 20
351.1211283664
 11
139.5728901148
 21
350.9092600178
  0
LINE
  5
394
100
AcDbEntity
  8
_SURFINI
100
AcDbLine
 62
7
  6
CONTINUOUS
 10
141.797403264
 20
351.294318628
 11
140.7853367187
 21
351.1211283664
  0
LWPOLYLINE
  5
395
100
AcDbEntity
  8
_SURFINI
100
AcDbPolyline
 62
7
  6
CONTINUOUS
 90
3
 70
0
 10
143.0913037361
 20
351.5087219242
 10
142.7629583006
 20
351.4552982074
 10
141.797403264
 20
351.294318628
  0
LINE
  5
396
100
AcDbEntity
  8
0
100
AcDbLine
 62
7
  6
CONTINUOUS
 10
183.9314722968
 20
352.5035187017
 11
148.9170458371
 21
352.5035187017
  0
LINE
  5
397
100
AcDbEntity
  8
_SURFINI
100
AcDbLine
 62
7
  6
CONTINUOUS
 10
218.3817788495
 20
352.5032111463
 11
190.9732183447
 21
352.5033628234
  0
LINE
  5
398
100
AcDbEntity
  8
_SURFINI
100
AcDbLine
 62
7
  6
CONTINUOUS
 10
175.8477822868
 20
352.5572768125
 11
172.045534146
 21
352.5606789086
  0
LINE
  5
399
100
AcDbEntity
  8
_SURFINI
100
AcDbLine
 62
7
  6
CONTINUOUS
 10
184.2897897045
 20
352.5558420528
 11
175.8477822868
 21
352.5572768125
  0
LWPOLYLINE
  5
39A
100
AcDbEntity
  8
_SURFINI
100
AcDbPolyline
 62
7
  6
CONTINUOUS
 90
6
 70
0
 10
172.045534146
 20
352.5606789086
 10
170.1847177204
 20
352.5645082462
 10
168.3511620359
 20
352.5702107955
 10
166.5448840123
 20
352.5780834654
 10
164.7654956466
 20
352.5883919541
 10
161.2857591048
 20
352.6133445625
  0
LWPOLYLINE
  5
39B
100
AcDbEntity
  8
_SURFINI
100
AcDbPolyline
 62
7
  6
CONTINUOUS
 90
7
 70
0
 10
161.2857591048
 20
352.6133445625
 10
159.5849352335
 20
352.6204306193
 10
157.9126201843
 20
352.6181928919
 10
156.2692725831
 20
352.6029424225
 10
154.6546456692
 20
352.5713635417
 10
153.0710118294
 20
352.520407162
 10
152.8774299625
 20
352.5113209086
  0
LINE
  5
39C
100
AcDbEntity
  8
_SURFINI
100
AcDbLine
 62
7
  6
CONTINUOUS
 10
190.9732183447
 20
352.5033628234
 11
189.9235304862
 21
352.5067995658
  0
LINE
  5
39D
100
AcDbEntity
  8
_SURFINI
100
AcDbLine
 62
7
  6
CONTINUOUS
 10
185.1636556
 20
352.5518094285
 11
184.2897897045
 21
352.5558420528
  0
LINE
  5
39E
100
AcDbEntity
  8
_SURFINI
100
AcDbLine
 62
7
  6
CONTINUOUS
 10
189.9235304862
 20
352.5067995658
 11
188.9134704857
 21
352.5139126426
  0
LINE
  5
39F
100
AcDbEntity
  8
_SURFINI
100
AcDbLine
 62
7
  6
CONTINUOUS
 10
186.067148479
 20
352.5440630484
 11
185.1636556
 21
352.5518094285
  0
LINE
  5
3A0
100
AcDbEntity
  8
_SURFINI
100
AcDbLine
 62
7
  6
CONTINUOUS
 10
188.9134704857
 20
352.5139126426
 11
187.9422312025
 21
352.5233957324
  0
LINE
  5
3A1
100
AcDbEntity
  8
_SURFINI
100
AcDbLine
 62
7
  6
CONTINUOUS
 10
187.9422312025
 20
352.5233957324
 11
186.067148479
 21
352.5440630484
  0
LINE
  5
3A2
100
AcDbEntity
  8
0
100
AcDbLine
 62
7
  6
CONTINUOUS
 10
220.3423296611
 20
365.0032587683
 11
224.8817788495
 21
365.400409111
  0
LINE
  5
3A3
100
AcDbEntity
  8
_SURFINI
100
AcDbLine
 62
7
  6
CONTINUOUS
 10
187.4153898285
 20
352.1531768444
 11
187.3430658301
 21
352.1677004324
  0
LINE
  5
3A4
100
AcDbEntity
  8
_SURFINI
100
AcDbLine
 62
7
  6
CONTINUOUS
 10
187.4915342258
 20
352.1375452895
 11
187.4153898285
 21
352.1531768444
  0
LINE
  5
3A5
100
AcDbEntity
  8
_SURFINI
100
AcDbLine
 62
7
  6
CONTINUOUS
 10
187.5790111571
 20
352.1191545227
 11
187.4915342258
 21
352.1375452895
  0
LINE
  5
3A6
100
AcDbEntity
  8
_SURFINI
100
AcDbLine
 62
7
  6
CONTINUOUS
 10
187.6732286938
 20
352.0988275866
 11
187.5790111571
 21
352.1191545227
  0
LINE
  5
3A7
100
AcDbEntity
  8
_SURFINI
100
AcDbLine
 62
7
  6
CONTINUOUS
 10
187.7703222521
 20
352.0773153576
 11
187.6732286938
 21
352.0988275866
  0
LINE
  5
3A8
100
AcDbEntity
  8
_SURFINI
100
AcDbLine
 62
7
  6
CONTINUOUS
 10
187.8671406534
 20
352.0552916494
 11
187.7703222521
 21
352.0773153576
  0
LINE
  5
3A9
100
AcDbEntity
  8
_SURFINI
100
AcDbLine
 62
7
  6
CONTINUOUS
 10
187.9621023422
 20
352.0331335737
 11
187.8671406534
 21
352.0552916494
  0
LINE
  5
3AA
100
AcDbEntity
  8
_SURFINI
100
AcDbLine
 62
7
  6
CONTINUOUS
 10
188.0551114543
 20
352.0108954527
 11
187.9621023422
 21
352.0331335737
  0
LINE
  5
3AB
100
AcDbEntity
  8
_SURFINI
100
AcDbLine
 62
7
  6
CONTINUOUS
 10
188.1460347929
 20
351.9886426899
 11
188.0551114543
 21
352.0108954527
  0
LINE
  5
3AC
100
AcDbEntity
  8
_SURFINI
100
AcDbLine
 62
7
  6
CONTINUOUS
 10
188.2346309676
 20
351.9664706193
 11
188.1460347929
 21
351.9886426899
  0
LINE
  5
3AD
100
AcDbEntity
  8
_SURFINI
100
AcDbLine
 62
7
  6
CONTINUOUS
 10
188.3207556814
 20
351.9444541912
 11
188.2346309676
 21
351.9664706193
  0
LINE
  5
3AE
100
AcDbEntity
  8
_SURFINI
100
AcDbLine
 62
7
  6
CONTINUOUS
 10
188.4044534178
 20
351.9226209736
 11
188.3207556814
 21
351.9444541912
  0
LINE
  5
3AF
100
AcDbEntity
  8
_SURFINI
100
AcDbLine
 62
7
  6
CONTINUOUS
 10
188.4859555719
 20
351.9009469418
 11
188.4044534178
 21
351.9226209736
  0
LINE
  5
3B0
100
AcDbEntity
  8
_SURFINI
100
AcDbLine
 62
7
  6
CONTINUOUS
 10
188.5652035544
 20
351.8794823271
 11
188.4859555719
 21
351.9009469418
  0
LINE
  5
3B1
100
AcDbEntity
  8
_SURFINI
100
AcDbLine
 62
7
  6
CONTINUOUS
 10
188.6670928204
 20
351.8513230063
 11
188.5652035544
 21
351.8794823271
  0
LINE
  5
3B2
100
AcDbEntity
  8
_SURFINI
100
AcDbLine
 62
7
  6
CONTINUOUS
 10
188.7644719239
 20
351.823823515
 11
188.6670928204
 21
351.8513230063
  0
LINE
  5
3B3
100
AcDbEntity
  8
_SURFINI
100
AcDbLine
 62
7
  6
CONTINUOUS
 10
188.8572097038
 20
351.7971075953
 11
188.7644719239
 21
351.823823515
  0
LINE
  5
3B4
100
AcDbEntity
  8
_SURFINI
100
AcDbLine
 62
7
  6
CONTINUOUS
 10
188.9452351719
 20
351.7712804703
 11
188.8572097038
 21
351.7971075953
  0
LINE
  5
3B5
100
AcDbEntity
  8
_SURFINI
100
AcDbLine
 62
7
  6
CONTINUOUS
 10
189.0485039284
 20
351.7404111512
 11
188.9452351719
 21
351.7712804703
  0
LINE
  5
3B6
100
AcDbEntity
  8
_SURFINI
100
AcDbLine
 62
7
  6
CONTINUOUS
 10
189.1440372866
 20
351.7113228138
 11
189.0485039284
 21
351.7404111512
  0
LINE
  5
3B7
100
AcDbEntity
  8
_SURFINI
100
AcDbLine
 62
7
  6
CONTINUOUS
 10
189.248015157
 20
351.6791102385
 11
189.1440372866
 21
351.7113228138
  0
LINE
  5
3B8
100
AcDbEntity
  8
_SURFINI
100
AcDbLine
 62
7
  6
CONTINUOUS
 10
189.3673474899
 20
351.6414886595
 11
189.248015157
 21
351.6791102385
  0
LINE
  5
3B9
100
AcDbEntity
  8
_SURFINI
100
AcDbLine
 62
7
  6
CONTINUOUS
 10
189.5767100192
 20
351.5743224486
 11
189.3673474899
 21
351.6414886595
  0
LINE
  5
3BA
100
AcDbEntity
  8
0
100
AcDbLine
 62
7
  6
CONTINUOUS
 10
218.8817788495
 20
363.4093472514
 11
218.8817788495
 21
306.5971702853
  0
LINE
  5
3BB
100
AcDbEntity
  8
0
100
AcDbLine
 62
7
  6
CONTINUOUS
 10
224.8817788495
 20
304.6061546404
 11
224.8817788495
 21
365.4003628963
  0
LINE
  5
3BC
100
AcDbEntity
  8
0
100
AcDbLine
 62
7
  6
CONTINUOUS
 10
253.8817788495
 20
326.0257587683
 11
252.3817788495
 21
324.5257587683
  0
LINE
  5
3BD
100
AcDbEntity
  8
0
100
AcDbLine
 62
7
  6
CONTINUOUS
 10
253.8817788495
 20
343.9807587683
 11
252.3817788495
 21
345.4807587683
  0
LINE
  5
3BE
100
AcDbEntity
  8
0
100
AcDbLine
 62
7
  6
CONTINUOUS
 10
252.3817788495
 20
324.5257587683
 11
252.3817788495
 21
345.4807587683
  0
LINE
  5
3BF
100
AcDbEntity
  8
0
100
AcDbLine
 62
7
  6
CONTINUOUS
 10
253.5592788495
 20
325.7032587683
 11
253.5592788495
 21
344.3032587683
  0
LINE
  5
3C0
100
AcDbEntity
  8
0
100
AcDbLine
 62
7
  6
CONTINUOUS
 10
253.8817788495
 20
326.0257587683
 11
253.8817788495
 21
343.9807587683
  0
CIRCLE
  5
3C1
100
AcDbEntity
  8
0
100
AcDbCircle
 62
7
  6
CONTINUOUS
 10
138.9996495239
 20
228.0688565385
 40
1.342548728
  0
CIRCLE
  5
3C2
100
AcDbEntity
  8
0
100
AcDbCircle
 62
7
  6
CONTINUOUS
 10
158.6218832154
 20
228.0699163166
 40
1.342548728
  0
HATCH
  5
3C3
100
AcDbEntity
  8
0
100
AcDbHatch
 62
2
  6
CONTINUOUS
 10
0.0
 20
0.0
 30
0.0
210
0.0
220
0.0
230
1.0
  2
dxsec_1
 70
1
 71
1
 91
2
 92
1
 93
1
 72
2
 10
138.9996495239
 20
228.0688565385
 40
1.342548728
 50
0.0
 51
360.0
 73
1
 97
2
330
3C1
330
3C2
 92
1
 93
1
 72
2
 10
158.6218832154
 20
228.0699163166
 40
1.342548728
 50
0.0
 51
360.0
 73
1
 97
2
330
3C1
330
3C2
 75
0
 76
1
 98
1
 10
0.0
 20
0.0
  0
CIRCLE
  5
3C4
100
AcDbEntity
  8
0
100
AcDbCircle
 62
7
  6
CONTINUOUS
 10
173.6394221903
 20
229.6139958653
 40
0.9781439282
  0
CIRCLE
  5
3C5
100
AcDbEntity
  8
0
100
AcDbCircle
 62
7
  6
CONTINUOUS
 10
194.2801906653
 20
229.6250030912
 40
0.9781439282
  0
HATCH
  5
3C6
100
AcDbEntity
  8
0
100
AcDbHatch
 62
2
  6
CONTINUOUS
 10
0.0
 20
0.0
 30
0.0
210
0.0
220
0.0
230
1.0
  2
XSEC0001
 70
1
 71
1
 91
2
 92
1
 93
1
 72
2
 10
173.6394221903
 20
229.6139958653
 40
0.9781439282
 50
0.0
 51
360.0
 73
1
 97
2
330
3C4
330
3C5
 92
1
 93
1
 72
2
 10
194.2801906653
 20
229.6250030912
 40
0.9781439282
 50
0.0
 51
360.0
 73
1
 97
2
330
3C4
330
3C5
 75
0
 76
1
 98
1
 10
0.0
 20
0.0
  0
ARC
  5
3C7
100
AcDbEntity
  8
0
100
AcDbCircle
 62
7
  6
CONTINUOUS
 10
128.5318077963
 20
238.9589602959
 40
2.8500061091
100
AcDbArc
 50
0.0007737091
 51
89.9968692055
  0
ARC
  5
3C8
100
AcDbEntity
  8
0
100
AcDbCircle
 62
7
  6
CONTINUOUS
 10
128.5318140529
 20
254.1590482416
 40
2.8499967617
100
AcDbArc
 50
269.9999365343
 51
0.0002644197
  0
ARC
  5
3C9
100
AcDbEntity
  8
0
100
AcDbCircle
 62
7
  6
CONTINUOUS
 10
131.8817642352
 20
232.1787962179
 40
0.5000006111
100
AcDbArc
 50
180.0000385904
 51
269.9999999999
  0
ARC
  5
3CA
100
AcDbEntity
  8
_SURFINI
100
AcDbCircle
 62
7
  6
CONTINUOUS
 10
131.8818169639
 20
230.0787834778
 40
0.5000002204
100
AcDbArc
 50
90.0000000096
 51
180.000129882
  0
ARC
  5
3CB
100
AcDbEntity
  8
0
100
AcDbCircle
 62
7
  6
CONTINUOUS
 10
61.3385788859
 20
184.4136408564
 40
0.4999995614
100
AcDbArc
 50
184.3859069694
 51
270.5241526586
  0
ARC
  5
3CC
100
AcDbEntity
  8
_SURFINI
100
AcDbCircle
 62
7
  6
CONTINUOUS
 10
177.2830296869
 20
-2967.9568412124
 40
3147.3693615759
100
AcDbArc
 50
89.9617933596
 51
90.1911599449
  0
ARC
  5
3CD
100
AcDbEntity
  8
0
100
AcDbCircle
 62
7
  6
CONTINUOUS
 10
148.8907668333
 20
16.3208837832
 40
246.3712783131
100
AcDbArc
 50
86.0374218225
 51
93.9667014088
  0
ARC
  5
3CE
100
AcDbEntity
  8
_CURVE
100
AcDbCircle
 62
40
  6
CONTINUOUS
 10
148.8907668333
 20
16.3208837915
 40
246.241479709
100
AcDbArc
 50
89.7228653113
 51
90.2813025631
  0
ARC
  5
3CF
100
AcDbEntity
  8
0
100
AcDbCircle
 62
7
  6
CONTINUOUS
 10
172.3090759796
 20
250.7788040648
 40
2.0
100
AcDbArc
 50
90.0
 51
179.3548045305
  0
ARC
  5
3D0
100
AcDbEntity
  8
_SURFACE
100
AcDbCircle
 62
6
  6
CONTINUOUS
 10
172.3090759796
 20
250.7788040648
 40
2.0
100
AcDbArc
 50
90.0
 51
179.3548045305
  0
ARC
  5
3D1
100
AcDbEntity
  8
0
100
AcDbCircle
 62
7
  6
CONTINUOUS
 10
165.8818487255
 20
232.1788017595
 40
0.5000005133
100
AcDbArc
 50
269.9962527198
 51
359.9999896965
  0
ARC
  5
3D2
100
AcDbEntity
  8
0
100
AcDbCircle
 62
7
  6
CONTINUOUS
 10
195.5538674007
 20
250.7788040648
 40
2.0
100
AcDbArc
 50
0.6451954695
 51
90.0
  0
ARC
  5
3D3
100
AcDbEntity
  8
_SURFACE
100
AcDbCircle
 62
6
  6
CONTINUOUS
 10
195.5538674007
 20
250.7788040648
 40
2.0
100
AcDbArc
 50
0.6451954695
 51
90.0
  0
ARC
  5
3D4
100
AcDbEntity
  8
_SURFINI
100
AcDbCircle
 62
7
  6
CONTINUOUS
 10
200.9314960569
 20
230.0788590525
 40
0.4999993538
100
AcDbArc
 50
0.0003489984
 51
89.9938744242
  0
ARC
  5
3D5
100
AcDbEntity
  8
0
100
AcDbCircle
 62
7
  6
CONTINUOUS
 10
220.4817788495
 20
168.5057321187
 40
1.6
100
AcDbArc
 50
180.0
 51
265.0
  0
ARC
  5
3D6
100
AcDbEntity
  8
_SURFINI
100
AcDbCircle
 62
7
  6
CONTINUOUS
 10
218.3817664803
 20
179.9118181524
 40
0.5000000831
100
AcDbArc
 50
269.9999667335
 51
0.0002806676
  0
ARC
  5
3D7
100
AcDbEntity
  8
0
100
AcDbCircle
 62
7
  6
CONTINUOUS
 10
220.4817788495
 20
225.3179090849
 40
1.6
100
AcDbArc
 50
95.0
 51
180.0
  0
ARC
  5
3D8
100
AcDbEntity
  8
_SURFINI
100
AcDbCircle
 62
7
  6
CONTINUOUS
 10
218.3817862211
 20
213.9118433726
 40
0.5000000831
100
AcDbArc
 50
0.005258805
 51
89.9999667336
  0
ARC
  5
3D9
100
AcDbEntity
  8
0
100
AcDbCircle
 62
7
  6
CONTINUOUS
 10
343.139334239
 20
15.993833214
 40
246.6983288822
100
AcDbArc
 50
86.0408335891
 51
93.9591532676
  0
ARC
  5
3DA
100
AcDbEntity
  8
_CURVE
100
AcDbCircle
 62
40
  6
CONTINUOUS
 10
343.139334239
 20
15.9938371539
 40
246.6953587207
100
AcDbArc
 50
88.1412807468
 51
91.8579831139
  0
ARC
  5
3DB
100
AcDbEntity
  8
0
100
AcDbCircle
 62
7
  6
CONTINUOUS
 10
343.1409181832
 20
196.9118206018
 40
30.3971503426
100
AcDbArc
 50
290.1646730953
 51
54.8472583309
  0
ARC
  5
3DC
100
AcDbEntity
  8
0
100
AcDbCircle
 62
7
  6
CONTINUOUS
 10
343.1409181832
 20
196.9118206018
 40
30.3971503426
100
AcDbArc
 50
125.1591128743
 51
249.8353269047
  0
ARC
  5
3DD
100
AcDbEntity
  8
0
100
AcDbCircle
 62
7
  6
CONTINUOUS
 10
343.1412610346
 20
247.705864204
 40
3.6031871915
100
AcDbArc
 50
90.0054518242
 51
95.7840732513
  0
ARC
  5
3DE
100
AcDbEntity
  8
0
100
AcDbCircle
 62
7
  6
CONTINUOUS
 10
343.1406181062
 20
245.4108503247
 40
3.6018862427
100
AcDbArc
 50
270.0047733725
 51
275.3759660402
  0
ARC
  5
3DF
100
AcDbEntity
  8
0
100
AcDbCircle
 62
7
  6
CONTINUOUS
 10
326.1392973047
 20
232.178800456
 40
0.5000006111
100
AcDbArc
 50
180.0000243064
 51
269.9969623769
  0
ARC
  5
3E0
100
AcDbEntity
  8
0
100
AcDbCircle
 62
7
  6
CONTINUOUS
 10
360.1393683643
 20
232.1788105687
 40
0.5000005133
100
AcDbArc
 50
269.9966876653
 51
0.0000193863
  0
ARC
  5
3E1
100
AcDbEntity
  8
_SURFINI
100
AcDbCircle
 62
7
  6
CONTINUOUS
 10
360.1406578748
 20
230.0788036893
 40
0.5000002183
100
AcDbArc
 50
0.0000430279
 51
89.9999920251
  0
ARC
  5
3E2
100
AcDbEntity
  8
_SURFINI
100
AcDbCircle
 62
7
  6
CONTINUOUS
 10
326.1407403784
 20
230.0787555975
 40
0.4999993538
100
AcDbArc
 50
90.0079299504
 51
179.9999996819
  0
ARC
  5
3E3
100
AcDbEntity
  8
0
100
AcDbCircle
 62
7
  6
CONTINUOUS
 10
326.1391483856
 20
261.6043516761
 40
0.4998290319
100
AcDbArc
 50
93.9257258735
 51
180.0182919863
  0
ARC
  5
3E4
100
AcDbEntity
  8
0
100
AcDbCircle
 62
7
  6
CONTINUOUS
 10
360.1395111112
 20
261.6043516015
 40
0.4998283727
100
AcDbArc
 50
359.9816331931
 51
86.0742802686
  0
ARC
  5
3E5
100
AcDbEntity
  8
0
100
AcDbCircle
 62
7
  6
CONTINUOUS
 10
61.322255221
 20
324.0035933776
 40
0.5000000755
100
AcDbArc
 50
185.5551527273
 51
269.999992144
  0
ARC
  5
3E6
100
AcDbEntity
  8
_SURFINI
100
AcDbCircle
 62
7
  6
CONTINUOUS
 10
148.8818504204
 20
335.0032583046
 40
17.500033677
100
AcDbArc
 50
198.4311095469
 51
269.99975318
  0
ARC
  5
3E7
100
AcDbEntity
  8
0
100
AcDbCircle
 62
7
  6
CONTINUOUS
 10
220.4817788495
 20
306.5971702853
 40
1.6
100
AcDbArc
 50
180.0
 51
265.0
  0
ARC
  5
3E8
100
AcDbEntity
  8
_SURFINI
100
AcDbCircle
 62
7
  6
CONTINUOUS
 10
218.3817817069
 20
318.0031914411
 40
0.5000000971
100
AcDbArc
 50
270.0000102796
 51
359.9985413406
  0
CIRCLE
  5
3E9
100
AcDbEntity
  8
0
100
AcDbCircle
 62
7
  6
CONTINUOUS
 10
148.8818107514
 20
335.0048374932
 40
17.5
  0
ARC
  5
3EA
100
AcDbEntity
  8
_SURFINI
100
AcDbCircle
 62
7
  6
CONTINUOUS
 10
148.8818107514
 20
335.0032587683
 40
17.5
100
AcDbArc
 50
210.3732307895
 51
211.841176554
  0
ARC
  5
3EB
100
AcDbEntity
  8
_SURFINI
100
AcDbCircle
 62
7
  6
CONTINUOUS
 10
183.931578283
 20
335.0035187988
 40
17.499917128
100
AcDbArc
 50
269.9996528824
 51
90.0003471176
  0
CIRCLE
  5
3EC
100
AcDbEntity
  8
DATUM_AXIS
100
AcDbCircle
 62
7
  6
CONTINUOUS
 10
183.9314716902
 20
335.0032587683
 40
13.85
  0
CIRCLE
  5
3ED
100
AcDbEntity
  8
_SURFACE
100
AcDbCircle
 62
7
  6
CONTINUOUS
 10
183.9314716902
 20
335.0032587683
 40
13.85
  0
ARC
  5
3EE
100
AcDbEntity
  8
0
100
AcDbCircle
 62
7
  6
CONTINUOUS
 10
220.4817788495
 20
363.4093472514
 40
1.6
100
AcDbArc
 50
95.0
 51
180.0
  0
ARC
  5
3EF
100
AcDbEntity
  8
_SURFINI
100
AcDbCircle
 62
7
  6
CONTINUOUS
 10
218.3817877772
 20
352.0032355189
 40
0.5000000831
100
AcDbArc
 50
0.0012938737
 51
89.9999614888
  0
SPLINE
  5
3F0
100
AcDbEntity
  8
0
100
AcDbSpline
 62
7
  6
CONTINUOUS
 70
0
 71
3
 72
18
 73
14
 74
0
 42
0.0000001
 43
0.0000001
 44
0.0000000001
 40
0.0
 40
0.0
 40
0.0
 40
0.0
 40
0.0512634645
 40
0.1752120619
 40
0.3345109826
 40
0.421486781
 40
0.5114651789
 40
0.6024224312
 40
0.6909731544
 40
0.7735925376
 40
0.8475569238
 40
0.9585544143
 40
1.0
 40
1.0
 40
1.0
 40
1.0
 10
64.3904445493
 20
183.9136413032
 30
0.0
 10
64.6810301673
 20
184.0891375287
 30
0.0
 10
65.6782782425
 20
184.6819980851
 30
0.0
 10
67.6136216538
 20
185.7593323932
 30
0.0
 10
69.8330241037
 20
186.8147161439
 30
0.0
 10
71.9492850983
 20
187.5193644785
 30
0.0
 10
73.7017945072
 20
187.8457134478
 30
0.0
 10
75.5022683391
 20
187.8046880024
 30
0.0
 10
77.1930287877
 20
187.3525312436
 30
0.0
 10
78.6603825732
 20
186.6443230305
 30
0.0
 10
80.1537286451
 20
185.6866283429
 30
0.0
 10
81.3349423783
 20
184.7596718852
 30
0.0
 10
82.096019622
 20
184.096222328
 30
0.0
 10
82.3007224704
 20
183.9136413032
 30
0.0
  0
SPLINE
  5
3F1
100
AcDbEntity
  8
_SURFINI
100
AcDbSpline
 62
7
  6
CONTINUOUS
 70
0
 71
3
 72
13
 73
9
 74
0
 42
0.0000001
 43
0.0000001
 44
0.0000000001
 40
0.0
 40
0.0
 40
0.0
 40
0.0
 40
0.1111152234
 40
0.2259377143
 40
0.5001960681
 40
0.774182693
 40
0.8889020629
 40
1.0
 40
1.0
 40
1.0
 40
1.0
 10
166.7822590795
 20
179.3950031169
 30
0.0
 10
166.4776286098
 20
179.3937836079
 30
0.0
 10
165.858475154
 20
179.3914768602
 30
0.0
 10
164.4890415259
 20
179.166227359
 30
0.0
 10
162.9542015775
 20
178.0668125761
 30
0.0
 10
161.8520473653
 20
176.5323699899
 30
0.0
 10
161.6314920573
 20
175.1629793264
 30
0.0
 10
161.6317633032
 20
174.5441736864
 30
0.0
 10
161.6317633032
 20
174.2395881677
 30
0.0
  0
SPLINE
  5
3F2
100
AcDbEntity
  8
_SURFINI
100
AcDbSpline
 62
7
  6
CONTINUOUS
 70
0
 71
3
 72
16
 73
12
 74
0
 42
0.0000001
 43
0.0000001
 44
0.0000000001
 40
0.0
 40
0.0
 40
0.0
 40
0.0
 40
0.1123667836
 40
0.2269498847
 40
0.2876964976
 40
0.3530575053
 40
0.4954366241
 40
0.6398734134
 40
0.7699421253
 40
0.8871767096
 40
1.0
 40
1.0
 40
1.0
 40
1.0
 10
131.360757224
 20
181.7669786437
 30
0.0
 10
131.678811496
 20
181.7208462859
 30
0.0
 10
132.3214778746
 20
181.6281056329
 30
0.0
 10
133.1149407972
 20
181.3832474002
 30
0.0
 10
133.7193742068
 20
181.0481884459
 30
0.0
 10
134.3272495382
 20
180.5746868027
 30
0.0
 10
134.995962187
 20
179.8107971759
 30
0.0
 10
135.6223021522
 20
178.7894606429
 30
0.0
 10
136.0054026785
 20
177.7259269874
 30
0.0
 10
136.1314537553
 20
176.698006167
 30
0.0
 10
136.1317633058
 20
176.0398483226
 30
0.0
 10
136.1317633032
 20
175.7171601536
 30
0.0
  0
SPLINE
  5
3F3
100
AcDbEntity
  8
0
100
AcDbSpline
 62
7
  6
CONTINUOUS
 70
0
 71
3
 72
11
 73
7
 74
0
 42
0.0000001
 43
0.0000001
 44
0.0000000001
 40
0.0
 40
0.0
 40
0.0
 40
0.0
 40
0.2499128962
 40
0.4992583621
 40
0.7488971941
 40
1.0
 40
1.0
 40
1.0
 40
1.0
 10
94.8817944972
 20
183.9136412987
 30
0.0
 10
97.9294181149
 20
183.9136412987
 30
0.0
 10
104.0178848921
 20
183.9135439218
 30
0.0
 10
113.1494523004
 20
183.7005497879
 30
0.0
 10
122.2799850251
 20
183.05250759
 30
0.0
 10
128.33033417
 20
182.2065265302
 30
0.0
 10
131.360757224
 20
181.7669786437
 30
0.0
  0
SPLINE
  5
3F4
100
AcDbEntity
  8
0
100
AcDbSpline
 62
7
  6
CONTINUOUS
 70
0
 71
3
 72
10
 73
6
 74
0
 42
0.0000001
 43
0.0000001
 44
0.0000000001
 40
0.0
 40
0.0
 40
0.0
 40
0.0
 40
0.3000465548
 40
0.6500368764
 40
1.0
 40
1.0
 40
1.0
 40
1.0
 10
339.5594148207
 20
246.1958943985
 30
0.0
 10
339.5636675578
 20
245.4702218067
 30
0.0
 10
339.6282318845
 20
243.9269719477
 30
0.0
 10
341.0202964157
 20
242.227478566
 30
0.0
 10
342.4339470206
 20
241.808996615
 30
0.0
 10
343.1407533914
 20
241.8089640983
 30
0.0
  0
SPLINE
  5
3F5
100
AcDbEntity
  8
0
100
AcDbSpline
 62
7
  6
CONTINUOUS
 70
0
 71
3
 72
10
 73
6
 74
0
 42
0.0000001
 43
0.0000001
 44
0.0000000001
 40
0.0
 40
0.0
 40
0.0
 40
0.0
 40
0.3326638512
 40
0.6663319256
 40
1.0
 40
1.0
 40
1.0
 40
1.0
 10
339.5587069449
 20
246.5666713005
 30
0.0
 10
339.5587091448
 20
247.4131670418
 30
0.0
 10
339.5601732657
 20
249.1079545816
 30
0.0
 10
341.020334277
 20
250.8905831304
 30
0.0
 10
342.4340568811
 20
251.3090513792
 30
0.0
 10
343.1409181832
 20
251.3090513792
 30
0.0
  0
SPLINE
  5
3F6
100
AcDbEntity
  8
0
100
AcDbSpline
 62
7
  6
CONTINUOUS
 70
0
 71
3
 72
10
 73
6
 74
0
 42
0.0000001
 43
0.0000001
 44
0.0000000001
 40
0.0
 40
0.0
 40
0.0
 40
0.0
 40
0.3329992633
 40
0.6659985265
 40
1.0
 40
1.0
 40
1.0
 40
1.0
 10
343.1409181832
 20
241.8089640945
 30
0.0
 10
342.4340568811
 20
241.8089640945
 30
0.0
 10
341.0203336912
 20
242.2274323432
 30
0.0
 10
339.5572426638
 20
244.0136412056
 30
0.0
 10
339.5587047317
 20
245.7150648712
 30
0.0
 10
339.5587069449
 20
246.5666713005
 30
0.0
  0
SPLINE
  5
3F7
100
AcDbEntity
  8
0
100
AcDbSpline
 62
7
  6
CONTINUOUS
 70
0
 71
3
 72
10
 73
6
 74
0
 42
0.0000001
 43
0.0000001
 44
0.0000000001
 40
0.0
 40
0.0
 40
0.0
 40
0.0
 40
0.3333333333
 40
0.6666666667
 40
1.0
 40
1.0
 40
1.0
 40
1.0
 10
343.1409181832
 20
241.8089640945
 30
0.0
 10
343.8477794852
 20
241.8089640945
 30
0.0
 10
345.2615020893
 20
242.2274323432
 30
0.0
 10
346.7229282058
 20
244.0118510488
 30
0.0
 10
346.7229282058
 20
245.7099530321
 30
0.0
 10
346.7229282058
 20
246.5590052614
 30
0.0
  0
SPLINE
  5
3F8
100
AcDbEntity
  8
0
100
AcDbSpline
 62
7
  6
CONTINUOUS
 70
0
 71
3
 72
10
 73
6
 74
0
 42
0.0000001
 43
0.0000001
 44
0.0000000001
 40
0.0
 40
0.0
 40
0.0
 40
0.0
 40
0.3333333333
 40
0.6666666667
 40
1.0
 40
1.0
 40
1.0
 40
1.0
 10
346.7229282058
 20
246.5590052614
 30
0.0
 10
346.7229282058
 20
247.4080574907
 30
0.0
 10
346.7229282058
 20
249.1061644248
 30
0.0
 10
345.2615020893
 20
250.8905831304
 30
0.0
 10
343.8477794852
 20
251.3090513792
 30
0.0
 10
343.1409181832
 20
251.3090513792
 30
0.0
  0
SPLINE
  5
3F9
100
AcDbEntity
  8
0
100
AcDbSpline
 62
7
  6
CONTINUOUS
 70
0
 71
3
 72
13
 73
9
 74
0
 42
0.0000001
 43
0.0000001
 44
0.0000000001
 40
0.0
 40
0.0
 40
0.0
 40
0.0
 40
0.1666666667
 40
0.3333333333
 40
0.5
 40
0.6666666667
 40
0.8333333333
 40
1.0
 40
1.0
 40
1.0
 40
1.0
 10
343.1412383615
 20
183.9136412987
 30
0.0
 10
340.8719978704
 20
183.9136412987
 30
0.0
 10
336.3335168882
 20
185.2570520804
 30
0.0
 10
331.6412470885
 20
190.9855806731
 30
0.0
 10
331.6412470885
 20
199.1627428728
 30
0.0
 10
331.6412470885
 20
207.3398812321
 30
0.0
 10
336.3335168882
 20
213.0684098248
 30
0.0
 10
340.8719978704
 20
214.4118206065
 30
0.0
 10
343.1412383615
 20
214.4118206065
 30
0.0
  0
SPLINE
  5
3FA
100
AcDbEntity
  8
0
100
AcDbSpline
 62
7
  6
CONTINUOUS
 70
0
 71
3
 72
10
 73
6
 74
0
 42
0.0000001
 43
0.0000001
 44
0.0000000001
 40
0.0
 40
0.0
 40
0.0
 40
0.0
 40
0.3333330231
 40
0.6666660462
 40
1.0
 40
1.0
 40
1.0
 40
1.0
 10
343.1412383615
 20
183.9136412987
 30
0.0
 10
345.4104788526
 20
183.9136412987
 30
0.0
 10
349.9489598348
 20
185.2570520804
 30
0.0
 10
354.6405880158
 20
190.9855860046
 30
0.0
 10
354.6405836494
 20
196.4370373603
 30
0.0
 10
354.6405836494
 20
199.1627617305
 30
0.0
  0
SPLINE
  5
3FB
100
AcDbEntity
  8
0
100
AcDbSpline
 62
7
  6
CONTINUOUS
 70
0
 71
3
 72
10
 73
6
 74
0
 42
0.0000001
 43
0.0000001
 44
0.0000000001
 40
0.0
 40
0.0
 40
0.0
 40
0.0
 40
0.3333336436
 40
0.6666672871
 40
1.0
 40
1.0
 40
1.0
 40
1.0
 10
343.1412383615
 20
214.4118206065
 30
0.0
 10
345.4104788526
 20
214.4118206065
 30
0.0
 10
349.9489598348
 20
213.0684098248
 30
0.0
 10
354.6405792829
 20
207.3398865636
 30
0.0
 10
354.6405836494
 20
201.8884708799
 30
0.0
 10
354.6405836494
 20
199.1627617305
 30
0.0
  0
LINE
  5
3FC
100
AcDbEntity
  8
_SURFINI
100
AcDbLine
 62
7
  6
CONTINUOUS
 10
325.6406582499
 20
223.1521019485
 11
325.6406589694
 21
222.904223967
  0
SPLINE
  5
3FD
100
AcDbEntity
  8
0
100
AcDbSpline
 62
7
  6
CONTINUOUS
 70
0
 71
3
 72
9
 73
5
 74
0
 42
0.0000001
 43
0.0000001
 44
0.0000000001
 40
0.0
 40
0.0
 40
0.0
 40
0.0
 40
0.2610148225
 40
1.0
 40
1.0
 40
1.0
 40
1.0
 10
84.0278092864
 20
331.6509809288
 30
0.0
 10
84.0041288853
 20
331.9421127411
 30
0.0
 10
83.9221166267
 20
333.0581528155
 30
0.0
 10
83.881810853
 20
334.1775280715
 30
0.0
 10
83.8818107514
 20
335.0045026243
 30
0.0
  0
SPLINE
  5
3FE
100
AcDbEntity
  8
0
100
AcDbSpline
 62
7
  6
CONTINUOUS
 70
0
 71
3
 72
9
 73
5
 74
0
 42
0.0000001
 43
0.0000001
 44
0.0000000001
 40
0.0
 40
0.0
 40
0.0
 40
0.0
 40
0.2610015225
 40
1.0
 40
1.0
 40
1.0
 40
1.0
 10
84.0276291302
 20
338.3558111785
 30
0.0
 10
84.003977286
 20
338.0648857289
 30
0.0
 10
83.9220625709
 20
336.9495802947
 30
0.0
 10
83.8818108529
 20
335.8309452765
 30
0.0
 10
83.8818107514
 20
335.0045026243
 30
0.0
  0
SPLINE
  5
3FF
100
AcDbEntity
  8
0
100
AcDbSpline
 62
7
  6
CONTINUOUS
 70
0
 71
3
 72
11
 73
7
 74
0
 42
0.0000001
 43
0.0000001
 44
0.0000000001
 40
0.0
 40
0.0
 40
0.0
 40
0.0
 40
0.276694961
 40
0.4997013736
 40
0.7227867071
 40
1.0
 40
1.0
 40
1.0
 40
1.0
 10
84.2769873039
 20
331.4212487457
 30
0.0
 10
84.2403358991
 20
331.4212487457
 30
0.0
 10
84.1743659713
 20
331.4197005697
 30
0.0
 10
84.0786818365
 20
331.4559734454
 30
0.0
 10
84.0346429905
 20
331.5484235586
 30
0.0
 10
84.0307862322
 20
331.614381715
 30
0.0
 10
84.0278092864
 20
331.6509809072
 30
0.0
  0
SPLINE
  5
400
100
AcDbEntity
  8
_SURFINI
100
AcDbSpline
 62
7
  6
CONTINUOUS
 70
0
 71
3
 72
9
 73
5
 74
0
 42
0.0000001
 43
0.0000001
 44
0.0000000001
 40
0.0
 40
0.0
 40
0.0
 40
0.0
 40
0.2640783646
 40
1.0
 40
1.0
 40
1.0
 40
1.0
 10
60.8246034076
 20
323.9551914397
 30
0.0
 10
60.7303106489
 20
324.9246779327
 30
0.0
 10
60.4050316268
 20
328.5986899004
 30
0.0
 10
60.239555784
 20
332.2884782768
 30
0.0
 10
60.2395554223
 20
335.0029478945
 30
0.0
  0
SPLINE
  5
401
100
AcDbEntity
  8
_SURFINI
100
AcDbSpline
 62
7
  6
CONTINUOUS
 70
0
 71
3
 72
9
 73
5
 74
0
 42
0.0000001
 43
0.0000001
 44
0.0000000001
 40
0.0
 40
0.0
 40
0.0
 40
0.0
 40
0.2640834104
 40
1.0
 40
1.0
 40
1.0
 40
1.0
 10
60.8248284117
 20
346.0530242309
 30
0.0
 10
60.7305003827
 20
345.0833164249
 30
0.0
 10
60.4051017449
 20
341.4085356278
 30
0.0
 10
60.2395557841
 20
337.7179703833
 30
0.0
 10
60.2395554223
 20
335.0029478945
 30
0.0
  0
ENDSEC
  0
SECTION
  2
OBJECTS
  0
DICTIONARY
  5
C
100
AcDbDictionary
280
0
281
1
  3
ACAD_GROUP
350
D
  3
ACAD_MLINESTYLE
350
17
  3
ACAD_LAYOUT
350
1A
  3
ACAD_PLOTSETTINGS
350
19
  3
ACAD_PLOTSTYLENAME
350
E
  0
DICTIONARY
  5
D
102
{ACAD_REACTORS
330
C
102
}
100
AcDbDictionary
280
0
281
1
  0
ACDBDICTIONARYWDFLT
  5
E
102
{ACAD_REACTORS
330
C
102
}
100
AcDbDictionary
281
1
  3
Normal
350
F
100
AcDbDictionaryWithDefault
340
F
  0
DICTIONARY
  5
17
102
{ACAD_REACTORS
330
C
102
}
100
AcDbDictionary
280
0
281
1
  3
Standard
350
18
  0
DICTIONARY
  5
19
102
{ACAD_REACTORS
330
C
102
}
100
AcDbDictionary
281
1
  0
DICTIONARY
  5
1A
102
{ACAD_REACTORS
330
C
102
}
100
AcDbDictionary
281
1
  3
Model
350
402
  3
Layout1
350
403
  0
ACDBPLACEHOLDER
  5
F
102
{ACAD_REACTORS
330
E
102
}
  0
MLINESTYLE
  5
18
102
{ACAD_REACTORS
330
17
102
}
100
AcDbMlineStyle
  2
STANDARD
 70
0
  3

 62
256
 51
90.0
 52
90.0
 71
2
 49
0.5
 62
256
  6
BYLAYER
 49
-0.5
 62
256
  6
BYLAYER
  0
LAYOUT
  5
402
102
{ACAD_REACTORS
330
1A
102
}
100
AcDbPlotSettings
  1

  2
none_device
  4
ISO_A1_(594.00_x_841.00_MM)
  6

 40
0.0
 41
0.0
 42
0.0
 43
0.0
 44
841.0
 45
594.0
 46
0.0
 47
0.0
 48
0.0
 49
0.0
140
0.0
141
0.0
142
1.0
143
1.0
 70
1024
 72
1
 73
0
 74
0
  7

 75
0
147
1.0
148
0.0
149
0.0
100
AcDbLayout
  1
Model
 70
0
 71
0
 10
0.0
 20
0.0
 11
841.0
 21
594.0
 12
0.0
 22
0.0
 32
0.0
 14
0.0
 24
0.0
 34
0.0
 15
0.0
 25
0.0
 35
0.0
146
0.0
 13
0.0
 23
0.0
 33
0.0
 16
1.0
 26
0.0
 36
0.0
 17
0.0
 27
1.0
 37
0.0
 76
0
330
21E
345
0
346
0
  0
LAYOUT
  5
403
102
{ACAD_REACTORS
330
1A
102
}
100
AcDbPlotSettings
  1

  2
none_device
  4
ISO_A1_(594.00_x_841.00_MM)
  6

 40
0.0
 41
0.0
 42
0.0
 43
0.0
 44
841.0
 45
594.0
 46
0.0
 47
0.0
 48
0.0
 49
0.0
140
0.0
141
0.0
142
1.0
143
1.0
 70
0
 72
1
 73
0
 74
0
  7

 75
0
147
1.0
148
0.0
149
0.0
100
AcDbLayout
  1
Layout1
 70
0
 71
1
 10
0.0
 20
0.0
 11
841.0
 21
594.0
 12
0.0
 22
0.0
 32
0.0
 14
0.0
 24
0.0
 34
0.0
 15
0.0
 25
0.0
 35
0.0
146
0.0
 13
0.0
 23
0.0
 33
0.0
 16
1.0
 26
0.0
 36
0.0
 17
0.0
 27
1.0
 37
0.0
 76
0
330
21F
345
0
346
0
  0
ENDSEC
  0
EOF
