999
DXF file: 37319in_2D.dxf
999
Pro/ENGINEER 2012070 by Parametric Technology Corporation
  0
SECTION
  2
HEADER
  9
$ACADVER
  1
AC1021
  9
$DWGCODEPAGE
  3
ANSI_1252
  9
$EXTMAX
 10
841.0
 20
594.0
 30
0.0
  9
$EXTMIN
 10
0.0
 20
0.0
 30
0.0
  9
$LIMMIN
 10
0.0
 20
0.0
  9
$LIMMAX
 10
841.0
 20
594.0
  9
$VIEWCTR
 10
420.5
 20
297.0
  9
$VIEWSIZE
 40
594.0
  9
$CLAYER
  8
0
  9
$LTSCALE
 40
46.255
  9
$CELTYPE
  6
BYLAYER
  9
$DIMSCALE
 40
1.0
  9
$DIMASZ
 40
3.5
  9
$DIMEXO
 40
1.0
  9
$DIMDLI
 40
31.958
  9
$DIMEXE
 40
1.5
  9
$DIMCEN
 40
7.569
  9
$DIMLFAC
 40
1.0
  9
$DIMBLK
  1
_FILLED
  9
$DIMTXT
 40
3.5
  9
$DIMTOL
 70
1
  9
$DIMLIM
 70
0
  9
$DIMTFAC
 40
1.0
  9
$DIMTP
 40
0.01
  9
$DIMTM
 40
0.01
  9
$DIMGAP
 40
0.625
  9
$DIMDSEP
 70
46
  9
$PDMODE
 70
3
  9
$PDSIZE
 40
0.3125
  9
$HANDSEED
  5
624
  9
$TILEMODE
 70
1
  9
$MEASUREMENT
 70
1
  9
$INSUNITS
 70
4
  0
ENDSEC
  0
SECTION
  2
CLASSES
  0
CLASS
  1
ACDBDICTIONARYWDFLT
  2
AcDbDictionaryWithDefault
  3
AutoCAD 2000
 90
0
 91
1
280
0
281
0
  0
CLASS
  1
ACDBPLACEHOLDER
  2
AcDbPlaceHolder
  3
AutoCAD 2000
 90
0
 91
1
280
0
281
0
  0
CLASS
  1
LAYOUT
  2
AcDbLayout
  3
AutoCAD 2000
 90
0
 91
0
280
0
281
0
  0
ENDSEC
  0
SECTION
  2
TABLES
  0
TABLE
  2
VPORT
  5
8
100
AcDbSymbolTable
 70
2
  0
VPORT
  5
1F4
100
AcDbSymbolTableRecord
100
AcDbViewportTableRecord
  2
*ACTIVE
 70
0
 10
0.0
 20
0.0
 11
1.0
 21
1.0
 12
420.5
 22
297.0
 13
0.0
 23
0.0
 14
1.0
 24
1.0
 15
0.0
 25
0.0
 16
0.0
 26
0.0
 36
1.0
 17
0.0
 27
0.0
 37
0.0
 40
594.0
 41
1.4158249158
 42
50.0
 43
0.0
 44
0.0
 50
0.0
 51
0.0
 71
0
 72
100
 73
1
 74
1
 75
0
 76
0
 77
0
 78
0
  0
ENDTAB
  0
TABLE
  2
LTYPE
  5
5
100
AcDbSymbolTable
 70
6
  0
LTYPE
  5
14
100
AcDbSymbolTableRecord
100
AcDbLinetypeTableRecord
  2
BYBLOCK
 70
0
  3

 72
65
 73
0
 40
0.0
  0
LTYPE
  5
15
100
AcDbSymbolTableRecord
100
AcDbLinetypeTableRecord
  2
BYLAYER
 70
0
  3

 72
65
 73
0
 40
0.0
  0
LTYPE
  5
16
100
AcDbSymbolTableRecord
100
AcDbLinetypeTableRecord
  2
CONTINUOUS
 70
64
  3
Solid line
 72
65
 73
0
 40
0.0
  0
LTYPE
  5
1F5
100
AcDbSymbolTableRecord
100
AcDbLinetypeTableRecord
  2
CENTER
 70
64
  3
____ _ ____ _ ____ _ ____ _ ____ _ ____ _ ____
 72
65
 73
4
 40
0.6
 49
0.375
 74
0
 49
-0.075
 74
0
 49
0.075
 74
0
 49
-0.075
 74
0
  0
LTYPE
  5
1F6
100
AcDbSymbolTableRecord
100
AcDbLinetypeTableRecord
  2
HIDDEN
 70
64
  3
- - - - - - - - - - - - - - - - - - - -
 72
65
 73
2
 40
0.2
 49
0.1
 74
0
 49
-0.1
 74
0
  0
LTYPE
  5
1F7
100
AcDbSymbolTableRecord
100
AcDbLinetypeTableRecord
  2
PHANTOM
 70
64
  3
_____ _ _ _____ _ _ _____ _ _ _____
 72
65
 73
6
 40
0.8
 49
0.45
 74
0
 49
-0.05
 74
0
 49
0.1
 74
0
 49
-0.05
 74
0
 49
0.1
 74
0
 49
-0.05
 74
0
  0
LTYPE
  5
1F8
100
AcDbSymbolTableRecord
100
AcDbLinetypeTableRecord
  2
DOT
 70
64
  3
. . . . . . . . . . . . . . . . . . . .
 72
65
 73
2
 40
0.2
 49
0.1
 74
0
 49
-0.1
 74
0
  0
LTYPE
  5
1F9
100
AcDbSymbolTableRecord
100
AcDbLinetypeTableRecord
  2
DASHED
 70
64
  3
- - - - - - - - - - - - - - - - - - - -
 72
65
 73
2
 40
0.2
 49
0.1
 74
0
 49
-0.1
 74
0
  0
ENDTAB
  0
TABLE
  2
LAYER
  5
2
100
AcDbSymbolTable
 70
36
  0
LAYER
  5
10
100
AcDbSymbolTableRecord
100
AcDbLayerTableRecord
  2
0
 70
0
 62
7
  6
CONTINUOUS
370
-3
390
F
  0
LAYER
  5
1FA
100
AcDbSymbolTableRecord
100
AcDbLayerTableRecord
  2
DEFAULT_1
 70
0
 62
7
  6
CENTER
370
-3
390
F
  0
LAYER
  5
1FB
100
AcDbSymbolTableRecord
100
AcDbLayerTableRecord
  2
DEFAULT_2
 70
0
 62
8
  6
HIDDEN
370
-3
390
F
  0
LAYER
  5
1FC
100
AcDbSymbolTableRecord
100
AcDbLayerTableRecord
  2
DEFAULT_3
 70
0
 62
7
  6
PHANTOM
370
-3
390
F
  0
LAYER
  5
1FD
100
AcDbSymbolTableRecord
100
AcDbLayerTableRecord
  2
00_COMPONENTS
 70
0
 62
7
  6
CONTINUOUS
370
-3
390
F
  0
LAYER
  5
1FE
100
AcDbSymbolTableRecord
100
AcDbLayerTableRecord
  2
01_ALL_PLANES
 70
0
 62
7
  6
CONTINUOUS
370
-3
390
F
  0
LAYER
  5
1FF
100
AcDbSymbolTableRecord
100
AcDbLayerTableRecord
  2
02_ALL_CSYS
 70
0
 62
7
  6
CONTINUOUS
370
-3
390
F
  0
LAYER
  5
200
100
AcDbSymbolTableRecord
100
AcDbLayerTableRecord
  2
20_ALL_FEATURES
 70
0
 62
7
  6
CONTINUOUS
370
-3
390
F
  0
LAYER
  5
201
100
AcDbSymbolTableRecord
100
AcDbLayerTableRecord
  2
DATUM_AXIS
 70
0
 62
7
  6
CONTINUOUS
370
-3
390
F
  0
LAYER
  5
202
100
AcDbSymbolTableRecord
100
AcDbLayerTableRecord
  2
DATUM_PLANE
 70
0
 62
7
  6
CONTINUOUS
370
-3
390
F
  0
LAYER
  5
203
100
AcDbSymbolTableRecord
100
AcDbLayerTableRecord
  2
DATUM_POINT
 70
0
 62
7
  6
CONTINUOUS
370
-3
390
F
  0
LAYER
  5
204
100
AcDbSymbolTableRecord
100
AcDbLayerTableRecord
  2
INTF_1
 70
0
 62
7
  6
CONTINUOUS
370
-3
390
F
  0
LAYER
  5
205
100
AcDbSymbolTableRecord
100
AcDbLayerTableRecord
  2
INTF_3
 70
0
 62
7
  6
CONTINUOUS
370
-3
390
F
  0
LAYER
  5
206
100
AcDbSymbolTableRecord
100
AcDbLayerTableRecord
  2
RGB__168___25___33__
 70
0
 62
7
  6
CONTINUOUS
370
-3
390
F
  0
LAYER
  5
207
100
AcDbSymbolTableRecord
100
AcDbLayerTableRecord
  2
RGB__196__229___33__
 70
0
 62
7
  6
CONTINUOUS
370
-3
390
F
  0
LAYER
  5
208
100
AcDbSymbolTableRecord
100
AcDbLayerTableRecord
  2
RGB__211__216___84__
 70
0
 62
7
  6
CONTINUOUS
370
-3
390
F
  0
LAYER
  5
209
100
AcDbSymbolTableRecord
100
AcDbLayerTableRecord
  2
RGB__214___45____0__
 70
0
 62
7
  6
CONTINUOUS
370
-3
390
F
  0
LAYER
  5
20A
100
AcDbSymbolTableRecord
100
AcDbLayerTableRecord
  2
RGB__255__249__211__
 70
0
 62
7
  6
CONTINUOUS
370
-3
390
F
  0
LAYER
  5
20B
100
AcDbSymbolTableRecord
100
AcDbLayerTableRecord
  2
RGB____0____0____0__
 70
0
 62
7
  6
CONTINUOUS
370
-3
390
F
  0
LAYER
  5
20C
100
AcDbSymbolTableRecord
100
AcDbLayerTableRecord
  2
_CURVE
 70
0
 62
7
  6
CONTINUOUS
370
-3
390
F
  0
LAYER
  5
20D
100
AcDbSymbolTableRecord
100
AcDbLayerTableRecord
  2
_EXCLU
 70
0
 62
7
  6
CONTINUOUS
370
-3
390
F
  0
LAYER
  5
20E
100
AcDbSymbolTableRecord
100
AcDbLayerTableRecord
  2
_SURFACE
 70
0
 62
7
  6
CONTINUOUS
370
-3
390
F
  0
LAYER
  5
20F
100
AcDbSymbolTableRecord
100
AcDbLayerTableRecord
  2
_SURFCOPI
 70
0
 62
7
  6
CONTINUOUS
370
-3
390
F
  0
LAYER
  5
210
100
AcDbSymbolTableRecord
100
AcDbLayerTableRecord
  2
_SURFELECTRO
 70
0
 62
7
  6
CONTINUOUS
370
-3
390
F
  0
LAYER
  5
211
100
AcDbSymbolTableRecord
100
AcDbLayerTableRecord
  2
_SURFEXT
 70
0
 62
7
  6
CONTINUOUS
370
-3
390
F
  0
LAYER
  5
212
100
AcDbSymbolTableRecord
100
AcDbLayerTableRecord
  2
_SURFINI
 70
0
 62
7
  6
CONTINUOUS
370
-3
390
F
  0
LAYER
  5
213
100
AcDbSymbolTableRecord
100
AcDbLayerTableRecord
  2
_SURFINT
 70
0
 62
7
  6
CONTINUOUS
370
-3
390
F
  0
LAYER
  5
214
100
AcDbSymbolTableRecord
100
AcDbLayerTableRecord
  2
___COSMETIC_THREAD
 70
0
 62
7
  6
CONTINUOUS
370
-3
390
F
  0
LAYER
  5
215
100
AcDbSymbolTableRecord
100
AcDbLayerTableRecord
  2
___GDT
 70
0
 62
7
  6
CONTINUOUS
370
-3
390
F
  0
LAYER
  5
216
100
AcDbSymbolTableRecord
100
AcDbLayerTableRecord
  2
___NOTE
 70
0
 62
7
  6
CONTINUOUS
370
-3
390
F
  0
LAYER
  5
217
100
AcDbSymbolTableRecord
100
AcDbLayerTableRecord
  2
___SYMBOL
 70
0
 62
7
  6
CONTINUOUS
370
-3
390
F
  0
ENDTAB
  0
TABLE
  2
STYLE
  5
3
100
AcDbSymbolTable
 70
1
  0
STYLE
  5
11
100
AcDbSymbolTableRecord
100
AcDbTextStyleTableRecord
  2
STANDARD
 70
0
 40
0.0
 41
0.8
 50
0.0
 71
0
 42
0.2
  3
txt
  4

  0
STYLE
  5
218
100
AcDbSymbolTableRecord
100
AcDbTextStyleTableRecord
  2
TEXTSTYLE_1
 70
0
 40
0.0
 41
0.8
 50
0.0
 71
0
 42
0.2
  3
gdt
  4

  0
ENDTAB
  0
TABLE
  2
VIEW
  5
6
100
AcDbSymbolTable
 70
0
  0
ENDTAB
  0
TABLE
  2
UCS
  5
7
100
AcDbSymbolTable
 70
0
  0
ENDTAB
  0
TABLE
  2
APPID
  5
9
100
AcDbSymbolTable
 70
1
  0
APPID
  5
219
100
AcDbSymbolTableRecord
100
AcDbRegAppTableRecord
  2
ACAD
 70
0
  0
ENDTAB
  0
TABLE
  2
BLOCK_RECORD
  5
1
100
AcDbSymbolTable
 70
0
  0
BLOCK_RECORD
  5
21A
100
AcDbSymbolTableRecord
100
AcDbBlockTableRecord
  2
*Model_Space
  0
BLOCK_RECORD
  5
21B
100
AcDbSymbolTableRecord
100
AcDbBlockTableRecord
  2
*Paper_Space
  0
ENDTAB
  0
TABLE
  2
DIMSTYLE
  5
A
100
AcDbSymbolTable
 70
1
100
AcDbDimStyleTable
 71
0
  0
DIMSTYLE
105
21C
100
AcDbSymbolTableRecord
100
AcDbDimStyleTableRecord
  2
STANDARD
 70
0
  3

  4

 40
1.0
 41
3.5
 42
1.0
 43
0.38
 44
1.5
 45
0.0
 46
0.0
 47
0.01
 48
0.01
140
3.5
141
0.09
142
0.0
143
25.4
144
1.0
145
0.0
146
1.0
147
0.625
 71
1.0
 72
0.0
 73
1
 74
1
 75
0
 76
0
 77
0
 78
8
170
0
171
2
172
0
173
0
174
0
175
0
176
0
177
0
178
0
270
2
271
3
272
3
273
2
274
2
275
0
280
0
281
0
282
0
283
1
284
8
285
0
286
0
287
3
288
0
340
11
278
46
  0
ENDTAB
  0
ENDSEC
  0
SECTION
  2
BLOCKS
  0
BLOCK
  5
20
100
AcDbEntity
  8
0
100
AcDbBlockBegin
  2
*Model_Space
 70
0
 10
0.0
 20
0.0
 30
0.0
  3
*Model_Space
  1

  0
ENDBLK
  5
21
100
AcDbEntity
  8
0
100
AcDbBlockEnd
  0
BLOCK
  5
1C
100
AcDbEntity
  8
0
100
AcDbBlockBegin
  2
*Paper_Space
 70
0
 10
0.0
 20
0.0
 30
0.0
  3
*Paper_Space
  1

  0
ENDBLK
  5
1D
100
AcDbEntity
  8
0
100
AcDbBlockEnd
  0
ENDSEC
  0
SECTION
  2
ENTITIES
  0
LINE
  5
21D
100
AcDbEntity
  8
0
100
AcDbLine
 62
7
  6
CONTINUOUS
 10
0.0
 20
0.0
 11
0.0
 21
594.0
  0
LINE
  5
21E
100
AcDbEntity
  8
0
100
AcDbLine
 62
7
  6
CONTINUOUS
 10
0.0
 20
0.0
 11
841.0
 21
0.0
  0
LINE
  5
21F
100
AcDbEntity
  8
0
100
AcDbLine
 62
7
  6
CONTINUOUS
 10
0.0
 20
594.0
 11
841.0
 21
594.0
  0
LINE
  5
220
100
AcDbEntity
  8
0
100
AcDbLine
 62
7
  6
CONTINUOUS
 10
841.0
 20
0.0
 11
841.0
 21
594.0
  0
LWPOLYLINE
  5
221
100
AcDbEntity
  8
0
100
AcDbPolyline
 62
7
  6
CONTINUOUS
 90
10
 70
0
 10
44.7119889152
 20
204.8910979327
 10
44.7198760412
 20
203.3301972235
 10
44.7433181336
 20
201.7287546113
 10
44.7824049266
 20
200.0896150023
 10
44.8371218914
 20
198.4184752518
 10
44.9076091661
 20
196.7155983483
 10
44.9944188645
 20
194.9754075093
 10
45.0980505057
 20
193.1978189683
 10
45.2186936229
 20
191.3886519111
 10
45.312476374
 20
190.1176369888
  0
LWPOLYLINE
  5
222
100
AcDbEntity
  8
0
100
AcDbPolyline
 62
7
  6
CONTINUOUS
 90
10
 70
0
 10
45.312776547
 20
219.6962652526
 10
45.2187074077
 20
218.4215316654
 10
45.098061017
 20
216.6123383216
 10
44.9944265646
 20
214.8347239208
 10
44.9076145154
 20
213.0945079118
 10
44.83712533
 20
211.3916065201
 10
44.7824068712
 20
209.7204427054
 10
44.7433190016
 20
208.0812794688
 10
44.7198762598
 20
206.479813929
 10
44.7119889152
 20
204.9188911274
  0
LWPOLYLINE
  5
223
100
AcDbEntity
  8
0
100
AcDbPolyline
 62
7
  6
CONTINUOUS
 90
16
 70
0
 10
68.5062150127
 20
247.7680484971
 10
68.5085320629
 20
247.7390945594
 10
68.5118066544
 20
247.7108240671
 10
68.5166020758
 20
247.6838229232
 10
68.5237467771
 20
247.6579166527
 10
68.5341436979
 20
247.6331615223
 10
68.548190952
 20
247.6108424939
 10
68.5656404219
 20
247.5923581939
 10
68.5864370816
 20
247.5778046768
 10
68.6103966686
 20
247.5668575904
 10
68.6362884328
 20
247.559442278
 10
68.6629030702
 20
247.5550425365
 10
68.690178592
 20
247.5527118812
 10
68.7185695638
 20
247.5516879348
 10
68.7475921537
 20
247.5514299848
 10
113.004544836
 20
247.5514305771
  0
LINE
  5
224
100
AcDbEntity
  8
0
100
AcDbLine
 62
7
  6
CONTINUOUS
 10
68.4976350334
 20
247.9046569339
 11
68.5062150127
 21
247.7680484971
  0
LINE
  5
225
100
AcDbEntity
  8
0
100
AcDbLine
 62
7
  6
CONTINUOUS
 10
68.4731836015
 20
248.3180014776
 11
68.4976350334
 21
247.9046569339
  0
LINE
  5
226
100
AcDbEntity
  8
0
100
AcDbLine
 62
7
  6
CONTINUOUS
 10
68.4519256307
 20
248.7106383128
 11
68.4731836015
 21
248.3180014776
  0
LINE
  5
227
100
AcDbEntity
  8
0
100
AcDbLine
 62
7
  6
CONTINUOUS
 10
68.4334134443
 20
249.0861793792
 11
68.4519256307
 21
248.7106383128
  0
LINE
  5
228
100
AcDbEntity
  8
0
100
AcDbLine
 62
7
  6
CONTINUOUS
 10
68.4171843516
 20
249.4504929499
 11
68.4334134443
 21
249.0861793792
  0
LINE
  5
229
100
AcDbEntity
  8
0
100
AcDbLine
 62
7
  6
CONTINUOUS
 10
68.403337644
 20
249.7975909174
 11
68.4171843516
 21
249.4504929499
  0
LINE
  5
22A
100
AcDbEntity
  8
0
100
AcDbLine
 62
7
  6
CONTINUOUS
 10
68.3881660535
 20
250.2356848825
 11
68.403337644
 21
249.7975909174
  0
LINE
  5
22B
100
AcDbEntity
  8
0
100
AcDbLine
 62
7
  6
CONTINUOUS
 10
68.3766697321
 20
250.633995688
 11
68.3881660535
 21
250.2356848825
  0
LINE
  5
22C
100
AcDbEntity
  8
0
100
AcDbLine
 62
7
  6
CONTINUOUS
 10
68.3684599752
 20
250.9827773623
 11
68.3766697321
 21
250.633995688
  0
LINE
  5
22D
100
AcDbEntity
  8
0
100
AcDbLine
 62
7
  6
CONTINUOUS
 10
68.3627228086
 20
251.2894009153
 11
68.3684599752
 21
250.9827773623
  0
LINE
  5
22E
100
AcDbEntity
  8
0
100
AcDbLine
 62
7
  6
CONTINUOUS
 10
68.3584464634
 20
251.5935765744
 11
68.3627228086
 21
251.2894009153
  0
LINE
  5
22F
100
AcDbEntity
  8
0
100
AcDbLine
 62
7
  6
CONTINUOUS
 10
68.3557626897
 20
251.8786460351
 11
68.3584464634
 21
251.5935765744
  0
LINE
  5
230
100
AcDbEntity
  8
0
100
AcDbLine
 62
7
  6
CONTINUOUS
 10
68.354419124
 20
252.1589025734
 11
68.3557626897
 21
251.8786460351
  0
LINE
  5
231
100
AcDbEntity
  8
0
100
AcDbLine
 62
7
  6
CONTINUOUS
 10
68.3542445052
 20
252.2954762531
 11
68.354419124
 21
252.1589025734
  0
LINE
  5
232
100
AcDbEntity
  8
0
100
AcDbLine
 62
7
  6
CONTINUOUS
 10
68.3548365166
 20
252.5645723404
 11
68.3542445052
 21
252.3074672493
  0
LINE
  5
233
100
AcDbEntity
  8
0
100
AcDbLine
 62
7
  6
CONTINUOUS
 10
68.3566651938
 20
252.8367268598
 11
68.3548365166
 21
252.5645723404
  0
LINE
  5
234
100
AcDbEntity
  8
0
100
AcDbLine
 62
7
  6
CONTINUOUS
 10
68.3598002348
 20
253.1173531606
 11
68.3566651938
 21
252.8367268598
  0
LINE
  5
235
100
AcDbEntity
  8
0
100
AcDbLine
 62
7
  6
CONTINUOUS
 10
68.3647788698
 20
253.4323736414
 11
68.3598002348
 21
253.1173531606
  0
LINE
  5
236
100
AcDbEntity
  8
0
100
AcDbLine
 62
7
  6
CONTINUOUS
 10
68.3716262218
 20
253.7637645348
 11
68.3647788698
 21
253.4323736414
  0
LINE
  5
237
100
AcDbEntity
  8
0
100
AcDbLine
 62
7
  6
CONTINUOUS
 10
68.380945406
 20
254.1263099383
 11
68.3716262218
 21
253.7637645348
  0
LINE
  5
238
100
AcDbEntity
  8
0
100
AcDbLine
 62
7
  6
CONTINUOUS
 10
68.3914941421
 20
254.4701396675
 11
68.380945406
 21
254.1263099383
  0
LINE
  5
239
100
AcDbEntity
  8
0
100
AcDbLine
 62
7
  6
CONTINUOUS
 10
68.4028127816
 20
254.7913547353
 11
68.3914941421
 21
254.4701396675
  0
LINE
  5
23A
100
AcDbEntity
  8
0
100
AcDbLine
 62
7
  6
CONTINUOUS
 10
68.4183851883
 20
255.1807956436
 11
68.4028127816
 21
254.7913547353
  0
LINE
  5
23B
100
AcDbEntity
  8
0
100
AcDbLine
 62
7
  6
CONTINUOUS
 10
68.436312577
 20
255.5780667095
 11
68.4183851883
 21
255.1807956436
  0
LINE
  5
23C
100
AcDbEntity
  8
0
100
AcDbLine
 62
7
  6
CONTINUOUS
 10
68.4572459121
 20
255.9939973948
 11
68.436312577
 21
255.5780667095
  0
LINE
  5
23D
100
AcDbEntity
  8
0
100
AcDbLine
 62
7
  6
CONTINUOUS
 10
68.481548177
 20
256.4304176018
 11
68.4572459121
 21
255.9939973948
  0
LINE
  5
23E
100
AcDbEntity
  8
0
100
AcDbLine
 62
7
  6
CONTINUOUS
 10
68.5050668527
 20
256.8173156075
 11
68.481548177
 21
256.4304176018
  0
LINE
  5
23F
100
AcDbEntity
  8
DATUM_AXIS
100
AcDbLine
 62
7
  6
CENTER
 10
63.2286605949
 20
209.8486707525
 11
55.9202079862
 21
182.5731573186
  0
LINE
  5
240
100
AcDbEntity
  8
0
100
AcDbLine
 62
7
  6
CONTINUOUS
 10
189.3542279346
 20
172.2569030589
 11
184.8147787462
 21
172.6540534015
  0
LINE
  5
241
100
AcDbEntity
  8
0
100
AcDbLine
 62
7
  6
CONTINUOUS
 10
163.8542441889
 20
185.1540534015
 11
182.8542279346
 21
185.1540534015
  0
LINE
  5
242
100
AcDbEntity
  8
0
100
AcDbLine
 62
7
  6
CONTINUOUS
 10
45.8107378288
 20
189.6558740982
 11
48.8628774171
 21
189.6558740982
  0
LINE
  5
243
100
AcDbEntity
  8
0
100
AcDbLine
 62
7
  6
CONTINUOUS
 10
66.7731554591
 20
189.6558740982
 11
79.3530385584
 21
189.6558740982
  0
LINE
  5
244
100
AcDbEntity
  8
DATUM_AXIS
100
AcDbLine
 62
7
  6
CONTINUOUS
 10
216.8542279346
 20
192.1765534015
 11
189.3542279346
 21
192.1765534015
  0
LINE
  5
245
100
AcDbEntity
  8
0
100
AcDbLine
 62
7
  6
CONTINUOUS
 10
216.8542279346
 20
192.1765534015
 11
189.3542279346
 21
192.1765534015
  0
LINE
  5
246
100
AcDbEntity
  8
0
100
AcDbLine
 62
2
  6
CONTINUOUS
 10
217.9817279346
 20
193.3040534015
 11
189.3542279346
 21
193.3040534015
  0
LINE
  5
247
100
AcDbEntity
  8
0
100
AcDbLine
 62
7
  6
CONTINUOUS
 10
115.8542441889
 20
267.3466639427
 11
115.8542441889
 21
259.9015452463
  0
LINE
  5
248
100
AcDbEntity
  8
0
100
AcDbLine
 62
7
  6
CONTINUOUS
 10
115.8542441889
 20
244.7016225027
 11
115.8542441889
 21
237.9212705509
  0
LINE
  5
249
100
AcDbEntity
  8
_SURFINI
100
AcDbLine
 62
7
  6
CONTINUOUS
 10
118.3542441889
 20
237.4212456585
 11
118.3542441889
 21
236.3210368643
  0
LINE
  5
24A
100
AcDbEntity
  8
0
100
AcDbLine
 62
7
  6
CONTINUOUS
 10
118.3542441889
 20
236.3210368643
 11
118.3542441889
 21
237.4212456585
  0
LWPOLYLINE
  5
24B
100
AcDbEntity
  8
0
100
AcDbPolyline
 62
7
  6
CONTINUOUS
 90
30
 70
0
 10
115.8542454433
 20
235.8210368643
 10
115.8532402724
 20
231.4037960708
 10
115.8413950216
 20
230.6659673306
 10
115.8063221312
 20
229.9534864044
 10
115.7384583945
 20
229.2639304877
 10
115.6311590083
 20
228.5979277318
 10
115.4813781966
 20
227.9592320747
 10
115.2891881754
 20
227.3503919286
 10
115.0553754498
 20
226.7689547226
 10
114.7809927117
 20
226.2115108671
 10
114.4741971609
 20
225.683698527
 10
114.1449122197
 20
225.1862851995
 10
113.792168
 20
224.7077245167
 10
113.4223604182
 20
224.2510178627
 10
113.0414730763
 20
223.818947452
 10
112.6412412894
 20
223.3999809811
 10
112.224736641
 20
222.9972117393
 10
111.7950309154
 20
222.6137327773
 10
111.340634015
 20
222.2412078574
 10
110.8643041866
 20
221.8856526671
 10
110.3689555058
 20
221.5534519168
 10
109.8429265485
 20
221.243511114
 10
109.286955028
 20
220.9659102603
 10
108.7067600661
 20
220.7291206613
 10
108.0988651272
 20
220.5342212643
 10
107.4607772239
 20
220.382057554
 10
106.795100617
 20
220.2727936576
 10
106.1056806241
 20
220.2034394328
 10
105.3932075738
 20
220.1673545787
 10
104.6552915385
 20
220.154954417
  0
LINE
  5
24C
100
AcDbEntity
  8
DATUM_AXIS
100
AcDbLine
 62
7
  6
CENTER
 10
229.0974606079
 20
202.6540534015
 11
175.1087260238
 21
202.6540534015
  0
LINE
  5
24D
100
AcDbEntity
  8
0
100
AcDbLine
 62
2
  6
CONTINUOUS
 10
217.9817279346
 20
212.0040534015
 11
189.3542279346
 21
212.0040534015
  0
LINE
  5
24E
100
AcDbEntity
  8
DATUM_AXIS
100
AcDbLine
 62
7
  6
CONTINUOUS
 10
216.8542279346
 20
213.1315534015
 11
189.3542279346
 21
213.1315534015
  0
LINE
  5
24F
100
AcDbEntity
  8
0
100
AcDbLine
 62
7
  6
CONTINUOUS
 10
216.8542279346
 20
213.1315534015
 11
189.3542279346
 21
213.1315534015
  0
LINE
  5
250
100
AcDbEntity
  8
_CURVE
100
AcDbLine
 62
40
  6
CONTINUOUS
 10
132.1542441893
 20
268.431659974
 11
132.1540587868
 21
268.3018372704
  0
LINE
  5
251
100
AcDbEntity
  8
0
100
AcDbLine
 62
7
  6
CONTINUOUS
 10
45.810734295
 20
220.154053406
 11
104.6552915385
 21
220.154954417
  0
LWPOLYLINE
  5
252
100
AcDbEntity
  8
0
100
AcDbPolyline
 62
7
  6
CONTINUOUS
 90
29
 70
0
 10
182.8542279346
 20
220.1540534015
 10
161.9980313569
 20
220.1551959237
 10
161.2618174073
 20
220.1675859934
 10
160.5510291527
 20
220.2037290705
 10
159.8632992097
 20
220.2732512782
 10
159.199361825
 20
220.3828309327
 10
158.5631255296
 20
220.5354739457
 10
157.9571876291
 20
220.7310255476
 10
157.3790511907
 20
220.9686483137
 10
156.8252968276
 20
221.2472380292
 10
156.3016188845
 20
221.5582451286
 10
155.8086951828
 20
221.8915250713
 10
155.3349058884
 20
222.2481386733
 10
154.883125413
 20
222.6216564462
 10
154.4560605989
 20
223.0060352673
 10
154.042270342
 20
223.4096131705
 10
153.6447871129
 20
223.8292735297
 10
153.2666435324
 20
224.261899259
 10
152.8996169898
 20
224.7190158124
 10
152.5496351594
 20
225.1978024369
 10
152.2230167714
 20
225.6952348804
 10
151.9187611151
 20
226.2228493585
 10
151.6466782624
 20
226.7798285514
 10
151.4148153142
 20
227.360536513
 10
151.2241998524
 20
227.9684169418
 10
151.0756232748
 20
228.6059080597
 10
150.9691682016
 20
229.2704661347
 10
150.9018208055
 20
229.9584078186
 10
150.871548133
 20
230.5314695953
  0
LINE
  5
253
100
AcDbEntity
  8
DATUM_AXIS
100
AcDbLine
 62
7
  6
CENTER
 10
133.3542441889
 20
206.5318346529
 11
133.3542441889
 21
272.1784678188
  0
LINE
  5
254
100
AcDbEntity
  8
_CURVE
100
AcDbLine
 62
40
  6
CONTINUOUS
 10
134.5540587862
 20
268.3019245619
 11
134.5542442065
 21
268.4317472208
  0
LWPOLYLINE
  5
255
100
AcDbEntity
  8
0
100
AcDbPolyline
 62
7
  6
CONTINUOUS
 90
13
 70
0
 10
45.8148995111
 20
220.1540337477
 10
45.7941769896
 20
220.1537655197
 10
45.7239554529
 20
220.1464123619
 10
45.6546842576
 20
220.1289833351
 10
45.5882682175
 20
220.1016946318
 10
45.5271147169
 20
220.0656363028
 10
45.4718753089
 20
220.0214566908
 10
45.4239297474
 20
219.9705450193
 10
45.3844111934
 20
219.9148447246
 10
45.3534276734
 20
219.855591723
 10
45.3311051668
 20
219.7943789982
 10
45.3173091928
 20
219.7331740502
 10
45.3124727603
 20
219.6922846377
  0
LINE
  5
256
100
AcDbEntity
  8
0
100
AcDbLine
 62
7
  6
CONTINUOUS
 10
189.3542279346
 20
233.0512037441
 11
184.8147787462
 21
232.6540534015
  0
LWPOLYLINE
  5
257
100
AcDbEntity
  8
0
100
AcDbPolyline
 62
7
  6
CONTINUOUS
 90
88
 70
0
 10
150.8542599949
 20
267.3483795337
 10
150.8541146207
 20
267.3588303545
 10
150.8537522463
 20
267.3692445607
 10
150.8531746598
 20
267.3796226333
 10
150.8523840721
 20
267.3899565112
 10
150.8513830971
 20
267.4002380863
 10
150.8501735956
 20
267.410468278
 10
150.8487583496
 20
267.4206395816
 10
150.8471405197
 20
267.4307444536
 10
150.8453219545
 20
267.4407841983
 10
150.843305899
 20
267.4507518954
 10
150.8410959542
 20
267.4606405875
 10
150.8386938908
 20
267.4704518938
 10
150.8361033168
 20
267.480179486
 10
150.8333281768
 20
267.4898169955
 10
150.8303701194
 20
267.4993662757
 10
150.8272330263
 20
267.5088215818
 10
150.8239211012
 20
267.5181771218
 10
150.8204358476
 20
267.5274348984
 10
150.8167813459
 20
267.5365897298
 10
150.8129619865
 20
267.5456363788
 10
150.8089791269
 20
267.5545769126
 10
150.8048369833
 20
267.5634066854
 10
150.8005400749
 20
267.572120986
 10
150.7960896307
 20
267.5807218682
 10
150.7914899533
 20
267.5892051907
 10
150.7867456448
 20
267.5975667378
 10
150.7818578399
 20
267.6058084813
 10
150.7768307553
 20
267.6139269648
 10
150.771669167
 20
267.6219182213
 10
150.76637459
 20
267.6297834624
 10
150.7609503972
 20
267.6375209325
 10
150.7554022759
 20
267.6451258584
 10
150.7497350945
 20
267.652595089
 10
150.7439542745
 20
267.6599251249
 10
150.738064086
 20
267.6671142537
 10
150.7320676652
 20
267.6741622359
 10
150.725970007
 20
267.6810667294
 10
150.7197758706
 20
267.6878259187
 10
150.713487845
 20
267.6944404468
 10
150.7071106552
 20
267.7009087112
 10
150.700649231
 20
267.7072291165
 10
150.6941062521
 20
267.7134023718
 10
150.6874863659
 20
267.719427339
 10
150.6807944176
 20
267.7253028848
 10
150.6740331887
 20
267.7310297835
 10
150.6672072155
 20
267.7366073402
 10
150.6603212253
 20
267.7420348624
 10
150.6533781101
 20
267.7473131939
 10
150.6463822644
 20
267.7524420608
 10
150.639338267
 20
267.75742119
 10
150.6322491259
 20
267.7622515028
 10
150.6251190657
 20
267.7669331234
 10
150.6179524875
 20
267.7714661755
 10
150.6107525176
 20
267.775851669
 10
150.6035231798
 20
267.7800901047
 10
150.5962686753
 20
267.7841819769
 10
150.588992257
 20
267.7881283908
 10
150.5816972662
 20
267.7919304329
 10
150.5743881323
 20
267.7955886941
 10
150.5670696274
 20
267.799103732
 10
150.559744388
 20
267.80247722
 10
150.5524170846
 20
267.8057099404
 10
150.54509547
 20
267.8088015478
 10
150.5377826825
 20
267.8117538865
 10
150.5304824041
 20
267.8145686198
 10
150.5232031288
 20
267.8172457499
 10
150.5159477777
 20
267.8197875837
 10
150.5087196322
 20
267.82219632
 10
150.5015276016
 20
267.8244724605
 10
150.4943742247
 20
267.826618774
 10
150.4872624282
 20
267.8286379083
 10
150.480201523
 20
267.8305308656
 10
150.4731924375
 20
267.8323011137
 10
150.4662388742
 20
267.8339513752
 10
150.4593540606
 20
267.8354823912
 10
150.4525373085
 20
267.8368983133
 10
150.445792992
 20
267.8382021533
 10
150.4391415697
 20
267.8393942514
 10
150.4325834373
 20
267.8404791078
 10
150.426120724
 20
267.8414608279
 10
150.4197759748
 20
267.8423407776
 10
150.413544889
 20
267.8431245342
 10
150.407433001
 20
267.8438162345
 10
150.4014768551
 20
267.8444171881
 10
150.3956639084
 20
267.8449343505
 10
150.3900063421
 20
267.8453721169
 10
150.3888152633
 20
267.8454560535
  0
LINE
  5
258
100
AcDbEntity
  8
_SURFINI
100
AcDbLine
 62
7
  6
CONTINUOUS
 10
148.3542441889
 20
237.4212456973
 11
148.3542441889
 21
236.3210368643
  0
LINE
  5
259
100
AcDbEntity
  8
0
100
AcDbLine
 62
7
  6
CONTINUOUS
 10
148.3542441889
 20
236.3210368643
 11
148.3542441889
 21
237.4212456973
  0
LINE
  5
25A
100
AcDbEntity
  8
0
100
AcDbLine
 62
7
  6
CONTINUOUS
 10
150.8542599949
 20
267.3483795337
 11
150.8542441889
 21
237.9212705509
  0
LINE
  5
25B
100
AcDbEntity
  8
0
100
AcDbLine
 62
7
  6
CONTINUOUS
 10
150.8542441889
 20
235.8210368643
 11
150.8542441889
 21
231.9540514497
  0
LINE
  5
25C
100
AcDbEntity
  8
0
100
AcDbLine
 62
7
  6
CONTINUOUS
 10
150.3536136326
 20
236.3210368643
 11
116.35482923
 21
236.3210368643
  0
LINE
  5
25D
100
AcDbEntity
  8
0
100
AcDbLine
 62
7
  6
CONTINUOUS
 10
150.3542494814
 20
237.4212677345
 11
116.3541981311
 21
237.4212705506
  0
LINE
  5
25E
100
AcDbEntity
  8
0
100
AcDbLine
 62
7
  6
CONTINUOUS
 10
116.4017635743
 20
237.4212655456
 11
116.4472842187
 21
237.4212573741
  0
LWPOLYLINE
  5
25F
100
AcDbEntity
  8
0
100
AcDbPolyline
 62
7
  6
CONTINUOUS
 90
16
 70
0
 10
68.7484092287
 20
257.0515136922
 10
68.7193265237
 20
257.0512680908
 10
68.6909005326
 20
257.0502675504
 10
68.6635739248
 20
257.047967172
 10
68.6369090642
 20
257.0436075542
 10
68.6109692223
 20
257.0362479689
 10
68.5869438086
 20
257.025371289
 10
68.5660557303
 20
257.0108887864
 10
68.5485067897
 20
256.9924570396
 10
68.534376987
 20
256.9701674119
 10
68.523918503
 20
256.9454248544
 10
68.5167275288
 20
256.9195186326
 10
68.5118986794
 20
256.8925034805
 10
68.5086021969
 20
256.8642124601
 10
68.5062727766
 20
256.8352373298
 10
68.5050927616
 20
256.817301494
  0
LINE
  5
260
100
AcDbEntity
  8
0
100
AcDbLine
 62
7
  6
CONTINUOUS
 10
68.7484092287
 20
257.0515136922
 11
113.0042442574
 21
257.0515178617
  0
LINE
  5
261
100
AcDbEntity
  8
0
100
AcDbLine
 62
7
  6
CONTINUOUS
 10
183.3542279346
 20
231.0601418846
 11
183.3542279346
 21
174.2479649185
  0
LWPOLYLINE
  5
262
100
AcDbEntity
  8
0
100
AcDbPolyline
 62
7
  6
CONTINUOUS
 90
117
 70
0
 10
116.3196349232
 20
267.8454672757
 10
116.3185660567
 20
267.8453920051
 10
116.3142740648
 20
267.8450665626
 10
116.3099228105
 20
267.8446986534
 10
116.3055143819
 20
267.8442868331
 10
116.3010597903
 20
267.8438306494
 10
116.2965591546
 20
267.8433287516
 10
116.2920128754
 20
267.8427797983
 10
116.2874325936
 20
267.8421839458
 10
116.2828190639
 20
267.8415401896
 10
116.2781723849
 20
267.8408474264
 10
116.2735033875
 20
267.8401062853
 10
116.2688130698
 20
267.8393160864
 10
116.2641015518
 20
267.8384760052
 10
116.2593784785
 20
267.8375870389
 10
116.2546475398
 20
267.8366493369
 10
116.2499063572
 20
267.8356618834
 10
116.2451555342
 20
267.8346242125
 10
116.240396486
 20
267.8335360519
 10
116.235629186
 20
267.8323968138
 10
116.2308520916
 20
267.8312055018
 10
116.2260656502
 20
267.829961559
 10
116.2212708832
 20
267.8286645811
 10
116.2164671284
 20
267.8273136999
 10
116.2116551684
 20
267.8259084221
 10
116.2068357871
 20
267.8244482616
 10
116.2020083502
 20
267.8229322857
 10
116.1971736961
 20
267.8213599911
 10
116.1923326609
 20
267.8197308813
 10
116.1874846388
 20
267.8180439562
 10
116.1826305298
 20
267.8162987053
 10
116.1777712275
 20
267.8144946234
 10
116.172906155
 20
267.8126306403
 10
116.16803628
 20
267.8107062408
 10
116.1631625594
 20
267.8087209139
 10
116.1582844458
 20
267.8066735155
 10
116.153402981
 20
267.8045635293
 10
116.1485191911
 20
267.8023904416
 10
116.1436325595
 20
267.80015303
 10
116.1387442231
 20
267.7978507885
 10
116.1338552692
 20
267.7954831974
 10
116.1289651685
 20
267.7930489296
 10
116.1240753392
 20
267.7905475855
 10
116.1191867572
 20
267.7879785533
 10
116.1142983092
 20
267.7853400767
 10
116.1094114473
 20
267.7826317147
 10
116.1045273174
 20
267.7798528707
 10
116.0996444528
 20
267.7770014046
 10
116.0947642803
 20
267.7740767726
 10
116.0898882134
 20
267.7710784353
 10
116.0850148937
 20
267.7680040937
 10
116.0801458848
 20
267.7648531925
 10
116.0752827345
 20
267.7616251798
 10
116.0704242083
 20
267.7583175982
 10
116.0655720253
 20
267.7549298944
 10
116.06072788
 20
267.7514615133
 10
116.0558906687
 20
267.7479098335
 10
116.0510622828
 20
267.7442743178
 10
116.046244579
 20
267.7405544212
 10
116.0414365929
 20
267.7367473522
 10
116.0366404046
 20
267.7328526063
 10
116.0318580497
 20
267.7288696641
 10
116.0270887129
 20
267.7247955583
 10
116.0223346867
 20
267.720629842
 10
116.0175981958
 20
267.7163720347
 10
116.0128785669
 20
267.7120189699
 10
116.0081783672
 20
267.7075703234
 10
116.003499983
 20
267.7030256334
 10
115.9988427505
 20
267.6983813764
 10
115.9942094437
 20
267.6936372844
 10
115.9896027289
 20
267.6887930179
 10
115.9850221033
 20
267.6838447987
 10
115.9804705953
 20
267.6787924681
 10
115.975951144
 20
267.6736358159
 10
115.9714634761
 20
267.6683708518
 10
115.9670108944
 20
267.6629975631
 10
115.962596627
 20
267.6575159068
 10
115.9582206923
 20
267.6519217312
 10
115.9538863764
 20
267.6462148041
 10
115.9495975277
 20
267.6403956969
 10
115.9453553931
 20
267.6344614094
 10
115.9411635279
 20
267.6284119859
 10
115.9370260007
 20
267.6222482978
 10
115.9329451293
 20
267.6159686294
 10
115.9289249486
 20
267.6095738355
 10
115.9249693774
 20
267.6030647178
 10
115.9210808217
 20
267.5964395801
 10
115.9172634823
 20
267.5896997042
 10
115.9135214078
 20
267.5828462745
 10
115.909857061
 20
267.5758775664
 10
115.9062747709
 20
267.5687953071
 10
115.9027787019
 20
267.5616011211
 10
115.8993713833
 20
267.5542932706
 10
115.8960572406
 20
267.5468739675
 10
115.8928405203
 20
267.5393453137
 10
115.8897238243
 20
267.5317055739
 10
115.8867118454
 20
267.5239580379
 10
115.8838086422
 20
267.5161047707
 10
115.881016321
 20
267.5081423862
 10
115.8783399164
 20
267.5000755656
 10
115.8757833026
 20
267.4919060779
 10
115.8733476516
 20
267.4836263753
 10
115.8710379242
 20
267.4752406821
 10
115.8688586631
 20
267.4667524216
 10
115.8668115424
 20
267.4581531356
 10
115.8649017631
 20
267.4494476151
 10
115.8631341936
 20
267.4406401499
 10
115.8615112556
 20
267.4317219659
 10
115.8600383919
 20
267.4226987417
 10
115.8587206907
 20
267.4135755732
 10
115.8575613749
 20
267.4043434215
 10
115.856566055
 20
267.3950089992
 10
115.8557399647
 20
267.3855783402
 10
115.8550871745
 20
267.3760421984
 10
115.8546133774
 20
267.3664089868
 10
115.8543238084
 20
267.356685294
 10
115.8542233835
 20
267.3466645743
  0
LINE
  5
263
100
AcDbEntity
  8
0
100
AcDbLine
 62
7
  6
CONTINUOUS
 10
189.3542279346
 20
172.2569030589
 11
189.3542279346
 21
233.0512037441
  0
LINE
  5
264
100
AcDbEntity
  8
0
100
AcDbLine
 62
7
  6
CONTINUOUS
 10
218.3542279415
 20
211.6315533946
 11
216.8542279427
 21
213.1315533934
  0
LINE
  5
265
100
AcDbEntity
  8
0
100
AcDbLine
 62
7
  6
CONTINUOUS
 10
218.3542279424
 20
193.6765534093
 11
216.8542279437
 21
192.1765534106
  0
LINE
  5
266
100
AcDbEntity
  8
0
100
AcDbLine
 62
7
  6
CONTINUOUS
 10
216.8542279346
 20
192.1765534015
 11
216.8542279346
 21
213.1315534015
  0
LINE
  5
267
100
AcDbEntity
  8
0
100
AcDbLine
 62
7
  6
CONTINUOUS
 10
217.9817279346
 20
193.3040534015
 11
217.9817279346
 21
212.0040534015
  0
LINE
  5
268
100
AcDbEntity
  8
0
100
AcDbLine
 62
7
  6
CONTINUOUS
 10
218.3542279346
 20
193.6765534023
 11
218.3542279346
 21
211.6315534007
  0
LINE
  5
269
100
AcDbEntity
  8
0
100
AcDbLine
 62
7
  6
CONTINUOUS
 10
45.8151824872
 20
128.2861804416
 11
45.8148995079
 21
116.7863199601
  0
LINE
  5
26A
100
AcDbEntity
  8
0
100
AcDbLine
 62
7
  6
CONTINUOUS
 10
45.2972655987
 20
127.8366835954
 11
45.2972819832
 21
127.8368453366
  0
LWPOLYLINE
  5
26B
100
AcDbEntity
  8
0
100
AcDbPolyline
 62
7
  6
CONTINUOUS
 90
16
 70
0
 10
68.5025072618
 20
113.408011176
 10
68.5051509652
 20
113.3824320979
 10
68.5095380656
 20
113.3526680062
 10
68.5158890892
 20
113.3243960465
 10
68.5249778838
 20
113.2981604892
 10
68.5376129434
 20
113.2739777141
 10
68.554098515
 20
113.2530195124
 10
68.573567933
 20
113.2367263803
 10
68.595684847
 20
113.2245283719
 10
68.6197675491
 20
113.2159053171
 10
68.6428984618
 20
113.2107012997
 10
68.6593406145
 20
113.2083345276
 10
68.6726841441
 20
113.2070085037
 10
68.6949218082
 20
113.2056586916
 10
68.7370704666
 20
113.2048666677
 10
114.0482737782
 20
113.2037989869
  0
LINE
  5
26C
100
AcDbEntity
  8
0
100
AcDbLine
 62
7
  6
CONTINUOUS
 10
68.5001650385
 20
113.4345864428
 11
68.5025072618
 21
113.408011176
  0
LINE
  5
26D
100
AcDbEntity
  8
0
100
AcDbLine
 62
7
  6
CONTINUOUS
 10
184.8147787462
 20
86.7868736639
 11
189.3542279346
 21
86.3897233213
  0
LWPOLYLINE
  5
26E
100
AcDbEntity
  8
0
100
AcDbPolyline
 62
7
  6
CONTINUOUS
 90
12
 70
0
 10
68.6322692591
 20
120.3612274037
 10
68.606908054
 20
120.3539911397
 10
68.5834456908
 20
120.3433813843
 10
68.5629708938
 20
120.3292941421
 10
68.5456573272
 20
120.3113913557
 10
68.5315753268
 20
120.2897622188
 10
68.520964201
 20
120.265698651
 10
68.5134627478
 20
120.2403884893
 10
68.5082278023
 20
120.2138967221
 10
68.5044687986
 20
120.1861018861
 10
68.501650486
 20
120.1576096645
 10
68.5001220034
 20
120.1394195722
  0
LINE
  5
26F
100
AcDbEntity
  8
0
100
AcDbLine
 62
7
  6
CONTINUOUS
 10
138.2639172854
 20
99.9831221936
 11
138.2801660053
 21
99.987505346
  0
LWPOLYLINE
  5
270
100
AcDbEntity
  8
0
100
AcDbPolyline
 62
7
  6
CONTINUOUS
 90
19
 70
0
 10
116.7510630271
 20
122.3172545182
 10
116.6798026198
 20
122.1263863852
 10
116.5945300394
 20
121.9399831338
 10
116.4957777913
 20
121.7596837407
 10
116.3846230417
 20
121.5874551368
 10
116.2617718615
 20
121.4241495551
 10
116.127160051
 20
121.2696672606
 10
115.9817503286
 20
121.1252131027
 10
115.826755363
 20
120.9919196615
 10
115.6621658191
 20
120.8697779797
 10
115.4892234282
 20
120.7597808883
 10
115.3092946549
 20
120.6627304452
 10
115.1223669853
 20
120.5786222038
 10
114.929958206
 20
120.508193373
 10
114.7335264043
 20
120.4519042326
 10
114.5329120629
 20
120.4097211375
 10
114.329164099
 20
120.3820063253
 10
114.124540018
 20
120.3690702796
 10
114.0470881458
 20
120.3680194668
  0
LINE
  5
271
100
AcDbEntity
  8
0
100
AcDbLine
 62
7
  6
CONTINUOUS
 10
124.1061911537
 20
131.6513433881
 11
123.7966749351
 21
131.4625751161
  0
LINE
  5
272
100
AcDbEntity
  8
0
100
AcDbLine
 62
7
  6
CONTINUOUS
 10
123.7966749351
 20
131.4625751161
 11
123.7812740143
 21
131.4532804749
  0
LINE
  5
273
100
AcDbEntity
  8
0
100
AcDbLine
 62
7
  6
CONTINUOUS
 10
124.2182673225
 20
131.7188757132
 11
124.1061911537
 21
131.6513433881
  0
LINE
  5
274
100
AcDbEntity
  8
0
100
AcDbLine
 62
7
  6
CONTINUOUS
 10
124.3123302585
 20
131.7749620213
 11
124.2182673225
 21
131.7188757132
  0
LINE
  5
275
100
AcDbEntity
  8
0
100
AcDbLine
 62
7
  6
CONTINUOUS
 10
124.3973466502
 20
131.8251423458
 11
124.3123302585
 21
131.7749620213
  0
LINE
  5
276
100
AcDbEntity
  8
0
100
AcDbLine
 62
7
  6
CONTINUOUS
 10
124.4885711705
 20
131.8784150266
 11
124.3973466502
 21
131.8251423458
  0
LINE
  5
277
100
AcDbEntity
  8
0
100
AcDbLine
 62
7
  6
CONTINUOUS
 10
124.566216019
 20
131.9232738075
 11
124.4885711705
 21
131.8784150266
  0
LINE
  5
278
100
AcDbEntity
  8
0
100
AcDbLine
 62
7
  6
CONTINUOUS
 10
124.6482311253
 20
131.9701619453
 11
124.566216019
 21
131.9232738075
  0
LINE
  5
279
100
AcDbEntity
  8
0
100
AcDbLine
 62
7
  6
CONTINUOUS
 10
124.7348845387
 20
132.0191388852
 11
124.6482311253
 21
131.9701619453
  0
LINE
  5
27A
100
AcDbEntity
  8
0
100
AcDbLine
 62
7
  6
CONTINUOUS
 10
124.8265237731
 20
132.0702963484
 11
124.7348845387
 21
132.0191388852
  0
LINE
  5
27B
100
AcDbEntity
  8
0
100
AcDbLine
 62
7
  6
CONTINUOUS
 10
124.8987551077
 20
132.1101536498
 11
124.8265237731
 21
132.0702963484
  0
LINE
  5
27C
100
AcDbEntity
  8
0
100
AcDbLine
 62
7
  6
CONTINUOUS
 10
124.9741931661
 20
132.1513398639
 11
124.8987551077
 21
132.1101536498
  0
LINE
  5
27D
100
AcDbEntity
  8
0
100
AcDbLine
 62
7
  6
CONTINUOUS
 10
125.0530307143
 20
132.1938997536
 11
124.9741931661
 21
132.1513398639
  0
LINE
  5
27E
100
AcDbEntity
  8
0
100
AcDbLine
 62
7
  6
CONTINUOUS
 10
125.1354595329
 20
132.237870644
 11
125.0530307143
 21
132.1938997536
  0
LINE
  5
27F
100
AcDbEntity
  8
0
100
AcDbLine
 62
7
  6
CONTINUOUS
 10
125.2216574956
 20
132.2832753039
 11
125.1354595329
 21
132.237870644
  0
LINE
  5
280
100
AcDbEntity
  8
0
100
AcDbLine
 62
7
  6
CONTINUOUS
 10
125.3117718123
 20
132.3301134014
 11
125.2216574956
 21
132.2832753039
  0
LINE
  5
281
100
AcDbEntity
  8
0
100
AcDbLine
 62
7
  6
CONTINUOUS
 10
125.4055960689
 20
132.3781979742
 11
125.3117718123
 21
132.3301134014
  0
LINE
  5
282
100
AcDbEntity
  8
0
100
AcDbLine
 62
7
  6
CONTINUOUS
 10
125.5028966318
 20
132.4273323137
 11
125.4055960689
 21
132.3781979742
  0
LINE
  5
283
100
AcDbEntity
  8
0
100
AcDbLine
 62
7
  6
CONTINUOUS
 10
125.6035981745
 20
132.4774032019
 11
125.5028966318
 21
132.4273323137
  0
LINE
  5
284
100
AcDbEntity
  8
0
100
AcDbLine
 62
7
  6
CONTINUOUS
 10
125.7075128219
 20
132.5282437177
 11
125.6035981745
 21
132.4774032019
  0
LINE
  5
285
100
AcDbEntity
  8
0
100
AcDbLine
 62
7
  6
CONTINUOUS
 10
125.7784358251
 20
132.5624627952
 11
125.7075128219
 21
132.5282437177
  0
LINE
  5
286
100
AcDbEntity
  8
0
100
AcDbLine
 62
7
  6
CONTINUOUS
 10
125.8505186672
 20
132.5968443768
 11
125.7784358251
 21
132.5624627952
  0
LINE
  5
287
100
AcDbEntity
  8
0
100
AcDbLine
 62
7
  6
CONTINUOUS
 10
125.923661996
 20
132.6313245227
 11
125.8505186672
 21
132.5968443768
  0
LINE
  5
288
100
AcDbEntity
  8
0
100
AcDbLine
 62
7
  6
CONTINUOUS
 10
125.9977031434
 20
132.6658121344
 11
125.923661996
 21
132.6313245227
  0
LINE
  5
289
100
AcDbEntity
  8
0
100
AcDbLine
 62
7
  6
CONTINUOUS
 10
126.0724591251
 20
132.7002104592
 11
125.9977031434
 21
132.6658121344
  0
LINE
  5
28A
100
AcDbEntity
  8
0
100
AcDbLine
 62
7
  6
CONTINUOUS
 10
126.1478069193
 20
132.7344539733
 11
126.0724591251
 21
132.7002104592
  0
LINE
  5
28B
100
AcDbEntity
  8
0
100
AcDbLine
 62
7
  6
CONTINUOUS
 10
126.2235571537
 20
132.7684503761
 11
126.1478069193
 21
132.7344539733
  0
LINE
  5
28C
100
AcDbEntity
  8
0
100
AcDbLine
 62
7
  6
CONTINUOUS
 10
126.2995151378
 20
132.8021093493
 11
126.2235571537
 21
132.7684503761
  0
LINE
  5
28D
100
AcDbEntity
  8
0
100
AcDbLine
 62
7
  6
CONTINUOUS
 10
126.3755649358
 20
132.8353792307
 11
126.2995151378
 21
132.8021093493
  0
LINE
  5
28E
100
AcDbEntity
  8
0
100
AcDbLine
 62
7
  6
CONTINUOUS
 10
126.4514896554
 20
132.868167656
 11
126.3755649358
 21
132.8353792307
  0
LINE
  5
28F
100
AcDbEntity
  8
0
100
AcDbLine
 62
7
  6
CONTINUOUS
 10
126.5275121397
 20
132.9005733498
 11
126.4514896554
 21
132.868167656
  0
LINE
  5
290
100
AcDbEntity
  8
0
100
AcDbLine
 62
7
  6
CONTINUOUS
 10
126.6036864542
 20
132.9326197646
 11
126.5275121397
 21
132.9005733498
  0
LINE
  5
291
100
AcDbEntity
  8
0
100
AcDbLine
 62
7
  6
CONTINUOUS
 10
126.6800390162
 20
132.964317829
 11
126.6036864542
 21
132.9326197646
  0
LINE
  5
292
100
AcDbEntity
  8
0
100
AcDbLine
 62
7
  6
CONTINUOUS
 10
126.7564807263
 20
132.9956308636
 11
126.6800390162
 21
132.964317829
  0
LINE
  5
293
100
AcDbEntity
  8
0
100
AcDbLine
 62
7
  6
CONTINUOUS
 10
126.8329690823
 20
133.0265428247
 11
126.7564807263
 21
132.9956308636
  0
LINE
  5
294
100
AcDbEntity
  8
0
100
AcDbLine
 62
7
  6
CONTINUOUS
 10
126.9094450488
 20
133.0570320128
 11
126.8329690823
 21
133.0265428247
  0
LINE
  5
295
100
AcDbEntity
  8
0
100
AcDbLine
 62
7
  6
CONTINUOUS
 10
126.9716808744
 20
133.0815253044
 11
126.9094450488
 21
133.0570320128
  0
LINE
  5
296
100
AcDbEntity
  8
0
100
AcDbLine
 62
7
  6
CONTINUOUS
 10
159.4766958466
 20
99.2856965037
 11
182.8542279346
 21
99.2865661086
  0
LINE
  5
297
100
AcDbEntity
  8
0
100
AcDbLine
 62
7
  6
CONTINUOUS
 10
45.7947463221
 20
105.2872081977
 11
79.3530385584
 21
105.2872081977
  0
LWPOLYLINE
  5
298
100
AcDbEntity
  8
0
100
AcDbPolyline
 62
7
  6
CONTINUOUS
 90
13
 70
0
 10
79.3542279346
 20
105.2872081977
 10
83.797643861
 20
105.2818944669
 10
88.3817881226
 20
105.2423906247
 10
92.7901498176
 20
105.138727159
 10
97.0099492627
 20
104.9488878372
 10
101.0613601375
 20
104.6562600603
 10
104.9973151063
 20
104.2440148274
 10
108.8130874672
 20
103.7047417419
 10
112.5174744162
 20
103.06920604
 10
116.1829722351
 20
102.3761874501
 10
119.8086153408
 20
101.6713076144
 10
123.3982036674
 20
100.9963958456
 10
124.2567827023
 20
100.8429219056
  0
LWPOLYLINE
  5
299
100
AcDbEntity
  8
0
100
AcDbPolyline
 62
7
  6
CONTINUOUS
 90
6
 70
0
 10
140.6442146632
 20
99.2406189281
 10
142.2341759637
 20
99.2246037552
 10
146.2859772849
 20
99.2324366638
 10
150.5047169956
 20
99.2619370817
 10
154.9094475088
 20
99.2791546755
 10
159.4766958466
 20
99.2856965037
  0
LINE
  5
29A
100
AcDbEntity
  8
0
100
AcDbLine
 62
7
  6
CONTINUOUS
 10
139.6043858563
 20
99.2576829671
 11
140.6502977963
 21
99.2405619295
  0
LWPOLYLINE
  5
29B
100
AcDbEntity
  8
0
100
AcDbPolyline
 62
7
  6
CONTINUOUS
 90
10
 70
0
 10
135.2375229679
 20
99.3952015543
 10
135.5877723352
 20
99.377612038
 10
135.9856723661
 20
99.3595856832
 10
136.390290169
 20
99.343071764
 10
136.80672577
 20
99.3277822651
 10
137.2361713388
 20
99.3136233723
 10
137.6781567543
 20
99.3005815427
 10
138.1354076767
 20
99.2885455074
 10
138.6084062589
 20
99.2774527993
 10
139.6043858563
 20
99.2576829671
  0
LINE
  5
29C
100
AcDbEntity
  8
0
100
AcDbLine
 62
7
  6
CONTINUOUS
 10
126.7972753162
 20
100.4051142175
 11
127.5467584934
 21
100.281629993
  0
LINE
  5
29D
100
AcDbEntity
  8
0
100
AcDbLine
 62
7
  6
CONTINUOUS
 10
125.7998093106
 20
100.5741480977
 11
126.7972753162
 21
100.4051142175
  0
LWPOLYLINE
  5
29E
100
AcDbEntity
  8
0
100
AcDbPolyline
 62
7
  6
CONTINUOUS
 90
3
 70
0
 10
124.2522610245
 20
100.843722986
 10
124.7514733946
 20
100.7559741374
 10
125.7998093106
 20
100.5741480977
  0
LINE
  5
29F
100
AcDbEntity
  8
0
100
AcDbLine
 62
7
  6
CONTINUOUS
 10
126.8429283197
 20
100.5432683792
 11
126.9396660423
 21
100.5048484731
  0
LINE
  5
2A0
100
AcDbEntity
  8
0
100
AcDbLine
 62
7
  6
CONTINUOUS
 10
126.7457338848
 20
100.5825421997
 11
126.8429283197
 21
100.5432683792
  0
LINE
  5
2A1
100
AcDbEntity
  8
0
100
AcDbLine
 62
7
  6
CONTINUOUS
 10
126.6481243412
 20
100.6226673864
 11
126.7457338848
 21
100.5825421997
  0
LINE
  5
2A2
100
AcDbEntity
  8
0
100
AcDbLine
 62
7
  6
CONTINUOUS
 10
126.5502079265
 20
100.6636124551
 11
126.6481243412
 21
100.6226673864
  0
LINE
  5
2A3
100
AcDbEntity
  8
0
100
AcDbLine
 62
7
  6
CONTINUOUS
 10
126.4520679862
 20
100.7053538178
 11
126.5502079265
 21
100.6636124551
  0
LINE
  5
2A4
100
AcDbEntity
  8
0
100
AcDbLine
 62
7
  6
CONTINUOUS
 10
126.3534046266
 20
100.7480326868
 11
126.4520679862
 21
100.7053538178
  0
LINE
  5
2A5
100
AcDbEntity
  8
0
100
AcDbLine
 62
7
  6
CONTINUOUS
 10
126.2542015765
 20
100.7916729661
 11
126.3534046266
 21
100.7480326868
  0
LINE
  5
2A6
100
AcDbEntity
  8
0
100
AcDbLine
 62
7
  6
CONTINUOUS
 10
126.1546906766
 20
100.8361873836
 11
126.2542015765
 21
100.7916729661
  0
LINE
  5
2A7
100
AcDbEntity
  8
0
100
AcDbLine
 62
7
  6
CONTINUOUS
 10
126.0551095996
 20
100.8814793301
 11
126.1546906766
 21
100.8361873836
  0
LINE
  5
2A8
100
AcDbEntity
  8
0
100
AcDbLine
 62
7
  6
CONTINUOUS
 10
125.9556997352
 20
100.9274434546
 11
126.0551095996
 21
100.8814793301
  0
LINE
  5
2A9
100
AcDbEntity
  8
0
100
AcDbLine
 62
7
  6
CONTINUOUS
 10
125.8567101227
 20
100.973963521
 11
125.9556997352
 21
100.9274434546
  0
LINE
  5
2AA
100
AcDbEntity
  8
0
100
AcDbLine
 62
7
  6
CONTINUOUS
 10
125.7584142475
 20
101.0209039289
 11
125.8567101227
 21
100.973963521
  0
LINE
  5
2AB
100
AcDbEntity
  8
0
100
AcDbLine
 62
7
  6
CONTINUOUS
 10
125.6611610147
 20
101.0680838039
 11
125.7584142475
 21
101.0209039289
  0
LINE
  5
2AC
100
AcDbEntity
  8
0
100
AcDbLine
 62
7
  6
CONTINUOUS
 10
125.5652175195
 20
101.1153522118
 11
125.6611610147
 21
101.0680838039
  0
LINE
  5
2AD
100
AcDbEntity
  8
0
100
AcDbLine
 62
7
  6
CONTINUOUS
 10
125.4707908482
 20
101.1625803345
 11
125.5652175195
 21
101.1153522118
  0
LINE
  5
2AE
100
AcDbEntity
  8
0
100
AcDbLine
 62
7
  6
CONTINUOUS
 10
125.3780834369
 20
101.2096355189
 11
125.4707908482
 21
101.1625803345
  0
LINE
  5
2AF
100
AcDbEntity
  8
0
100
AcDbLine
 62
7
  6
CONTINUOUS
 10
125.287287053
 20
101.2563847136
 11
125.3780834369
 21
101.2096355189
  0
LINE
  5
2B0
100
AcDbEntity
  8
0
100
AcDbLine
 62
7
  6
CONTINUOUS
 10
125.198575041
 20
101.3026991172
 11
125.287287053
 21
101.2563847136
  0
LINE
  5
2B1
100
AcDbEntity
  8
0
100
AcDbLine
 62
7
  6
CONTINUOUS
 10
125.1120962309
 20
101.3484582969
 11
125.198575041
 21
101.3026991172
  0
LINE
  5
2B2
100
AcDbEntity
  8
0
100
AcDbLine
 62
7
  6
CONTINUOUS
 10
125.0279709078
 20
101.3935534516
 11
125.1120962309
 21
101.3484582969
  0
LINE
  5
2B3
100
AcDbEntity
  8
0
100
AcDbLine
 62
7
  6
CONTINUOUS
 10
124.9462893296
 20
101.4378894284
 11
125.0279709078
 21
101.3935534516
  0
LINE
  5
2B4
100
AcDbEntity
  8
0
100
AcDbLine
 62
7
  6
CONTINUOUS
 10
124.8671127423
 20
101.4813853753
 11
124.9462893296
 21
101.4378894284
  0
LINE
  5
2B5
100
AcDbEntity
  8
0
100
AcDbLine
 62
7
  6
CONTINUOUS
 10
124.7904764123
 20
101.5239741721
 11
124.8671127423
 21
101.4813853753
  0
LINE
  5
2B6
100
AcDbEntity
  8
0
100
AcDbLine
 62
7
  6
CONTINUOUS
 10
124.7163939759
 20
101.5656009408
 11
124.7904764123
 21
101.5239741721
  0
LINE
  5
2B7
100
AcDbEntity
  8
0
100
AcDbLine
 62
7
  6
CONTINUOUS
 10
124.6448623722
 20
101.6062210027
 11
124.7163939759
 21
101.5656009408
  0
LINE
  5
2B8
100
AcDbEntity
  8
0
100
AcDbLine
 62
7
  6
CONTINUOUS
 10
124.5534275493
 20
101.6587527699
 11
124.6448623722
 21
101.6062210027
  0
LINE
  5
2B9
100
AcDbEntity
  8
0
100
AcDbLine
 62
7
  6
CONTINUOUS
 10
124.466446463
 20
101.7093581584
 11
124.5534275493
 21
101.6587527699
  0
LINE
  5
2BA
100
AcDbEntity
  8
0
100
AcDbLine
 62
7
  6
CONTINUOUS
 10
124.3838586461
 20
101.7579744225
 11
124.466446463
 21
101.7093581584
  0
LINE
  5
2BB
100
AcDbEntity
  8
0
100
AcDbLine
 62
7
  6
CONTINUOUS
 10
124.3055874687
 20
101.8045541572
 11
124.3838586461
 21
101.7579744225
  0
LINE
  5
2BC
100
AcDbEntity
  8
0
100
AcDbLine
 62
7
  6
CONTINUOUS
 10
124.2135988058
 20
101.8599151873
 11
124.3055874687
 21
101.8045541572
  0
LINE
  5
2BD
100
AcDbEntity
  8
0
100
AcDbLine
 62
7
  6
CONTINUOUS
 10
124.1278757338
 20
101.9120928152
 11
124.2135988058
 21
101.8599151873
  0
LINE
  5
2BE
100
AcDbEntity
  8
0
100
AcDbLine
 62
7
  6
CONTINUOUS
 10
124.0330355073
 20
101.9704566227
 11
124.1278757338
 21
101.9120928152
  0
LINE
  5
2BF
100
AcDbEntity
  8
0
100
AcDbLine
 62
7
  6
CONTINUOUS
 10
123.9332269007
 20
102.0325597884
 11
124.0330355073
 21
101.9704566227
  0
LINE
  5
2C0
100
AcDbEntity
  8
0
100
AcDbLine
 62
7
  6
CONTINUOUS
 10
123.5704796605
 20
102.2622320652
 11
123.5798547424
 21
102.2563335611
  0
LINE
  5
2C1
100
AcDbEntity
  8
0
100
AcDbLine
 62
7
  6
CONTINUOUS
 10
123.8219301391
 20
102.1025521814
 11
123.9332269007
 21
102.0325597884
  0
LINE
  5
2C2
100
AcDbEntity
  8
0
100
AcDbLine
 62
7
  6
CONTINUOUS
 10
123.5798547424
 20
102.2563335611
 11
123.8219301391
 21
102.1025521814
  0
LINE
  5
2C3
100
AcDbEntity
  8
DATUM_AXIS
100
AcDbLine
 62
7
  6
CONTINUOUS
 10
216.8542279346
 20
106.3093736639
 11
189.3542279346
 21
106.3093736639
  0
LINE
  5
2C4
100
AcDbEntity
  8
0
100
AcDbLine
 62
2
  6
CONTINUOUS
 10
217.9817279346
 20
107.4368736639
 11
189.3542279346
 21
107.4368736639
  0
LINE
  5
2C5
100
AcDbEntity
  8
_CURVE
100
AcDbLine
 62
40
  6
CONTINUOUS
 10
132.1540587868
 20
108.7853396482
 11
134.5540586797
 21
108.7852840382
  0
LINE
  5
2C6
100
AcDbEntity
  8
_CURVE
100
AcDbLine
 62
40
  6
CONTINUOUS
 10
132.1544295184
 20
124.7853396435
 11
132.1540587868
 21
108.7853396482
  0
LWPOLYLINE
  5
2C7
100
AcDbEntity
  8
0
100
AcDbPolyline
 62
7
  6
CONTINUOUS
 90
19
 70
0
 10
114.0480661335
 20
113.2037691112
 10
114.1420549562
 20
113.2022127515
 10
114.3599347718
 20
113.1866403952
 10
114.5731653583
 20
113.1549488641
 10
114.7785327304
 20
113.1085258268
 10
114.9755090563
 20
113.0485890387
 10
115.1662370874
 20
112.9751768314
 10
115.3497381116
 20
112.8890603668
 10
115.5243371803
 20
112.7914892398
 10
115.6910597855
 20
112.682368105
 10
115.8486342962
 20
112.5627329664
 10
115.996303169
 20
112.4336229635
 10
116.1353063844
 20
112.2940374689
 10
116.264166541
 20
112.1453800629
 10
116.3824129364
 20
111.9883001806
 10
116.4916567103
 20
111.8199194548
 10
116.5910602614
 20
111.6398657115
 10
116.6782014449
 20
111.4507679157
 10
116.7518878533
 20
111.2541512668
  0
LINE
  5
2C8
100
AcDbEntity
  8
0
100
AcDbLine
 62
7
  6
CONTINUOUS
 10
133.3546496765
 20
134.2868935398
 11
133.3546496765
 21
134.2869852201
  0
LINE
  5
2C9
100
AcDbEntity
  8
_CURVE
100
AcDbLine
 62
40
  6
CONTINUOUS
 10
134.5540587862
 20
108.7852840382
 11
134.5544295177
 21
124.7852840335
  0
LWPOLYLINE
  5
2CA
100
AcDbEntity
  8
0
100
AcDbPolyline
 62
7
  6
CONTINUOUS
 90
5
 70
0
 10
68.7423116539
 20
120.369142616
 10
68.7135143644
 20
120.3688896656
 10
68.68542035
 20
120.3678763592
 10
68.6584639894
 20
120.3655658937
 10
68.6322692591
 20
120.3612274037
  0
LINE
  5
2CB
100
AcDbEntity
  8
0
100
AcDbLine
 62
7
  6
CONTINUOUS
 10
114.0474417348
 20
120.3680203105
 11
68.7257840812
 21
120.3690561008
  0
LINE
  5
2CC
100
AcDbEntity
  8
_CURVE
100
AcDbLine
 62
40
  6
CONTINUOUS
 10
134.5544295177
 20
124.7852840335
 11
132.1544295402
 21
124.7853396435
  0
LINE
  5
2CD
100
AcDbEntity
  8
0
100
AcDbLine
 62
2
  6
CONTINUOUS
 10
217.9817279346
 20
126.1368736639
 11
189.3542279346
 21
126.1368736639
  0
LINE
  5
2CE
100
AcDbEntity
  8
DATUM_AXIS
100
AcDbLine
 62
7
  6
CONTINUOUS
 10
216.8542279346
 20
127.2643736639
 11
189.3542279346
 21
127.2643736639
  0
LWPOLYLINE
  5
2CF
100
AcDbEntity
  8
0
100
AcDbPolyline
 62
7
  6
CONTINUOUS
 90
13
 70
0
 10
79.3530385584
 20
128.2865447585
 10
45.775798568
 20
128.2862845184
 10
45.7037950395
 20
128.2782992413
 10
45.6329091197
 20
128.2597225968
 10
45.5653463818
 20
128.2309055035
 10
45.5034846045
 20
128.1930399047
 10
45.448341275
 20
128.1471900239
 10
45.4008812695
 20
128.0946368725
 10
45.362442404
 20
128.0378463077
 10
45.3335866124
 20
127.9798320423
 10
45.3136620082
 20
127.9228389427
 10
45.3014221356
 20
127.8680347103
 10
45.2970969247
 20
127.8350174809
  0
LWPOLYLINE
  5
2D0
100
AcDbEntity
  8
0
100
AcDbPolyline
 62
7
  6
CONTINUOUS
 90
13
 70
0
 10
124.5046515816
 20
132.7738385231
 10
123.335332269
 20
132.5654561987
 10
119.7507360058
 20
131.8908412176
 10
116.1307448575
 20
131.1871196858
 10
112.471542034
 20
130.4959356228
 10
108.774119463
 20
129.8626748902
 10
104.9654514763
 20
129.3257363268
 10
101.0370954783
 20
128.9153164612
 10
96.993453569
 20
128.6238907081
 10
92.7800485697
 20
128.4346838808
 10
88.3762325037
 20
128.3312798927
 10
83.7953987464
 20
128.291851001
 10
79.3542279346
 20
128.2865447586
  0
LINE
  5
2D1
100
AcDbEntity
  8
0
100
AcDbLine
 62
7
  6
CONTINUOUS
 10
125.4088654686
 20
132.9304177322
 11
124.5047601201
 21
132.7732171862
  0
LINE
  5
2D2
100
AcDbEntity
  8
0
100
AcDbLine
 62
7
  6
CONTINUOUS
 10
126.4010835361
 20
133.0996732388
 11
125.4088654686
 21
132.9304177322
  0
LWPOLYLINE
  5
2D3
100
AcDbEntity
  8
0
100
AcDbPolyline
 62
7
  6
CONTINUOUS
 90
3
 70
0
 10
127.5153120018
 20
133.2840807299
 10
127.3432132417
 20
133.2561874603
 10
126.4010835361
 20
133.0996732388
  0
LWPOLYLINE
  5
2D4
100
AcDbEntity
  8
0
100
AcDbPolyline
 62
7
  6
CONTINUOUS
 90
4
 70
0
 10
136.3084996985
 20
134.2249794703
 10
135.9007832265
 20
134.2076964037
 10
135.500605682
 20
134.1888981312
 10
135.2583665156
 20
134.1763025225
  0
LWPOLYLINE
  5
2D5
100
AcDbEntity
  8
0
100
AcDbPolyline
 62
7
  6
CONTINUOUS
 90
6
 70
0
 10
138.5460813816
 20
134.2937212392
 10
138.0685184019
 20
134.2821023594
 10
137.6071848222
 20
134.2695052564
 10
137.1612565043
 20
134.2558478435
 10
136.7282787684
 20
134.2410114135
 10
136.3084996985
 20
134.2249794703
  0
LINE
  5
2D6
100
AcDbEntity
  8
0
100
AcDbLine
 62
7
  6
CONTINUOUS
 10
139.550064448
 20
134.3144107657
 11
138.5460813816
 21
134.2937212392
  0
LINE
  5
2D7
100
AcDbEntity
  8
0
100
AcDbLine
 62
7
  6
CONTINUOUS
 10
140.5933066065
 20
134.332005035
 11
139.550064448
 21
134.3144107657
  0
LWPOLYLINE
  5
2D8
100
AcDbEntity
  8
0
100
AcDbPolyline
 62
7
  6
CONTINUOUS
 90
7
 70
0
 10
182.8542279346
 20
134.2865661086
 10
159.4565019677
 20
134.2874472522
 10
154.872431446
 20
134.2940652686
 10
150.4543438163
 20
134.3114596213
 10
146.226051479
 20
134.3410751219
 10
142.1681728944
 20
134.3480849568
 10
140.5933112887
 20
134.3315588411
  0
LINE
  5
2D9
100
AcDbEntity
  8
0
100
AcDbLine
 62
7
  6
CONTINUOUS
 10
137.3474639986
 20
133.8253056462
 11
137.2561290367
 21
133.8464245436
  0
LINE
  5
2DA
100
AcDbEntity
  8
0
100
AcDbLine
 62
7
  6
CONTINUOUS
 10
137.4374915298
 20
133.8039891984
 11
137.3474639986
 21
133.8253056462
  0
LINE
  5
2DB
100
AcDbEntity
  8
0
100
AcDbLine
 62
7
  6
CONTINUOUS
 10
137.5225197732
 20
133.7834049551
 11
137.4374915298
 21
133.8039891984
  0
LINE
  5
2DC
100
AcDbEntity
  8
0
100
AcDbLine
 62
7
  6
CONTINUOUS
 10
137.6029815056
 20
133.763523783
 11
137.5225197732
 21
133.7834049551
  0
LINE
  5
2DD
100
AcDbEntity
  8
0
100
AcDbLine
 62
7
  6
CONTINUOUS
 10
137.7038958749
 20
133.73803909
 11
137.6029815056
 21
133.763523783
  0
LINE
  5
2DE
100
AcDbEntity
  8
0
100
AcDbLine
 62
7
  6
CONTINUOUS
 10
137.7983825297
 20
133.7136278547
 11
137.7038958749
 21
133.73803909
  0
LINE
  5
2DF
100
AcDbEntity
  8
0
100
AcDbLine
 62
7
  6
CONTINUOUS
 10
137.8871398208
 20
133.6902187541
 11
137.7983825297
 21
133.7136278547
  0
LINE
  5
2E0
100
AcDbEntity
  8
0
100
AcDbLine
 62
7
  6
CONTINUOUS
 10
137.9706690553
 20
133.6677725854
 11
137.8871398208
 21
133.6902187541
  0
LINE
  5
2E1
100
AcDbEntity
  8
0
100
AcDbLine
 62
7
  6
CONTINUOUS
 10
138.0682900659
 20
133.6410404567
 11
137.9706690553
 21
133.6677725854
  0
LINE
  5
2E2
100
AcDbEntity
  8
0
100
AcDbLine
 62
7
  6
CONTINUOUS
 10
138.1589897085
 20
133.6157371423
 11
138.0682900659
 21
133.6410404567
  0
LINE
  5
2E3
100
AcDbEntity
  8
0
100
AcDbLine
 62
7
  6
CONTINUOUS
 10
138.2592336669
 20
133.5872740584
 11
138.1589897085
 21
133.6157371423
  0
LINE
  5
2E4
100
AcDbEntity
  8
0
100
AcDbLine
 62
7
  6
CONTINUOUS
 10
138.3784254604
 20
133.5528072969
 11
138.2592336669
 21
133.5872740584
  0
LINE
  5
2E5
100
AcDbEntity
  8
0
100
AcDbLine
 62
7
  6
CONTINUOUS
 10
138.5441732113
 20
133.5039737553
 11
138.3784254604
 21
133.5528072969
  0
LINE
  5
2E6
100
AcDbEntity
  8
0
100
AcDbLine
 62
7
  6
CONTINUOUS
 10
138.6559968071
 20
133.4708197749
 11
138.5441732113
 21
133.5039737553
  0
LINE
  5
2E7
100
AcDbEntity
  8
0
100
AcDbLine
 62
7
  6
CONTINUOUS
 10
184.8147787462
 20
146.7868736639
 11
189.3542279346
 21
147.1840240066
  0
LINE
  5
2E8
100
AcDbEntity
  8
0
100
AcDbLine
 62
7
  6
CONTINUOUS
 10
182.8542279346
 20
99.2865661167
 11
182.8542279346
 21
116.7865661086
  0
LINE
  5
2E9
100
AcDbEntity
  8
0
100
AcDbLine
 62
7
  6
CONTINUOUS
 10
182.8542279346
 20
116.7931922296
 11
182.8542279346
 21
134.2865661086
  0
LINE
  5
2EA
100
AcDbEntity
  8
0
100
AcDbLine
 62
7
  6
CONTINUOUS
 10
183.3542279346
 20
145.192962147
 11
183.3542279346
 21
88.3807851809
  0
LINE
  5
2EB
100
AcDbEntity
  8
0
100
AcDbLine
 62
7
  6
CONTINUOUS
 10
184.8147787462
 20
86.7868736639
 11
184.8147787462
 21
146.7868736639
  0
LINE
  5
2EC
100
AcDbEntity
  8
0
100
AcDbLine
 62
7
  6
CONTINUOUS
 10
189.3542279346
 20
86.389769536
 11
189.3542279346
 21
147.1839777919
  0
LINE
  5
2ED
100
AcDbEntity
  8
0
100
AcDbLine
 62
7
  6
CONTINUOUS
 10
218.3542279346
 20
107.8093736639
 11
216.8542279346
 21
106.3093736639
  0
LINE
  5
2EE
100
AcDbEntity
  8
0
100
AcDbLine
 62
7
  6
CONTINUOUS
 10
218.3542279346
 20
125.7643736639
 11
216.8542279346
 21
127.2643736639
  0
LINE
  5
2EF
100
AcDbEntity
  8
0
100
AcDbLine
 62
7
  6
CONTINUOUS
 10
216.8542279346
 20
106.3093736639
 11
216.8542279346
 21
127.2643736639
  0
LINE
  5
2F0
100
AcDbEntity
  8
0
100
AcDbLine
 62
7
  6
CONTINUOUS
 10
217.9817279346
 20
107.4368736639
 11
217.9817279346
 21
126.1368736639
  0
LINE
  5
2F1
100
AcDbEntity
  8
0
100
AcDbLine
 62
7
  6
CONTINUOUS
 10
218.3542279346
 20
107.8093736639
 11
218.3542279346
 21
125.7643736639
  0
LWPOLYLINE
  5
2F2
100
AcDbEntity
  8
0
100
AcDbPolyline
 62
7
  6
CONTINUOUS
 90
94
 70
0
 10
327.5780639023
 20
185.0998962385
 10
327.6173007436
 20
185.0999582621
 10
327.9988196805
 20
185.1051254653
 10
328.3772163995
 20
185.1184842117
 10
328.7525896353
 20
185.1399071238
 10
329.1251709451
 20
185.1692699567
 10
329.495337646
 20
185.2064685443
 10
329.8633053699
 20
185.251394486
 10
330.2291706807
 20
185.3039250479
 10
330.5930113565
 20
185.3639406839
 10
330.9544644146
 20
185.4312771338
 10
331.3132480746
 20
185.5057868429
 10
331.6692753109
 20
185.5873701062
 10
332.02235592
 20
185.6759166631
 10
332.3720735812
 20
185.7712583718
 10
332.7180261978
 20
185.8732163602
 10
333.0599384822
 20
185.9816317529
 10
333.3976698153
 20
186.0963288028
 10
333.7310509403
 20
186.2170878418
 10
334.059893801
 20
186.3436744254
 10
334.3841964752
 20
186.4759260131
 10
334.7040217379
 20
186.6137392246
 10
335.0191876894
 20
186.7569236905
 10
335.3295506518
 20
186.9053031062
 10
335.6352154493
 20
187.0588219176
 10
335.9359892432
 20
187.217250657
 10
336.2318241951
 20
187.3804184894
 10
336.5230514105
 20
187.5483835129
 10
336.8096319785
 20
187.7210202243
 10
337.0913909199
 20
187.8981221104
 10
337.3684489337
 20
188.0796716523
 10
337.6407343762
 20
188.2655400592
 10
337.9081292717
 20
188.455565988
 10
338.170691919
 20
188.6496897668
 10
338.4283703635
 20
188.8477425773
 10
338.6810939411
 20
189.0495395998
 10
338.9289028589
 20
189.2549889781
 10
339.1717361478
 20
189.4639229215
 10
339.4095457817
 20
189.6761852039
 10
339.6423855544
 20
189.8917165291
 10
339.8702017859
 20
190.1103671399
 10
340.0929456744
 20
190.3319910516
 10
340.3106826473
 20
190.5565373118
 10
340.5233883723
 20
190.7838468405
 10
340.731038995
 20
191.0137610556
 10
340.933705034
 20
191.2462323974
 10
341.1313644851
 20
191.4811176814
 10
341.3239917794
 20
191.7182704653
 10
341.5116437235
 20
191.9576515178
 10
341.6942967545
 20
192.1991288486
 10
341.8719249359
 20
192.4425678588
 10
342.0445809676
 20
192.6879338468
 10
342.2122602256
 20
192.9350910343
 10
342.3749667263
 20
193.1839135721
 10
342.5327725882
 20
193.4343874895
 10
342.685662018
 20
193.6863693881
 10
342.8336476293
 20
193.9397531292
 10
342.9768312224
 20
194.1945879058
 10
343.1152242079
 20
194.4507821745
 10
343.2488001033
 20
194.7081764915
 10
343.37759217
 20
194.9667273396
 10
343.5016121102
 20
195.2263414818
 10
343.6208688471
 20
195.4869093393
 10
343.7353953833
 20
195.7483757004
 10
343.8452092745
 20
196.0106559686
 10
343.9503200764
 20
196.2736475787
 10
344.0507461187
 20
196.5372703311
 10
344.1465036307
 20
196.8014412531
 10
344.2376023308
 20
197.0660603669
 10
344.324050895
 20
197.3310228317
 10
344.4058612455
 20
197.5962144813
 10
344.4830793902
 20
197.8615305704
 10
344.5557643829
 20
198.1268806643
 10
344.6239632599
 20
198.392139604
 10
344.6877190903
 20
198.657169039
 10
344.7470815135
 20
198.921860742
 10
344.8020915474
 20
199.1860723964
 10
344.8527957519
 20
199.4496891085
 10
344.899247954
 20
199.7126459527
 10
344.9414868986
 20
199.9748067879
 10
344.9795565733
 20
200.2360805487
 10
345.0135199231
 20
200.4965799019
 10
345.043429428
 20
200.7563859807
 10
345.0693316542
 20
201.0155340295
 10
345.0912781656
 20
201.2741092597
 10
345.1093192102
 20
201.5322055472
 10
345.1234995908
 20
201.7898515187
 10
345.1338643063
 20
202.0470353776
 10
345.1404691156
 20
202.3041218568
 10
345.1433493259
 20
202.5608670606
 10
345.1425568147
 20
202.8163437707
 10
345.1381322782
 20
203.0703940844
 10
345.1300934799
 20
203.3232878564
 10
345.1184762744
 20
203.5747368662
  0
LWPOLYLINE
  5
2F3
100
AcDbEntity
  8
_SURFINI
100
AcDbPolyline
 62
7
  6
CONTINUOUS
 90
4
 70
0
 10
322.6800623025
 20
190.738509621
 10
322.8046999687
 20
190.6814421795
 10
322.9766224951
 20
190.6056657208
 10
323.0091060286
 20
190.5917253907
  0
LINE
  5
2F4
100
AcDbEntity
  8
_SURFINI
100
AcDbLine
 62
7
  6
CONTINUOUS
 10
319.0386416598
 20
193.4277354264
 11
319.1375884269
 21
193.3192095685
  0
LWPOLYLINE
  5
2F5
100
AcDbEntity
  8
0
100
AcDbPolyline
 62
7
  6
CONTINUOUS
 90
13
 70
0
 10
310.2515033218
 20
216.4552269978
 10
310.2765982283
 20
215.6312087418
 10
310.2992004801
 20
214.8210050284
 10
310.3182802887
 20
214.0246397508
 10
310.3328612118
 20
213.2437911359
 10
310.3421021907
 20
212.4782564236
 10
310.3452295944
 20
211.7291921993
 10
310.3416067253
 20
211.0007656058
 10
310.3308307476
 20
210.2937875355
 10
310.313759126
 20
209.6103654898
 10
310.2922801009
 20
208.956712446
 10
310.2680325218
 20
208.3350839
 10
310.2424130898
 20
207.7464731097
  0
LWPOLYLINE
  5
2F6
100
AcDbEntity
  8
0
100
AcDbPolyline
 62
7
  6
CONTINUOUS
 90
11
 70
0
 10
310.079459241
 20
226.3153281637
 10
310.0821324975
 20
225.3609486965
 10
310.0866492292
 20
224.4180960578
 10
310.0934274581
 20
223.4867935618
 10
310.1028468139
 20
222.5671310044
 10
310.11524964
 20
221.6591082639
 10
310.1309422223
 20
220.7626257371
 10
310.1501957683
 20
219.8775013122
 10
310.1730515376
 20
219.0039943921
 10
310.1984517675
 20
218.1426074254
 10
310.2515033218
 20
216.4552269978
  0
LINE
  5
2F7
100
AcDbEntity
  8
0
100
AcDbLine
 62
7
  6
CONTINUOUS
 10
310.077736623
 20
267.3459509979
 11
310.0776449427
 21
237.9213250769
  0
LINE
  5
2F8
100
AcDbEntity
  8
0
100
AcDbLine
 62
7
  6
CONTINUOUS
 10
310.0777564989
 20
235.8210368643
 11
310.0777564989
 21
228.9189585219
  0
LINE
  5
2F9
100
AcDbEntity
  8
0
100
AcDbLine
 62
7
  6
CONTINUOUS
 10
310.0777564762
 20
228.8945555312
 11
310.079459241
 21
226.3153281637
  0
LINE
  5
2FA
100
AcDbEntity
  8
_SURFINI
100
AcDbLine
 62
7
  6
CONTINUOUS
 10
312.5777564989
 20
237.4213172871
 11
312.5777564989
 21
236.3210368643
  0
LWPOLYLINE
  5
2FB
100
AcDbEntity
  8
0
100
AcDbPolyline
 62
7
  6
CONTINUOUS
 90
33
 70
0
 10
310.0485394805
 20
203.7488103373
 10
310.0201886634
 20
203.1388378304
 10
310.0141616372
 20
202.3913097832
 10
310.0399868261
 20
201.6376666668
 10
310.0993915292
 20
200.8752789706
 10
310.1937260918
 20
200.1064466325
 10
310.3240454873
 20
199.33197187
 10
310.4916521116
 20
198.5524567888
 10
310.6979130418
 20
197.7701440895
 10
310.9441129868
 20
196.9881252845
 10
311.2309127908
 20
196.2094646497
 10
311.5587125792
 20
195.4362431287
 10
311.9273411923
 20
194.6717880584
 10
312.3372658407
 20
193.9178167654
 10
312.7899858032
 20
193.1745784644
 10
313.2854475814
 20
192.4454180846
 10
313.8234209793
 20
191.7336110595
 10
314.4054182382
 20
191.0398721407
 10
315.0307494045
 20
190.3680666138
 10
315.6986463097
 20
189.7220832538
 10
316.4106185992
 20
189.1032671054
 10
317.1647778969
 20
188.5161985768
 10
317.9598973838
 20
187.9648157867
 10
318.7984983818
 20
187.4500458418
 10
319.6782686338
 20
186.9761471571
 10
320.5960762529
 20
186.5476124838
 10
321.5527309067
 20
186.166582435
 10
322.5460201344
 20
185.837267442
 10
323.5711890405
 20
185.5643420618
 10
324.6230150498
 20
185.3510725693
 10
325.6943879632
 20
185.2010817275
 10
326.7837226669
 20
185.1175240087
 10
327.5780639023
 20
185.0998963539
  0
LINE
  5
2FC
100
AcDbEntity
  8
0
100
AcDbLine
 62
7
  6
CONTINUOUS
 10
310.2424130898
 20
207.7464731097
 11
310.1917129924
 21
206.6778485012
  0
LINE
  5
2FD
100
AcDbEntity
  8
0
100
AcDbLine
 62
7
  6
CONTINUOUS
 10
310.1917129924
 20
206.6778485012
 11
310.064272233
 21
204.059425442
  0
LINE
  5
2FE
100
AcDbEntity
  8
0
100
AcDbLine
 62
7
  6
CONTINUOUS
 10
310.064272233
 20
204.059425442
 11
310.0516940326
 21
203.8117394522
  0
LWPOLYLINE
  5
2FF
100
AcDbEntity
  8
0
100
AcDbPolyline
 62
7
  6
CONTINUOUS
 90
3
 70
0
 10
310.0516940326
 20
203.8117394522
 10
310.0468956303
 20
203.7248660623
 10
310.0485394805
 20
203.7488103373
  0
LINE
  5
300
100
AcDbEntity
  8
0
100
AcDbLine
 62
7
  6
CONTINUOUS
 10
316.5279465674
 20
204.9049945301
 11
339.0774219651
 21
204.90499453
  0
LINE
  5
301
100
AcDbEntity
  8
0
100
AcDbLine
 62
7
  6
CONTINUOUS
 10
318.9277621629
 20
193.5546838491
 11
318.927756507
 21
193.5544657898
  0
LINE
  5
302
100
AcDbEntity
  8
0
100
AcDbLine
 62
7
  6
CONTINUOUS
 10
327.571130378
 20
235.8210368643
 11
327.5777564989
 21
231.9540205964
  0
LINE
  5
303
100
AcDbEntity
  8
0
100
AcDbLine
 62
7
  6
CONTINUOUS
 10
327.5780639023
 20
185.0998962385
 11
327.578076734
 21
190.117636799
  0
LINE
  5
304
100
AcDbEntity
  8
0
100
AcDbLine
 62
7
  6
CONTINUOUS
 10
327.5788841493
 20
257.0515179623
 11
327.5787792176
 21
259.901527877
  0
LINE
  5
305
100
AcDbEntity
  8
0
100
AcDbLine
 62
7
  6
CONTINUOUS
 10
327.5783908392
 20
244.7014652655
 11
327.5786997562
 21
247.5514328835
  0
LINE
  5
306
100
AcDbEntity
  8
0
100
AcDbLine
 62
7
  6
CONTINUOUS
 10
327.4798771276
 20
220.1536342345
 11
327.4787065369
 21
220.1536242718
  0
LINE
  5
307
100
AcDbEntity
  8
_SURFINI
100
AcDbLine
 62
7
  6
CONTINUOUS
 10
342.5777564989
 20
237.421223814
 11
342.5777564989
 21
236.3210368643
  0
LINE
  5
308
100
AcDbEntity
  8
0
100
AcDbLine
 62
7
  6
CONTINUOUS
 10
345.0777564908
 20
235.8210368643
 11
327.5777564989
 21
235.8210368643
  0
LINE
  5
309
100
AcDbEntity
  8
0
100
AcDbLine
 62
7
  6
CONTINUOUS
 10
310.077756499
 20
235.8210368643
 11
327.571130378
 21
235.8210368643
  0
LINE
  5
30A
100
AcDbEntity
  8
0
100
AcDbLine
 62
7
  6
CONTINUOUS
 10
345.1094086086
 20
203.7312467929
 11
345.1090094762
 21
203.7376255338
  0
LINE
  5
30B
100
AcDbEntity
  8
0
100
AcDbLine
 62
7
  6
CONTINUOUS
 10
345.1184762744
 20
203.5747368662
 11
345.1071515422
 21
203.7755096778
  0
LINE
  5
30C
100
AcDbEntity
  8
0
100
AcDbLine
 62
7
  6
CONTINUOUS
 10
345.1071515422
 20
203.7755096778
 11
345.0961540757
 21
203.9927606414
  0
LINE
  5
30D
100
AcDbEntity
  8
0
100
AcDbLine
 62
7
  6
CONTINUOUS
 10
345.0961540757
 20
203.9927606414
 11
344.9526203393
 21
207.0509157436
  0
LWPOLYLINE
  5
30E
100
AcDbEntity
  8
0
100
AcDbPolyline
 62
7
  6
CONTINUOUS
 90
14
 70
0
 10
344.9526203393
 20
207.0509157436
 10
344.9281801403
 20
207.5882409778
 10
344.9038051684
 20
208.1580881696
 10
344.8804494299
 20
208.7602071548
 10
344.8593137242
 20
209.3919860945
 10
344.8417429923
 20
210.0530769593
 10
344.8293981745
 20
210.7403329884
 10
344.8236713039
 20
211.4462772496
 10
344.824330559
 20
212.1684936042
 10
344.8307745781
 20
212.9073899486
 10
344.8423135683
 20
213.6601933705
 10
344.8581927056
 20
214.4261727037
 10
344.8776188309
 20
215.2054831504
 10
344.8997075785
 20
215.9970736813
  0
LINE
  5
30F
100
AcDbEntity
  8
0
100
AcDbLine
 62
7
  6
CONTINUOUS
 10
345.0777366135
 20
267.345841946
 11
345.0776449331
 21
237.9212160249
  0
LINE
  5
310
100
AcDbEntity
  8
0
100
AcDbLine
 62
7
  6
CONTINUOUS
 10
345.0777564989
 20
235.8210368643
 11
345.0777564989
 21
228.9189581353
  0
LWPOLYLINE
  5
311
100
AcDbEntity
  8
0
100
AcDbPolyline
 62
7
  6
CONTINUOUS
 90
11
 70
0
 10
344.9723135055
 20
218.4443286912
 10
344.9950149838
 20
219.2822328737
 10
345.0150290629
 20
220.1313110276
 10
345.0317518066
 20
220.9915930071
 10
345.0453551441
 20
221.8628972179
 10
345.0560893518
 20
222.7453272469
 10
345.0642336102
 20
223.6392934582
 10
345.07008941
 20
224.5447893485
 10
345.0739882858
 20
225.4617360087
 10
345.0762939806
 20
226.390441435
 10
345.077756497
 20
228.8945556801
  0
LINE
  5
312
100
AcDbEntity
  8
0
100
AcDbLine
 62
7
  6
CONTINUOUS
 10
344.8997075785
 20
215.9970736813
 11
344.9723135055
 21
218.4443286912
  0
LINE
  5
313
100
AcDbEntity
  8
0
100
AcDbLine
 62
7
  6
CONTINUOUS
 10
310.5789972966
 20
236.3210368643
 11
344.5777564929
 21
236.3210368643
  0
LINE
  5
314
100
AcDbEntity
  8
0
100
AcDbLine
 62
7
  6
CONTINUOUS
 10
344.5776632778
 20
237.4212175827
 11
310.5775250772
 21
237.4213235193
  0
LINE
  5
315
100
AcDbEntity
  8
0
100
AcDbLine
 62
7
  6
CONTINUOUS
 10
310.0776465268
 20
237.9213250769
 11
345.0776449331
 21
237.9212160249
  0
LINE
  5
316
100
AcDbEntity
  8
_SURFINI
100
AcDbLine
 62
7
  6
CONTINUOUS
 10
331.1771905576
 20
190.2280739933
 11
331.2287261769
 21
190.2447958673
  0
LINE
  5
317
100
AcDbEntity
  8
0
100
AcDbLine
 62
7
  6
CONTINUOUS
 10
324.2252133407
 20
252.301482193
 11
331.1597815494
 21
252.3014605864
  0
LINE
  5
318
100
AcDbEntity
  8
0
100
AcDbLine
 62
7
  6
CONTINUOUS
 10
345.0777366159
 20
267.3466033359
 11
310.0777366254
 21
267.3467131149
  0
LWPOLYLINE
  5
319
100
AcDbEntity
  8
0
100
AcDbPolyline
 62
7
  6
CONTINUOUS
 90
26
 70
0
 10
163.7854834511
 20
349.0124516142
 10
163.7662848545
 20
347.9921988325
 10
163.7541739387
 20
346.9799022534
 10
163.7557112127
 20
345.9751185222
 10
163.7778465364
 20
344.9764681573
 10
163.8269171897
 20
343.9978485359
 10
163.9088093929
 20
343.0448190279
 10
164.0297497844
 20
342.1158309286
 10
164.1953808176
 20
341.2169192651
 10
164.4073101727
 20
340.3585660531
 10
164.6605316656
 20
339.5470047253
 10
164.9496505907
 20
338.7819487041
 10
165.2678446861
 20
338.0672773846
 10
165.6100039466
 20
337.4019649764
 10
165.9755362066
 20
336.7788370415
 10
166.3601261571
 20
336.1996155167
 10
166.7611246957
 20
335.6635721078
 10
167.1831088114
 20
335.1622379234
 10
167.6240416453
 20
334.6974725645
 10
168.081988344
 20
334.2709767847
 10
168.5636883369
 20
333.8773472614
 10
169.0679252146
 20
333.5197606667
 10
169.5934006815
 20
333.2014837689
 10
170.1481312606
 20
332.9216308045
 10
170.734158573
 20
332.6852724604
 10
171.3466289739
 20
332.500832276
  0
LINE
  5
31A
100
AcDbEntity
  8
0
100
AcDbLine
 62
7
  6
CONTINUOUS
 10
171.3466289739
 20
332.500832276
 11
171.7210110873
 21
332.4189421189
  0
LINE
  5
31B
100
AcDbEntity
  8
0
100
AcDbLine
 62
7
  6
CONTINUOUS
 10
186.6812546657
 20
399.0133185055
 11
186.6747372531
 21
398.9774008183
  0
LINE
  5
31C
100
AcDbEntity
  8
0
100
AcDbLine
 62
7
  6
CONTINUOUS
 10
186.6879553701
 20
399.048826291
 11
186.6812546657
 21
399.0133185055
  0
LINE
  5
31D
100
AcDbEntity
  8
0
100
AcDbLine
 62
7
  6
CONTINUOUS
 10
186.6948360791
 20
399.0839074793
 11
186.6879553701
 21
399.048826291
  0
LINE
  5
31E
100
AcDbEntity
  8
0
100
AcDbLine
 62
7
  6
CONTINUOUS
 10
186.7018950298
 20
399.1185543459
 11
186.6948360791
 21
399.0839074793
  0
LINE
  5
31F
100
AcDbEntity
  8
0
100
AcDbLine
 62
7
  6
CONTINUOUS
 10
186.7091297616
 20
399.1527572952
 11
186.7018950298
 21
399.1185543459
  0
LINE
  5
320
100
AcDbEntity
  8
0
100
AcDbLine
 62
7
  6
CONTINUOUS
 10
186.716537669
 20
399.1865079099
 11
186.7091297616
 21
399.1527572952
  0
LINE
  5
321
100
AcDbEntity
  8
0
100
AcDbLine
 62
7
  6
CONTINUOUS
 10
186.7241146657
 20
399.2197930444
 11
186.716537669
 21
399.1865079099
  0
LINE
  5
322
100
AcDbEntity
  8
0
100
AcDbLine
 62
7
  6
CONTINUOUS
 10
186.7318568042
 20
399.2526024647
 11
186.7241146657
 21
399.2197930444
  0
LINE
  5
323
100
AcDbEntity
  8
0
100
AcDbLine
 62
7
  6
CONTINUOUS
 10
186.739759319
 20
399.2849245968
 11
186.7318568042
 21
399.2526024647
  0
LINE
  5
324
100
AcDbEntity
  8
0
100
AcDbLine
 62
7
  6
CONTINUOUS
 10
186.7478171057
 20
399.3167486977
 11
186.739759319
 21
399.2849245968
  0
LINE
  5
325
100
AcDbEntity
  8
0
100
AcDbLine
 62
7
  6
CONTINUOUS
 10
186.7560263921
 20
399.3480710739
 11
186.7478171057
 21
399.3167486977
  0
LINE
  5
326
100
AcDbEntity
  8
0
100
AcDbLine
 62
7
  6
CONTINUOUS
 10
186.764385061
 20
399.3788951669
 11
186.7560263921
 21
399.3480710739
  0
LWPOLYLINE
  5
327
100
AcDbEntity
  8
0
100
AcDbPolyline
 62
7
  6
CONTINUOUS
 90
7
 70
0
 10
186.7948045391
 20
399.4829853721
 10
186.7903505835
 20
399.4684677457
 10
186.7859320565
 20
399.4538362114
 10
186.7815489431
 20
399.43908651
 10
186.7772023942
 20
399.4242183713
 10
186.7728931196
 20
399.4092320637
 10
186.764385061
 20
399.3788951669
  0
LINE
  5
328
100
AcDbEntity
  8
0
100
AcDbLine
 62
7
  6
CONTINUOUS
 10
186.803814046
 20
399.5116796654
 11
186.7948045391
 21
399.4829853721
  0
LINE
  5
329
100
AcDbEntity
  8
0
100
AcDbLine
 62
7
  6
CONTINUOUS
 10
186.8129558733
 20
399.5399345938
 11
186.803814046
 21
399.5116796654
  0
LINE
  5
32A
100
AcDbEntity
  8
0
100
AcDbLine
 62
7
  6
CONTINUOUS
 10
186.8222243615
 20
399.5677608503
 11
186.8129558733
 21
399.5399345938
  0
LINE
  5
32B
100
AcDbEntity
  8
0
100
AcDbLine
 62
7
  6
CONTINUOUS
 10
186.831615773
 20
399.5951732924
 11
186.8222243615
 21
399.5677608503
  0
LINE
  5
32C
100
AcDbEntity
  8
0
100
AcDbLine
 62
7
  6
CONTINUOUS
 10
186.8411268988
 20
399.6221865094
 11
186.831615773
 21
399.5951732924
  0
LINE
  5
32D
100
AcDbEntity
  8
0
100
AcDbLine
 62
7
  6
CONTINUOUS
 10
186.8507535226
 20
399.6488106845
 11
186.8411268988
 21
399.6221865094
  0
LINE
  5
32E
100
AcDbEntity
  8
0
100
AcDbLine
 62
7
  6
CONTINUOUS
 10
186.8604933774
 20
399.6750600377
 11
186.8507535226
 21
399.6488106845
  0
LINE
  5
32F
100
AcDbEntity
  8
0
100
AcDbLine
 62
7
  6
CONTINUOUS
 10
186.8703446729
 20
399.7009485222
 11
186.8604933774
 21
399.6750600377
  0
LINE
  5
330
100
AcDbEntity
  8
0
100
AcDbLine
 62
7
  6
CONTINUOUS
 10
186.8803044807
 20
399.7264857777
 11
186.8703446729
 21
399.7009485222
  0
LINE
  5
331
100
AcDbEntity
  8
0
100
AcDbLine
 62
7
  6
CONTINUOUS
 10
186.8903718548
 20
399.7516853645
 11
186.8803044807
 21
399.7264857777
  0
LINE
  5
332
100
AcDbEntity
  8
0
100
AcDbLine
 62
7
  6
CONTINUOUS
 10
186.9005462821
 20
399.7765605765
 11
186.8903718548
 21
399.7516853645
  0
LINE
  5
333
100
AcDbEntity
  8
0
100
AcDbLine
 62
7
  6
CONTINUOUS
 10
186.9108259908
 20
399.8011204779
 11
186.9005462821
 21
399.7765605765
  0
LINE
  5
334
100
AcDbEntity
  8
0
100
AcDbLine
 62
7
  6
CONTINUOUS
 10
186.9212112292
 20
399.8253779469
 11
186.9108259908
 21
399.8011204779
  0
LINE
  5
335
100
AcDbEntity
  8
0
100
AcDbLine
 62
7
  6
CONTINUOUS
 10
186.9317026425
 20
399.8493455943
 11
186.9212112292
 21
399.8253779469
  0
LINE
  5
336
100
AcDbEntity
  8
0
100
AcDbLine
 62
7
  6
CONTINUOUS
 10
186.9422995038
 20
399.8730318767
 11
186.9317026425
 21
399.8493455943
  0
LINE
  5
337
100
AcDbEntity
  8
0
100
AcDbLine
 62
7
  6
CONTINUOUS
 10
186.9530031644
 20
399.8964489975
 11
186.9422995038
 21
399.8730318767
  0
LINE
  5
338
100
AcDbEntity
  8
0
100
AcDbLine
 62
7
  6
CONTINUOUS
 10
186.9638156474
 20
399.9196095327
 11
186.9530031644
 21
399.8964489975
  0
LINE
  5
339
100
AcDbEntity
  8
0
100
AcDbLine
 62
7
  6
CONTINUOUS
 10
186.9747359251
 20
399.9425186544
 11
186.9638156474
 21
399.9196095327
  0
LINE
  5
33A
100
AcDbEntity
  8
0
100
AcDbLine
 62
7
  6
CONTINUOUS
 10
186.9857625454
 20
399.9651802087
 11
186.9747359251
 21
399.9425186544
  0
LINE
  5
33B
100
AcDbEntity
  8
0
100
AcDbLine
 62
7
  6
CONTINUOUS
 10
186.9968917026
 20
399.9875929988
 11
186.9857625454
 21
399.9651802087
  0
LINE
  5
33C
100
AcDbEntity
  8
0
100
AcDbLine
 62
7
  6
CONTINUOUS
 10
187.0081201177
 20
400.0097569095
 11
186.9968917026
 21
399.9875929988
  0
LINE
  5
33D
100
AcDbEntity
  8
0
100
AcDbLine
 62
7
  6
CONTINUOUS
 10
187.0194444866
 20
400.0316717502
 11
187.0081201177
 21
400.0097569095
  0
LINE
  5
33E
100
AcDbEntity
  8
0
100
AcDbLine
 62
7
  6
CONTINUOUS
 10
187.0308615425
 20
400.0533373838
 11
187.0194444866
 21
400.0316717502
  0
LINE
  5
33F
100
AcDbEntity
  8
0
100
AcDbLine
 62
7
  6
CONTINUOUS
 10
187.0423681155
 20
400.0747538352
 11
187.0308615425
 21
400.0533373838
  0
LINE
  5
340
100
AcDbEntity
  8
0
100
AcDbLine
 62
7
  6
CONTINUOUS
 10
187.0539610111
 20
400.0959210604
 11
187.0423681155
 21
400.0747538352
  0
LINE
  5
341
100
AcDbEntity
  8
0
100
AcDbLine
 62
7
  6
CONTINUOUS
 10
187.0656370748
 20
400.1168390721
 11
187.0539610111
 21
400.0959210604
  0
LINE
  5
342
100
AcDbEntity
  8
0
100
AcDbLine
 62
7
  6
CONTINUOUS
 10
187.0773932378
 20
400.1375080171
 11
187.0656370748
 21
400.1168390721
  0
LINE
  5
343
100
AcDbEntity
  8
0
100
AcDbLine
 62
7
  6
CONTINUOUS
 10
187.0892264191
 20
400.1579280143
 11
187.0773932378
 21
400.1375080171
  0
LINE
  5
344
100
AcDbEntity
  8
0
100
AcDbLine
 62
7
  6
CONTINUOUS
 10
187.1011337762
 20
400.1780997452
 11
187.0892264191
 21
400.1579280143
  0
LINE
  5
345
100
AcDbEntity
  8
0
100
AcDbLine
 62
7
  6
CONTINUOUS
 10
187.1131128031
 20
400.1980245629
 11
187.1011337762
 21
400.1780997452
  0
LINE
  5
346
100
AcDbEntity
  8
0
100
AcDbLine
 62
7
  6
CONTINUOUS
 10
187.1251609642
 20
400.2177037522
 11
187.1131128031
 21
400.1980245629
  0
LINE
  5
347
100
AcDbEntity
  8
0
100
AcDbLine
 62
7
  6
CONTINUOUS
 10
187.1372757451
 20
400.2371386147
 11
187.1251609642
 21
400.2177037522
  0
LINE
  5
348
100
AcDbEntity
  8
0
100
AcDbLine
 62
7
  6
CONTINUOUS
 10
187.1494547247
 20
400.2563305814
 11
187.1372757451
 21
400.2371386147
  0
LINE
  5
349
100
AcDbEntity
  8
0
100
AcDbLine
 62
7
  6
CONTINUOUS
 10
187.1616954302
 20
400.2752809802
 11
187.1494547247
 21
400.2563305814
  0
LINE
  5
34A
100
AcDbEntity
  8
0
100
AcDbLine
 62
7
  6
CONTINUOUS
 10
187.1739954114
 20
400.2939911576
 11
187.1616954302
 21
400.2752809802
  0
LINE
  5
34B
100
AcDbEntity
  8
0
100
AcDbLine
 62
7
  6
CONTINUOUS
 10
187.1863523122
 20
400.3124625838
 11
187.1739954114
 21
400.2939911576
  0
LINE
  5
34C
100
AcDbEntity
  8
0
100
AcDbLine
 62
7
  6
CONTINUOUS
 10
187.1987637248
 20
400.330696631
 11
187.1863523122
 21
400.3124625838
  0
LINE
  5
34D
100
AcDbEntity
  8
0
100
AcDbLine
 62
7
  6
CONTINUOUS
 10
187.2112272637
 20
400.3486946886
 11
187.1987637248
 21
400.330696631
  0
LINE
  5
34E
100
AcDbEntity
  8
0
100
AcDbLine
 62
7
  6
CONTINUOUS
 10
187.2237406376
 20
400.3664582638
 11
187.2112272637
 21
400.3486946886
  0
LINE
  5
34F
100
AcDbEntity
  8
0
100
AcDbLine
 62
7
  6
CONTINUOUS
 10
187.2363015031
 20
400.3839887703
 11
187.2237406376
 21
400.3664582638
  0
LINE
  5
350
100
AcDbEntity
  8
0
100
AcDbLine
 62
7
  6
CONTINUOUS
 10
187.2489076137
 20
400.4012877389
 11
187.2363015031
 21
400.3839887703
  0
LINE
  5
351
100
AcDbEntity
  8
0
100
AcDbLine
 62
7
  6
CONTINUOUS
 10
187.2615565201
 20
400.4183564085
 11
187.2489076137
 21
400.4012877389
  0
LINE
  5
352
100
AcDbEntity
  8
0
100
AcDbLine
 62
7
  6
CONTINUOUS
 10
187.2742451814
 20
400.4351952389
 11
187.2615565201
 21
400.4183564085
  0
LINE
  5
353
100
AcDbEntity
  8
0
100
AcDbLine
 62
7
  6
CONTINUOUS
 10
187.2869705473
 20
400.4518047295
 11
187.2742451814
 21
400.4351952389
  0
LINE
  5
354
100
AcDbEntity
  8
0
100
AcDbLine
 62
7
  6
CONTINUOUS
 10
187.299730329
 20
400.4681864002
 11
187.2869705473
 21
400.4518047295
  0
LINE
  5
355
100
AcDbEntity
  8
0
100
AcDbLine
 62
7
  6
CONTINUOUS
 10
187.3125227951
 20
400.4843424554
 11
187.299730329
 21
400.4681864002
  0
LINE
  5
356
100
AcDbEntity
  8
0
100
AcDbLine
 62
7
  6
CONTINUOUS
 10
187.3253461469
 20
400.50027496
 11
187.3125227951
 21
400.4843424554
  0
LINE
  5
357
100
AcDbEntity
  8
0
100
AcDbLine
 62
7
  6
CONTINUOUS
 10
187.3381985511
 20
400.5159858891
 11
187.3253461469
 21
400.50027496
  0
LINE
  5
358
100
AcDbEntity
  8
0
100
AcDbLine
 62
7
  6
CONTINUOUS
 10
187.3510782757
 20
400.5314772978
 11
187.3381985511
 21
400.5159858891
  0
LINE
  5
359
100
AcDbEntity
  8
0
100
AcDbLine
 62
7
  6
CONTINUOUS
 10
187.36398363
 20
400.5467512432
 11
187.3510782757
 21
400.5314772978
  0
LINE
  5
35A
100
AcDbEntity
  8
0
100
AcDbLine
 62
7
  6
CONTINUOUS
 10
187.3769128815
 20
400.5618096891
 11
187.36398363
 21
400.5467512432
  0
LINE
  5
35B
100
AcDbEntity
  8
0
100
AcDbLine
 62
7
  6
CONTINUOUS
 10
187.3898644052
 20
400.576654682
 11
187.3769128815
 21
400.5618096891
  0
LINE
  5
35C
100
AcDbEntity
  8
0
100
AcDbLine
 62
7
  6
CONTINUOUS
 10
187.4028366161
 20
400.5912882688
 11
187.3898644052
 21
400.576654682
  0
LINE
  5
35D
100
AcDbEntity
  8
0
100
AcDbLine
 62
7
  6
CONTINUOUS
 10
187.4158278799
 20
400.6057123985
 11
187.4028366161
 21
400.5912882688
  0
LINE
  5
35E
100
AcDbEntity
  8
0
100
AcDbLine
 62
7
  6
CONTINUOUS
 10
187.4288366755
 20
400.6199291053
 11
187.4158278799
 21
400.6057123985
  0
LINE
  5
35F
100
AcDbEntity
  8
0
100
AcDbLine
 62
7
  6
CONTINUOUS
 10
187.4418615204
 20
400.6339404219
 11
187.4288366755
 21
400.6199291053
  0
LINE
  5
360
100
AcDbEntity
  8
0
100
AcDbLine
 62
7
  6
CONTINUOUS
 10
187.4549008757
 20
400.6477482795
 11
187.4418615204
 21
400.6339404219
  0
LINE
  5
361
100
AcDbEntity
  8
0
100
AcDbLine
 62
7
  6
CONTINUOUS
 10
187.467953321
 20
400.6613546963
 11
187.4549008757
 21
400.6477482795
  0
LINE
  5
362
100
AcDbEntity
  8
0
100
AcDbLine
 62
7
  6
CONTINUOUS
 10
187.4810174735
 20
400.6747616876
 11
187.467953321
 21
400.6613546963
  0
LINE
  5
363
100
AcDbEntity
  8
0
100
AcDbLine
 62
7
  6
CONTINUOUS
 10
187.4940918862
 20
400.6879711636
 11
187.4810174735
 21
400.6747616876
  0
LINE
  5
364
100
AcDbEntity
  8
0
100
AcDbLine
 62
7
  6
CONTINUOUS
 10
187.5071752022
 20
400.7009850897
 11
187.4940918862
 21
400.6879711636
  0
LINE
  5
365
100
AcDbEntity
  8
0
100
AcDbLine
 62
7
  6
CONTINUOUS
 10
187.5202659906
 20
400.7138053192
 11
187.5071752022
 21
400.7009850897
  0
LINE
  5
366
100
AcDbEntity
  8
0
100
AcDbLine
 62
7
  6
CONTINUOUS
 10
187.5333627229
 20
400.7264335714
 11
187.5202659906
 21
400.7138053192
  0
LWPOLYLINE
  5
367
100
AcDbEntity
  8
0
100
AcDbPolyline
 62
7
  6
CONTINUOUS
 90
5
 70
0
 10
171.7208993904
 20
332.4189630195
 10
172.0635951111
 20
332.3642618641
 10
172.6477081062
 20
332.3152851373
 10
173.2299788083
 20
332.3219201609
 10
173.7806533024
 20
332.3799691137
  0
LINE
  5
368
100
AcDbEntity
  8
0
100
AcDbLine
 62
7
  6
CONTINUOUS
 10
171.7210110873
 20
332.4189421189
 11
171.7217949648
 21
332.4187969847
  0
LINE
  5
369
100
AcDbEntity
  8
0
100
AcDbLine
 62
7
  6
CONTINUOUS
 10
186.5742974073
 20
395.2795435193
 11
186.578678612
 21
395.2366805024
  0
LINE
  5
36A
100
AcDbEntity
  8
0
100
AcDbLine
 62
7
  6
CONTINUOUS
 10
186.5701712472
 20
395.3224873346
 11
186.5742974073
 21
395.2795435193
  0
LINE
  5
36B
100
AcDbEntity
  8
0
100
AcDbLine
 62
7
  6
CONTINUOUS
 10
186.5662930173
 20
395.3655085802
 11
186.5701712472
 21
395.3224873346
  0
LINE
  5
36C
100
AcDbEntity
  8
0
100
AcDbLine
 62
7
  6
CONTINUOUS
 10
186.5626554171
 20
395.4086038246
 11
186.5662930173
 21
395.3655085802
  0
LINE
  5
36D
100
AcDbEntity
  8
0
100
AcDbLine
 62
7
  6
CONTINUOUS
 10
186.559250958
 20
395.4517695758
 11
186.5626554171
 21
395.4086038246
  0
LINE
  5
36E
100
AcDbEntity
  8
0
100
AcDbLine
 62
7
  6
CONTINUOUS
 10
186.5560722887
 20
395.4950027982
 11
186.559250958
 21
395.4517695758
  0
LINE
  5
36F
100
AcDbEntity
  8
0
100
AcDbLine
 62
7
  6
CONTINUOUS
 10
186.5531136208
 20
395.5383030696
 11
186.5560722887
 21
395.4950027982
  0
LINE
  5
370
100
AcDbEntity
  8
0
100
AcDbLine
 62
7
  6
CONTINUOUS
 10
186.5503695969
 20
395.5816707886
 11
186.5531136208
 21
395.5383030696
  0
LINE
  5
371
100
AcDbEntity
  8
0
100
AcDbLine
 62
7
  6
CONTINUOUS
 10
186.547834718
 20
395.625106359
 11
186.5503695969
 21
395.5816707886
  0
LINE
  5
372
100
AcDbEntity
  8
0
100
AcDbLine
 62
7
  6
CONTINUOUS
 10
186.5455033413
 20
395.6686101915
 11
186.547834718
 21
395.625106359
  0
LINE
  5
373
100
AcDbEntity
  8
0
100
AcDbLine
 62
7
  6
CONTINUOUS
 10
186.543369679
 20
395.7121827043
 11
186.5455033413
 21
395.6686101915
  0
LINE
  5
374
100
AcDbEntity
  8
0
100
AcDbLine
 62
7
  6
CONTINUOUS
 10
186.5408220731
 20
395.7703869615
 11
186.543369679
 21
395.7121827043
  0
LINE
  5
375
100
AcDbEntity
  8
0
100
AcDbLine
 62
7
  6
CONTINUOUS
 10
186.5386009152
 20
395.8287151188
 11
186.5408220731
 21
395.7703869615
  0
LINE
  5
376
100
AcDbEntity
  8
0
100
AcDbLine
 62
7
  6
CONTINUOUS
 10
186.5366912558
 20
395.8871682395
 11
186.5386009152
 21
395.8287151188
  0
LINE
  5
377
100
AcDbEntity
  8
0
100
AcDbLine
 62
7
  6
CONTINUOUS
 10
186.5350776659
 20
395.9457474379
 11
186.5366912558
 21
395.8871682395
  0
LINE
  5
378
100
AcDbEntity
  8
0
100
AcDbLine
 62
7
  6
CONTINUOUS
 10
186.5337442329
 20
396.0044538714
 11
186.5350776659
 21
395.9457474379
  0
LINE
  5
379
100
AcDbEntity
  8
0
100
AcDbLine
 62
7
  6
CONTINUOUS
 10
186.5324463786
 20
396.0780176534
 11
186.5337442329
 21
396.0044538714
  0
LINE
  5
37A
100
AcDbEntity
  8
0
100
AcDbLine
 62
7
  6
CONTINUOUS
 10
186.5315274852
 20
396.1517845682
 11
186.5324463786
 21
396.0780176534
  0
LINE
  5
37B
100
AcDbEntity
  8
0
100
AcDbLine
 62
7
  6
CONTINUOUS
 10
186.5309532125
 20
396.2257571993
 11
186.5315274852
 21
396.1517845682
  0
LINE
  5
37C
100
AcDbEntity
  8
0
100
AcDbLine
 62
7
  6
CONTINUOUS
 10
186.5306697307
 20
396.3148004505
 11
186.5309532125
 21
396.2257571993
  0
LINE
  5
37D
100
AcDbEntity
  8
0
100
AcDbLine
 62
7
  6
CONTINUOUS
 10
186.5308402861
 20
396.4190856454
 11
186.5306697307
 21
396.3148004505
  0
LINE
  5
37E
100
AcDbEntity
  8
0
100
AcDbLine
 62
7
  6
CONTINUOUS
 10
186.5316255535
 20
396.5388435126
 11
186.5308402861
 21
396.4190856454
  0
LINE
  5
37F
100
AcDbEntity
  8
0
100
AcDbLine
 62
7
  6
CONTINUOUS
 10
186.5331540429
 20
396.674373962
 11
186.5316255535
 21
396.5388435126
  0
LINE
  5
380
100
AcDbEntity
  8
0
100
AcDbLine
 62
7
  6
CONTINUOUS
 10
186.5354942376
 20
396.8260637958
 11
186.5331540429
 21
396.674373962
  0
LINE
  5
381
100
AcDbEntity
  8
0
100
AcDbLine
 62
7
  6
CONTINUOUS
 10
186.5448791743
 20
397.2910620853
 11
186.5354942376
 21
396.8260637958
  0
LINE
  5
382
100
AcDbEntity
  8
0
100
AcDbLine
 62
7
  6
CONTINUOUS
 10
186.5491306357
 20
397.4586079191
 11
186.5448791743
 21
397.2910620853
  0
LINE
  5
383
100
AcDbEntity
  8
0
100
AcDbLine
 62
7
  6
CONTINUOUS
 10
186.5529109997
 20
397.5849232057
 11
186.5491306357
 21
397.4586079191
  0
LINE
  5
384
100
AcDbEntity
  8
0
100
AcDbLine
 62
7
  6
CONTINUOUS
 10
186.5565491649
 20
397.6903858016
 11
186.5529109997
 21
397.5849232057
  0
LINE
  5
385
100
AcDbEntity
  8
0
100
AcDbLine
 62
7
  6
CONTINUOUS
 10
186.5607047978
 20
397.7958575327
 11
186.5565491649
 21
397.6903858016
  0
LINE
  5
386
100
AcDbEntity
  8
0
100
AcDbLine
 62
7
  6
CONTINUOUS
 10
186.5644461509
 20
397.8801297219
 11
186.5607047978
 21
397.7958575327
  0
LINE
  5
387
100
AcDbEntity
  8
0
100
AcDbLine
 62
7
  6
CONTINUOUS
 10
186.568602474
 20
397.9642131838
 11
186.5644461509
 21
397.8801297219
  0
LINE
  5
388
100
AcDbEntity
  8
0
100
AcDbLine
 62
7
  6
CONTINUOUS
 10
186.5720227499
 20
398.0270902959
 11
186.568602474
 21
397.9642131838
  0
LINE
  5
389
100
AcDbEntity
  8
0
100
AcDbLine
 62
7
  6
CONTINUOUS
 10
186.5757257681
 20
398.0897621896
 11
186.5720227499
 21
398.0270902959
  0
LINE
  5
38A
100
AcDbEntity
  8
0
100
AcDbLine
 62
7
  6
CONTINUOUS
 10
186.5797308738
 20
398.1521870983
 11
186.5757257681
 21
398.0897621896
  0
LINE
  5
38B
100
AcDbEntity
  8
0
100
AcDbLine
 62
7
  6
CONTINUOUS
 10
186.5840560495
 20
398.2143236541
 11
186.5797308738
 21
398.1521870983
  0
LINE
  5
38C
100
AcDbEntity
  8
0
100
AcDbLine
 62
7
  6
CONTINUOUS
 10
186.588717796
 20
398.276130937
 11
186.5840560495
 21
398.2143236541
  0
LINE
  5
38D
100
AcDbEntity
  8
0
100
AcDbLine
 62
7
  6
CONTINUOUS
 10
186.5937310213
 20
398.337568522
 11
186.588717796
 21
398.276130937
  0
LINE
  5
38E
100
AcDbEntity
  8
0
100
AcDbLine
 62
7
  6
CONTINUOUS
 10
186.5972749569
 20
398.3783009316
 11
186.5937310213
 21
398.337568522
  0
LINE
  5
38F
100
AcDbEntity
  8
0
100
AcDbLine
 62
7
  6
CONTINUOUS
 10
186.6009846065
 20
398.4188409344
 11
186.5972749569
 21
398.3783009316
  0
LINE
  5
390
100
AcDbEntity
  8
0
100
AcDbLine
 62
7
  6
CONTINUOUS
 10
186.6048629678
 20
398.4591756326
 11
186.6009846065
 21
398.4188409344
  0
LINE
  5
391
100
AcDbEntity
  8
0
100
AcDbLine
 62
7
  6
CONTINUOUS
 10
186.6089126468
 20
398.4992923387
 11
186.6048629678
 21
398.4591756326
  0
LINE
  5
392
100
AcDbEntity
  8
0
100
AcDbLine
 62
7
  6
CONTINUOUS
 10
186.6131362536
 20
398.5391823152
 11
186.6089126468
 21
398.4992923387
  0
LINE
  5
393
100
AcDbEntity
  8
0
100
AcDbLine
 62
7
  6
CONTINUOUS
 10
186.6175356151
 20
398.5788330745
 11
186.6131362536
 21
398.5391823152
  0
LINE
  5
394
100
AcDbEntity
  8
0
100
AcDbLine
 62
7
  6
CONTINUOUS
 10
186.622112141
 20
398.618232361
 11
186.6175356151
 21
398.5788330745
  0
LINE
  5
395
100
AcDbEntity
  8
0
100
AcDbLine
 62
7
  6
CONTINUOUS
 10
186.6268673241
 20
398.6573717641
 11
186.622112141
 21
398.618232361
  0
LINE
  5
396
100
AcDbEntity
  8
0
100
AcDbLine
 62
7
  6
CONTINUOUS
 10
186.6318029072
 20
398.696236741
 11
186.6268673241
 21
398.6573717641
  0
LINE
  5
397
100
AcDbEntity
  8
0
100
AcDbLine
 62
7
  6
CONTINUOUS
 10
186.6369212043
 20
398.7348098989
 11
186.6318029072
 21
398.696236741
  0
LINE
  5
398
100
AcDbEntity
  8
0
100
AcDbLine
 62
7
  6
CONTINUOUS
 10
186.6422245504
 20
398.7730777606
 11
186.6369212043
 21
398.7348098989
  0
LINE
  5
399
100
AcDbEntity
  8
0
100
AcDbLine
 62
7
  6
CONTINUOUS
 10
186.6477142609
 20
398.8110235295
 11
186.6422245504
 21
398.7730777606
  0
LINE
  5
39A
100
AcDbEntity
  8
0
100
AcDbLine
 62
7
  6
CONTINUOUS
 10
186.6533911217
 20
398.848631058
 11
186.6477142609
 21
398.8110235295
  0
LINE
  5
39B
100
AcDbEntity
  8
0
100
AcDbLine
 62
7
  6
CONTINUOUS
 10
186.6592559171
 20
398.885888149
 11
186.6533911217
 21
398.848631058
  0
LINE
  5
39C
100
AcDbEntity
  8
0
100
AcDbLine
 62
7
  6
CONTINUOUS
 10
186.6653083663
 20
398.9227795371
 11
186.6592559171
 21
398.885888149
  0
LWPOLYLINE
  5
39D
100
AcDbEntity
  8
0
100
AcDbPolyline
 62
7
  6
CONTINUOUS
 90
3
 70
0
 10
186.6747372531
 20
398.9774008183
 10
186.6715476382
 20
398.9592905363
 10
186.6653083663
 20
398.9227795371
  0
LINE
  5
39E
100
AcDbEntity
  8
0
100
AcDbLine
 62
7
  6
CONTINUOUS
 10
187.5464640115
 20
400.7388716652
 11
187.5333627229
 21
400.7264335714
  0
LINE
  5
39F
100
AcDbEntity
  8
0
100
AcDbLine
 62
7
  6
CONTINUOUS
 10
187.5595685074
 20
400.7511214166
 11
187.5464640115
 21
400.7388716652
  0
LINE
  5
3A0
100
AcDbEntity
  8
0
100
AcDbLine
 62
7
  6
CONTINUOUS
 10
187.5726747862
 20
400.7631845342
 11
187.5595685074
 21
400.7511214166
  0
LINE
  5
3A1
100
AcDbEntity
  8
0
100
AcDbLine
 62
7
  6
CONTINUOUS
 10
187.585781566
 20
400.7750628235
 11
187.5726747862
 21
400.7631845342
  0
LINE
  5
3A2
100
AcDbEntity
  8
0
100
AcDbLine
 62
7
  6
CONTINUOUS
 10
187.5988876026
 20
400.7867580859
 11
187.585781566
 21
400.7750628235
  0
LINE
  5
3A3
100
AcDbEntity
  8
0
100
AcDbLine
 62
7
  6
CONTINUOUS
 10
187.6119915698
 20
400.7982720147
 11
187.5988876026
 21
400.7867580859
  0
LINE
  5
3A4
100
AcDbEntity
  8
0
100
AcDbLine
 62
7
  6
CONTINUOUS
 10
187.6250922652
 20
400.8096063793
 11
187.6119915698
 21
400.7982720147
  0
LINE
  5
3A5
100
AcDbEntity
  8
0
100
AcDbLine
 62
7
  6
CONTINUOUS
 10
187.6381886552
 20
400.8207630576
 11
187.6250922652
 21
400.8096063793
  0
LINE
  5
3A6
100
AcDbEntity
  8
0
100
AcDbLine
 62
7
  6
CONTINUOUS
 10
187.6512796272
 20
400.8317438204
 11
187.6381886552
 21
400.8207630576
  0
LINE
  5
3A7
100
AcDbEntity
  8
0
100
AcDbLine
 62
7
  6
CONTINUOUS
 10
187.664364525
 20
400.8425507781
 11
187.6512796272
 21
400.8317438204
  0
LINE
  5
3A8
100
AcDbEntity
  8
0
100
AcDbLine
 62
7
  6
CONTINUOUS
 10
187.67744171
 20
400.8531851929
 11
187.664364525
 21
400.8425507781
  0
LINE
  5
3A9
100
AcDbEntity
  8
0
100
AcDbLine
 62
7
  6
CONTINUOUS
 10
187.6905097115
 20
400.8636484567
 11
187.67744171
 21
400.8531851929
  0
LINE
  5
3AA
100
AcDbEntity
  8
0
100
AcDbLine
 62
7
  6
CONTINUOUS
 10
187.7035669942
 20
400.8739418995
 11
187.6905097115
 21
400.8636484567
  0
LINE
  5
3AB
100
AcDbEntity
  8
0
100
AcDbLine
 62
7
  6
CONTINUOUS
 10
187.716612045
 20
400.8840668619
 11
187.7035669942
 21
400.8739418995
  0
LINE
  5
3AC
100
AcDbEntity
  8
0
100
AcDbLine
 62
7
  6
CONTINUOUS
 10
187.7296434233
 20
400.8940247326
 11
187.716612045
 21
400.8840668619
  0
LINE
  5
3AD
100
AcDbEntity
  8
0
100
AcDbLine
 62
7
  6
CONTINUOUS
 10
187.7426596515
 20
400.9038168634
 11
187.7296434233
 21
400.8940247326
  0
LINE
  5
3AE
100
AcDbEntity
  8
0
100
AcDbLine
 62
7
  6
CONTINUOUS
 10
187.7556592656
 20
400.91344461
 11
187.7426596515
 21
400.9038168634
  0
LINE
  5
3AF
100
AcDbEntity
  8
0
100
AcDbLine
 62
7
  6
CONTINUOUS
 10
187.7686408769
 20
400.922909376
 11
187.7556592656
 21
400.91344461
  0
LINE
  5
3B0
100
AcDbEntity
  8
0
100
AcDbLine
 62
7
  6
CONTINUOUS
 10
187.7816030556
 20
400.9322125277
 11
187.7686408769
 21
400.922909376
  0
LINE
  5
3B1
100
AcDbEntity
  8
0
100
AcDbLine
 62
7
  6
CONTINUOUS
 10
187.7945443852
 20
400.9413554347
 11
187.7816030556
 21
400.9322125277
  0
LINE
  5
3B2
100
AcDbEntity
  8
0
100
AcDbLine
 62
7
  6
CONTINUOUS
 10
187.8074635271
 20
400.9503395149
 11
187.7945443852
 21
400.9413554347
  0
LINE
  5
3B3
100
AcDbEntity
  8
0
100
AcDbLine
 62
7
  6
CONTINUOUS
 10
187.8203590978
 20
400.9591661477
 11
187.8074635271
 21
400.9503395149
  0
LINE
  5
3B4
100
AcDbEntity
  8
0
100
AcDbLine
 62
7
  6
CONTINUOUS
 10
187.8332297265
 20
400.9678367162
 11
187.8203590978
 21
400.9591661477
  0
LINE
  5
3B5
100
AcDbEntity
  8
0
100
AcDbLine
 62
7
  6
CONTINUOUS
 10
187.8460741229
 20
400.976352651
 11
187.8332297265
 21
400.9678367162
  0
LINE
  5
3B6
100
AcDbEntity
  8
0
100
AcDbLine
 62
7
  6
CONTINUOUS
 10
187.8588909483
 20
400.9847153444
 11
187.8460741229
 21
400.976352651
  0
LINE
  5
3B7
100
AcDbEntity
  8
0
100
AcDbLine
 62
7
  6
CONTINUOUS
 10
187.8716788758
 20
400.9929261913
 11
187.8588909483
 21
400.9847153444
  0
LINE
  5
3B8
100
AcDbEntity
  8
0
100
AcDbLine
 62
7
  6
CONTINUOUS
 10
187.8844366619
 20
401.0009866348
 11
187.8716788758
 21
400.9929261913
  0
LINE
  5
3B9
100
AcDbEntity
  8
0
100
AcDbLine
 62
7
  6
CONTINUOUS
 10
187.8971630109
 20
401.0088980783
 11
187.8844366619
 21
401.0009866348
  0
LINE
  5
3BA
100
AcDbEntity
  8
0
100
AcDbLine
 62
7
  6
CONTINUOUS
 10
187.9098566057
 20
401.0166619085
 11
187.8971630109
 21
401.0088980783
  0
LINE
  5
3BB
100
AcDbEntity
  8
0
100
AcDbLine
 62
7
  6
CONTINUOUS
 10
187.9225163461
 20
401.0242796388
 11
187.9098566057
 21
401.0166619085
  0
LINE
  5
3BC
100
AcDbEntity
  8
0
100
AcDbLine
 62
7
  6
CONTINUOUS
 10
187.9351410242
 20
401.0317527087
 11
187.9225163461
 21
401.0242796388
  0
LINE
  5
3BD
100
AcDbEntity
  8
0
100
AcDbLine
 62
7
  6
CONTINUOUS
 10
187.9477312207
 20
401.0390835852
 11
187.9351410242
 21
401.0317527087
  0
LINE
  5
3BE
100
AcDbEntity
  8
0
100
AcDbLine
 62
7
  6
CONTINUOUS
 10
187.9602869482
 20
401.0462743399
 11
187.9477312207
 21
401.0390835852
  0
LINE
  5
3BF
100
AcDbEntity
  8
0
100
AcDbLine
 62
7
  6
CONTINUOUS
 10
187.9728089262
 20
401.0533273901
 11
187.9602869482
 21
401.0462743399
  0
LWPOLYLINE
  5
3C0
100
AcDbEntity
  8
0
100
AcDbPolyline
 62
7
  6
CONTINUOUS
 90
3
 70
0
 10
187.9915299145
 20
401.0636537295
 10
187.9852978877
 20
401.0602450873
 10
187.9728089262
 20
401.0533273901
  0
LINE
  5
3C1
100
AcDbEntity
  8
0
100
AcDbLine
 62
7
  6
CONTINUOUS
 10
272.6203836678
 20
330.2640885371
 11
275.8521667151
 21
330.3546265431
  0
LINE
  5
3C2
100
AcDbEntity
  8
0
100
AcDbLine
 62
7
  6
CONTINUOUS
 10
186.578678612
 20
395.2366805024
 11
186.5817445366
 21
395.2081516788
  0
LINE
  5
3C3
100
AcDbEntity
  8
0
100
AcDbLine
 62
7
  6
CONTINUOUS
 10
188.0039701903
 20
401.0703723667
 11
187.9915299145
 21
401.0636537295
  0
LINE
  5
3C4
100
AcDbEntity
  8
0
100
AcDbLine
 62
7
  6
CONTINUOUS
 10
188.0163786103
 20
401.0769608785
 11
188.0039701903
 21
401.0703723667
  0
LINE
  5
3C5
100
AcDbEntity
  8
0
100
AcDbLine
 62
7
  6
CONTINUOUS
 10
188.0287561243
 20
401.0834215065
 11
188.0163786103
 21
401.0769608785
  0
LINE
  5
3C6
100
AcDbEntity
  8
0
100
AcDbLine
 62
7
  6
CONTINUOUS
 10
188.0411029271
 20
401.0897560594
 11
188.0287561243
 21
401.0834215065
  0
LINE
  5
3C7
100
AcDbEntity
  8
0
100
AcDbLine
 62
7
  6
CONTINUOUS
 10
188.0534191364
 20
401.0959663742
 11
188.0411029271
 21
401.0897560594
  0
LINE
  5
3C8
100
AcDbEntity
  8
0
100
AcDbLine
 62
7
  6
CONTINUOUS
 10
188.0657055037
 20
401.1020545917
 11
188.0534191364
 21
401.0959663742
  0
LINE
  5
3C9
100
AcDbEntity
  8
0
100
AcDbLine
 62
7
  6
CONTINUOUS
 10
188.0779630796
 20
401.1080229338
 11
188.0657055037
 21
401.1020545917
  0
LINE
  5
3CA
100
AcDbEntity
  8
0
100
AcDbLine
 62
7
  6
CONTINUOUS
 10
188.0901923235
 20
401.1138732706
 11
188.0779630796
 21
401.1080229338
  0
LINE
  5
3CB
100
AcDbEntity
  8
0
100
AcDbLine
 62
7
  6
CONTINUOUS
 10
188.1023943007
 20
401.1196077047
 11
188.0901923235
 21
401.1138732706
  0
LINE
  5
3CC
100
AcDbEntity
  8
0
100
AcDbLine
 62
7
  6
CONTINUOUS
 10
188.1145700908
 20
401.1252282776
 11
188.1023943007
 21
401.1196077047
  0
LINE
  5
3CD
100
AcDbEntity
  8
0
100
AcDbLine
 62
7
  6
CONTINUOUS
 10
188.1267203131
 20
401.1307367569
 11
188.1145700908
 21
401.1252282776
  0
LINE
  5
3CE
100
AcDbEntity
  8
0
100
AcDbLine
 62
7
  6
CONTINUOUS
 10
188.1388457533
 20
401.1361349343
 11
188.1267203131
 21
401.1307367569
  0
LINE
  5
3CF
100
AcDbEntity
  8
0
100
AcDbLine
 62
7
  6
CONTINUOUS
 10
188.1509514641
 20
401.141426403
 11
188.1388457533
 21
401.1361349343
  0
LINE
  5
3D0
100
AcDbEntity
  8
0
100
AcDbLine
 62
7
  6
CONTINUOUS
 10
188.1630395678
 20
401.1466133537
 11
188.1509514641
 21
401.141426403
  0
LINE
  5
3D1
100
AcDbEntity
  8
0
100
AcDbLine
 62
7
  6
CONTINUOUS
 10
188.1751126482
 20
401.151698088
 11
188.1630395678
 21
401.1466133537
  0
LINE
  5
3D2
100
AcDbEntity
  8
0
100
AcDbLine
 62
7
  6
CONTINUOUS
 10
188.1871722963
 20
401.1566824004
 11
188.1751126482
 21
401.151698088
  0
LINE
  5
3D3
100
AcDbEntity
  8
0
100
AcDbLine
 62
7
  6
CONTINUOUS
 10
188.1992196081
 20
401.1615678189
 11
188.1871722963
 21
401.1566824004
  0
LINE
  5
3D4
100
AcDbEntity
  8
0
100
AcDbLine
 62
7
  6
CONTINUOUS
 10
188.2112564766
 20
401.1663561354
 11
188.1992196081
 21
401.1615678189
  0
LINE
  5
3D5
100
AcDbEntity
  8
0
100
AcDbLine
 62
7
  6
CONTINUOUS
 10
188.2232847464
 20
401.1710490501
 11
188.2112564766
 21
401.1663561354
  0
LINE
  5
3D6
100
AcDbEntity
  8
0
100
AcDbLine
 62
7
  6
CONTINUOUS
 10
188.2353061651
 20
401.1756481567
 11
188.2232847464
 21
401.1710490501
  0
LINE
  5
3D7
100
AcDbEntity
  8
0
100
AcDbLine
 62
7
  6
CONTINUOUS
 10
188.2473248671
 20
401.1801558707
 11
188.2353061651
 21
401.1756481567
  0
LINE
  5
3D8
100
AcDbEntity
  8
0
100
AcDbLine
 62
7
  6
CONTINUOUS
 10
188.2593428196
 20
401.1845736851
 11
188.2473248671
 21
401.1801558707
  0
LINE
  5
3D9
100
AcDbEntity
  8
0
100
AcDbLine
 62
7
  6
CONTINUOUS
 10
188.2713597738
 20
401.1889022362
 11
188.2593428196
 21
401.1845736851
  0
LINE
  5
3DA
100
AcDbEntity
  8
0
100
AcDbLine
 62
7
  6
CONTINUOUS
 10
188.2833728224
 20
401.1931412316
 11
188.2713597738
 21
401.1889022362
  0
LINE
  5
3DB
100
AcDbEntity
  8
0
100
AcDbLine
 62
7
  6
CONTINUOUS
 10
188.295379654
 20
401.1972906607
 11
188.2833728224
 21
401.1931412316
  0
LINE
  5
3DC
100
AcDbEntity
  8
0
100
AcDbLine
 62
7
  6
CONTINUOUS
 10
188.3073787009
 20
401.2013508211
 11
188.295379654
 21
401.1972906607
  0
LINE
  5
3DD
100
AcDbEntity
  8
0
100
AcDbLine
 62
7
  6
CONTINUOUS
 10
188.3193677951
 20
401.2053218517
 11
188.3073787009
 21
401.2013508211
  0
LINE
  5
3DE
100
AcDbEntity
  8
0
100
AcDbLine
 62
7
  6
CONTINUOUS
 10
253.8805889156
 20
339.9474697034
 11
271.1791305385
 21
342.5753948334
  0
LINE
  5
3DF
100
AcDbEntity
  8
0
100
AcDbLine
 62
7
  6
CONTINUOUS
 10
186.7671858636
 20
394.2771173418
 11
186.7751890311
 21
394.2513185457
  0
LINE
  5
3E0
100
AcDbEntity
  8
0
100
AcDbLine
 62
7
  6
CONTINUOUS
 10
186.7593211708
 20
394.3030181701
 11
186.7671858636
 21
394.2771173418
  0
LINE
  5
3E1
100
AcDbEntity
  8
0
100
AcDbLine
 62
7
  6
CONTINUOUS
 10
186.7515966321
 20
394.3290192336
 11
186.7593211708
 21
394.3030181701
  0
LINE
  5
3E2
100
AcDbEntity
  8
0
100
AcDbLine
 62
7
  6
CONTINUOUS
 10
186.7440139382
 20
394.355118716
 11
186.7515966321
 21
394.3290192336
  0
LINE
  5
3E3
100
AcDbEntity
  8
0
100
AcDbLine
 62
7
  6
CONTINUOUS
 10
186.7365747902
 20
394.3813147854
 11
186.7440139382
 21
394.355118716
  0
LINE
  5
3E4
100
AcDbEntity
  8
0
100
AcDbLine
 62
7
  6
CONTINUOUS
 10
186.7292808975
 20
394.4076056004
 11
186.7365747902
 21
394.3813147854
  0
LINE
  5
3E5
100
AcDbEntity
  8
0
100
AcDbLine
 62
7
  6
CONTINUOUS
 10
186.7221339811
 20
394.4339892994
 11
186.7292808975
 21
394.4076056004
  0
LINE
  5
3E6
100
AcDbEntity
  8
0
100
AcDbLine
 62
7
  6
CONTINUOUS
 10
186.7151357725
 20
394.4604640045
 11
186.7221339811
 21
394.4339892994
  0
LINE
  5
3E7
100
AcDbEntity
  8
0
100
AcDbLine
 62
7
  6
CONTINUOUS
 10
186.7082880114
 20
394.487027829
 11
186.7151357725
 21
394.4604640045
  0
LINE
  5
3E8
100
AcDbEntity
  8
0
100
AcDbLine
 62
7
  6
CONTINUOUS
 10
186.7015928702
 20
394.5136771682
 11
186.7082880114
 21
394.487027829
  0
LINE
  5
3E9
100
AcDbEntity
  8
0
100
AcDbLine
 62
7
  6
CONTINUOUS
 10
186.6950500043
 20
394.5404186863
 11
186.7015928702
 21
394.5136771682
  0
LINE
  5
3EA
100
AcDbEntity
  8
0
100
AcDbLine
 62
7
  6
CONTINUOUS
 10
186.6886595836
 20
394.5672578447
 11
186.6950500043
 21
394.5404186863
  0
LINE
  5
3EB
100
AcDbEntity
  8
0
100
AcDbLine
 62
7
  6
CONTINUOUS
 10
186.6824194777
 20
394.5942110702
 11
186.6886595836
 21
394.5672578447
  0
LINE
  5
3EC
100
AcDbEntity
  8
0
100
AcDbLine
 62
7
  6
CONTINUOUS
 10
186.676332667
 20
394.6212738071
 11
186.6824194777
 21
394.5942110702
  0
LINE
  5
3ED
100
AcDbEntity
  8
0
100
AcDbLine
 62
7
  6
CONTINUOUS
 10
186.6703999959
 20
394.6484435588
 11
186.676332667
 21
394.6212738071
  0
LINE
  5
3EE
100
AcDbEntity
  8
0
100
AcDbLine
 62
7
  6
CONTINUOUS
 10
186.6646202244
 20
394.6757165284
 11
186.6703999959
 21
394.6484435588
  0
LINE
  5
3EF
100
AcDbEntity
  8
0
100
AcDbLine
 62
7
  6
CONTINUOUS
 10
186.6589919008
 20
394.7030888599
 11
186.6646202244
 21
394.6757165284
  0
LINE
  5
3F0
100
AcDbEntity
  8
0
100
AcDbLine
 62
7
  6
CONTINUOUS
 10
186.6535135468
 20
394.7305566229
 11
186.6589919008
 21
394.7030888599
  0
LINE
  5
3F1
100
AcDbEntity
  8
0
100
AcDbLine
 62
7
  6
CONTINUOUS
 10
186.6481836509
 20
394.7581158379
 11
186.6535135468
 21
394.7305566229
  0
LINE
  5
3F2
100
AcDbEntity
  8
0
100
AcDbLine
 62
7
  6
CONTINUOUS
 10
186.6430006716
 20
394.7857624638
 11
186.6481836509
 21
394.7581158379
  0
LINE
  5
3F3
100
AcDbEntity
  8
0
100
AcDbLine
 62
7
  6
CONTINUOUS
 10
186.6379630376
 20
394.8134923888
 11
186.6430006716
 21
394.7857624638
  0
LINE
  5
3F4
100
AcDbEntity
  8
0
100
AcDbLine
 62
7
  6
CONTINUOUS
 10
186.6330691449
 20
394.8413014466
 11
186.6379630376
 21
394.8134923888
  0
LINE
  5
3F5
100
AcDbEntity
  8
0
100
AcDbLine
 62
7
  6
CONTINUOUS
 10
186.6283173582
 20
394.8691854054
 11
186.6330691449
 21
394.8413014466
  0
LINE
  5
3F6
100
AcDbEntity
  8
0
100
AcDbLine
 62
7
  6
CONTINUOUS
 10
186.6237060118
 20
394.8971399602
 11
186.6283173582
 21
394.8691854054
  0
LINE
  5
3F7
100
AcDbEntity
  8
0
100
AcDbLine
 62
7
  6
CONTINUOUS
 10
186.6192334066
 20
394.9251607466
 11
186.6237060118
 21
394.8971399602
  0
LINE
  5
3F8
100
AcDbEntity
  8
0
100
AcDbLine
 62
7
  6
CONTINUOUS
 10
186.6148978113
 20
394.9532433307
 11
186.6192334066
 21
394.9251607466
  0
LINE
  5
3F9
100
AcDbEntity
  8
0
100
AcDbLine
 62
7
  6
CONTINUOUS
 10
186.610697463
 20
394.9813832045
 11
186.6148978113
 21
394.9532433307
  0
LINE
  5
3FA
100
AcDbEntity
  8
0
100
AcDbLine
 62
7
  6
CONTINUOUS
 10
186.6066305645
 20
395.0095757957
 11
186.610697463
 21
394.9813832045
  0
LINE
  5
3FB
100
AcDbEntity
  8
0
100
AcDbLine
 62
7
  6
CONTINUOUS
 10
186.602695286
 20
395.0378164595
 11
186.6066305645
 21
395.0095757957
  0
LINE
  5
3FC
100
AcDbEntity
  8
0
100
AcDbLine
 62
7
  6
CONTINUOUS
 10
186.5988897854
 20
395.0661013594
 11
186.602695286
 21
395.0378164595
  0
LINE
  5
3FD
100
AcDbEntity
  8
0
100
AcDbLine
 62
7
  6
CONTINUOUS
 10
186.5952122493
 20
395.0944291733
 11
186.5988897854
 21
395.0661013594
  0
LINE
  5
3FE
100
AcDbEntity
  8
0
100
AcDbLine
 62
7
  6
CONTINUOUS
 10
186.5916608426
 20
395.1227990193
 11
186.5952122493
 21
395.0944291733
  0
LINE
  5
3FF
100
AcDbEntity
  8
0
100
AcDbLine
 62
7
  6
CONTINUOUS
 10
186.5882336963
 20
395.1512099986
 11
186.5916608426
 21
395.1227990193
  0
LWPOLYLINE
  5
400
100
AcDbEntity
  8
0
100
AcDbPolyline
 62
7
  6
CONTINUOUS
 90
3
 70
0
 10
186.5817445366
 20
395.2081516788
 10
186.5833217919
 20
395.1939015852
 10
186.5882336963
 20
395.1512099986
  0
LINE
  5
401
100
AcDbEntity
  8
0
100
AcDbLine
 62
7
  6
CONTINUOUS
 10
188.331345001
 20
401.2092040202
 11
188.3193677951
 21
401.2053218517
  0
LINE
  5
402
100
AcDbEntity
  8
0
100
AcDbLine
 62
7
  6
CONTINUOUS
 10
188.3433090152
 20
401.2129978405
 11
188.331345001
 21
401.2092040202
  0
LINE
  5
403
100
AcDbEntity
  8
0
100
AcDbLine
 62
7
  6
CONTINUOUS
 10
188.355258082
 20
401.2167037178
 11
188.3433090152
 21
401.2129978405
  0
LINE
  5
404
100
AcDbEntity
  8
0
100
AcDbLine
 62
7
  6
CONTINUOUS
 10
188.3671907599
 20
401.2203221941
 11
188.355258082
 21
401.2167037178
  0
LINE
  5
405
100
AcDbEntity
  8
0
100
AcDbLine
 62
7
  6
CONTINUOUS
 10
188.3791061111
 20
401.2238539929
 11
188.3671907599
 21
401.2203221941
  0
LWPOLYLINE
  5
406
100
AcDbEntity
  8
0
100
AcDbPolyline
 62
7
  6
CONTINUOUS
 90
3
 70
0
 10
188.3969441989
 20
401.2289906925
 10
188.3910029488
 20
401.2272997876
 10
188.3791061111
 20
401.2238539929
  0
LINE
  5
407
100
AcDbEntity
  8
_SURFINI
100
AcDbLine
 62
7
  6
CONTINUOUS
 10
188.2793237516
 20
334.5822613788
 11
188.317657757
 21
334.5881194062
  0
LINE
  5
408
100
AcDbEntity
  8
0
100
AcDbLine
 62
7
  6
CONTINUOUS
 10
173.7794920753
 20
332.3798049715
 11
176.2823997651
 21
332.7598700125
  0
LINE
  5
409
100
AcDbEntity
  8
0
100
AcDbLine
 62
7
  6
CONTINUOUS
 10
188.3035706496
 20
334.5852776466
 11
197.3923412639
 21
335.9654020474
  0
LWPOLYLINE
  5
40A
100
AcDbEntity
  8
0
100
AcDbPolyline
 62
7
  6
CONTINUOUS
 90
23
 70
0
 10
197.3926741724
 20
335.9654585256
 10
200.2292117381
 20
336.3930676438
 10
203.1934137529
 20
336.8193260573
 10
206.0643058643
 20
337.1912846768
 10
208.8299985184
 20
337.491854564
 10
211.5027614195
 20
337.7103300916
 10
214.1211412489
 20
337.8383982695
 10
216.6683720606
 20
337.8656618098
 10
219.1550688468
 20
337.8056547074
 10
221.6706543776
 20
337.6919369866
 10
224.2579050751
 20
337.5536476129
 10
226.890243775
 20
337.4235321613
 10
229.5611259385
 20
337.3332106333
 10
232.3083430218
 20
337.313406098
 10
235.0949979795
 20
337.3965468495
 10
237.7926970715
 20
337.5950464339
 10
240.362232354
 20
337.8806565462
 10
242.840872747
 20
338.2226994387
 10
245.2166069878
 20
338.5893102047
 10
247.4659595972
 20
338.9491503284
 10
249.6216383767
 20
339.2894503689
 10
251.752739696
 20
339.6206224817
 10
253.8805889156
 20
339.9474697034
  0
LINE
  5
40B
100
AcDbEntity
  8
0
100
AcDbLine
 62
7
  6
CONTINUOUS
 10
176.2567035272
 20
332.7590629177
 11
176.2825228268
 21
332.7628865916
  0
LINE
  5
40C
100
AcDbEntity
  8
0
100
AcDbLine
 62
7
  6
CONTINUOUS
 10
187.0321961223
 20
393.6105798184
 11
187.0434001447
 21
393.5881903737
  0
LINE
  5
40D
100
AcDbEntity
  8
0
100
AcDbLine
 62
7
  6
CONTINUOUS
 10
187.0210910948
 20
393.6331052244
 11
187.0321961223
 21
393.6105798184
  0
LINE
  5
40E
100
AcDbEntity
  8
0
100
AcDbLine
 62
7
  6
CONTINUOUS
 10
187.0100861349
 20
393.6557663501
 11
187.0210910948
 21
393.6331052244
  0
LINE
  5
40F
100
AcDbEntity
  8
0
100
AcDbLine
 62
7
  6
CONTINUOUS
 10
186.9991823227
 20
393.6785629477
 11
187.0100861349
 21
393.6557663501
  0
LINE
  5
410
100
AcDbEntity
  8
0
100
AcDbLine
 62
7
  6
CONTINUOUS
 10
186.988380746
 20
393.7014947632
 11
186.9991823227
 21
393.6785629477
  0
LINE
  5
411
100
AcDbEntity
  8
0
100
AcDbLine
 62
7
  6
CONTINUOUS
 10
186.9776824998
 20
393.7245615366
 11
186.988380746
 21
393.7014947632
  0
LINE
  5
412
100
AcDbEntity
  8
0
100
AcDbLine
 62
7
  6
CONTINUOUS
 10
186.9670886746
 20
393.7477630281
 11
186.9776824998
 21
393.7245615366
  0
LINE
  5
413
100
AcDbEntity
  8
0
100
AcDbLine
 62
7
  6
CONTINUOUS
 10
186.9566003748
 20
393.7710989782
 11
186.9670886746
 21
393.7477630281
  0
LINE
  5
414
100
AcDbEntity
  8
0
100
AcDbLine
 62
7
  6
CONTINUOUS
 10
186.9462187081
 20
393.7945691314
 11
186.9566003748
 21
393.7710989782
  0
LINE
  5
415
100
AcDbEntity
  8
0
100
AcDbLine
 62
7
  6
CONTINUOUS
 10
186.9359448254
 20
393.8181731266
 11
186.9462187081
 21
393.7945691314
  0
LINE
  5
416
100
AcDbEntity
  8
0
100
AcDbLine
 62
7
  6
CONTINUOUS
 10
186.9257800789
 20
393.8419099231
 11
186.9359448254
 21
393.8181731266
  0
LINE
  5
417
100
AcDbEntity
  8
0
100
AcDbLine
 62
7
  6
CONTINUOUS
 10
186.915725975
 20
393.8657779712
 11
186.9257800789
 21
393.8419099231
  0
LINE
  5
418
100
AcDbEntity
  8
0
100
AcDbLine
 62
7
  6
CONTINUOUS
 10
186.9057840248
 20
393.889775715
 11
186.915725975
 21
393.8657779712
  0
LINE
  5
419
100
AcDbEntity
  8
0
100
AcDbLine
 62
7
  6
CONTINUOUS
 10
186.8959557497
 20
393.9139015834
 11
186.9057840248
 21
393.889775715
  0
LINE
  5
41A
100
AcDbEntity
  8
0
100
AcDbLine
 62
7
  6
CONTINUOUS
 10
186.8862426805
 20
393.9381539921
 11
186.8959557497
 21
393.9139015834
  0
LINE
  5
41B
100
AcDbEntity
  8
0
100
AcDbLine
 62
7
  6
CONTINUOUS
 10
186.8766463576
 20
393.9625313426
 11
186.8862426805
 21
393.9381539921
  0
LINE
  5
41C
100
AcDbEntity
  8
0
100
AcDbLine
 62
7
  6
CONTINUOUS
 10
186.8671683304
 20
393.9870320248
 11
186.8766463576
 21
393.9625313426
  0
LINE
  5
41D
100
AcDbEntity
  8
0
100
AcDbLine
 62
7
  6
CONTINUOUS
 10
186.8578101577
 20
394.0116544142
 11
186.8671683304
 21
393.9870320248
  0
LINE
  5
41E
100
AcDbEntity
  8
0
100
AcDbLine
 62
7
  6
CONTINUOUS
 10
186.8485734085
 20
394.036396872
 11
186.8578101577
 21
394.0116544142
  0
LINE
  5
41F
100
AcDbEntity
  8
0
100
AcDbLine
 62
7
  6
CONTINUOUS
 10
186.8394596603
 20
394.0612577482
 11
186.8485734085
 21
394.036396872
  0
LINE
  5
420
100
AcDbEntity
  8
0
100
AcDbLine
 62
7
  6
CONTINUOUS
 10
186.8304705006
 20
394.0862353774
 11
186.8394596603
 21
394.0612577482
  0
LINE
  5
421
100
AcDbEntity
  8
0
100
AcDbLine
 62
7
  6
CONTINUOUS
 10
186.821607527
 20
394.1113280795
 11
186.8304705006
 21
394.0862353774
  0
LINE
  5
422
100
AcDbEntity
  8
0
100
AcDbLine
 62
7
  6
CONTINUOUS
 10
186.8128723457
 20
394.1365341638
 11
186.821607527
 21
394.1113280795
  0
LINE
  5
423
100
AcDbEntity
  8
0
100
AcDbLine
 62
7
  6
CONTINUOUS
 10
186.8042665732
 20
394.161851923
 11
186.8128723457
 21
394.1365341638
  0
LINE
  5
424
100
AcDbEntity
  8
0
100
AcDbLine
 62
7
  6
CONTINUOUS
 10
186.7957918362
 20
394.187279635
 11
186.8042665732
 21
394.161851923
  0
LINE
  5
425
100
AcDbEntity
  8
0
100
AcDbLine
 62
7
  6
CONTINUOUS
 10
186.7874497697
 20
394.2128155672
 11
186.7957918362
 21
394.187279635
  0
LWPOLYLINE
  5
426
100
AcDbEntity
  8
0
100
AcDbPolyline
 62
7
  6
CONTINUOUS
 90
3
 70
0
 10
186.7751890311
 20
394.2513185457
 10
186.77924202
 20
394.2384579696
 10
186.7874497697
 20
394.2128155672
  0
LWPOLYLINE
  5
427
100
AcDbEntity
  8
0
100
AcDbPolyline
 62
7
  6
CONTINUOUS
 90
10
 70
0
 10
219.9654831105
 20
406.0469458013
 10
219.9783684714
 20
406.0630283461
 10
219.993274069
 20
406.0796614917
 10
219.9959899614
 20
406.0823877722
 10
219.9843358387
 20
406.0735060922
 10
219.9601142513
 20
406.0583664923
 10
219.930176731
 20
406.0435695691
 10
219.9003601079
 20
406.032289094
 10
219.8752709201
 20
406.0254649861
 10
219.8689660639
 20
406.0242415044
  0
LINE
  5
428
100
AcDbEntity
  8
0
100
AcDbLine
 62
2
  6
CONTINUOUS
 10
294.6851028329
 20
354.3882631856
 11
294.6028022615
 21
354.3757658929
  0
LINE
  5
429
100
AcDbEntity
  8
0
100
AcDbLine
 62
7
  6
CONTINUOUS
 10
187.3260512409
 20
393.1112442075
 11
187.3393273325
 21
393.0921781703
  0
LINE
  5
42A
100
AcDbEntity
  8
0
100
AcDbLine
 62
7
  6
CONTINUOUS
 10
187.3128504187
 20
393.1304507286
 11
187.3260512409
 21
393.1112442075
  0
LINE
  5
42B
100
AcDbEntity
  8
0
100
AcDbLine
 62
7
  6
CONTINUOUS
 10
187.2997258515
 20
393.1497974576
 11
187.3128504187
 21
393.1304507286
  0
LINE
  5
42C
100
AcDbEntity
  8
0
100
AcDbLine
 62
7
  6
CONTINUOUS
 10
187.2866784491
 20
393.1692842609
 11
187.2997258515
 21
393.1497974576
  0
LINE
  5
42D
100
AcDbEntity
  8
0
100
AcDbLine
 62
7
  6
CONTINUOUS
 10
187.2737091327
 20
393.188910995
 11
187.2866784491
 21
393.1692842609
  0
LINE
  5
42E
100
AcDbEntity
  8
0
100
AcDbLine
 62
7
  6
CONTINUOUS
 10
187.2608188238
 20
393.2086775224
 11
187.2737091327
 21
393.188910995
  0
LINE
  5
42F
100
AcDbEntity
  8
0
100
AcDbLine
 62
7
  6
CONTINUOUS
 10
187.2480084516
 20
393.2285837005
 11
187.2608188238
 21
393.2086775224
  0
LINE
  5
430
100
AcDbEntity
  8
0
100
AcDbLine
 62
7
  6
CONTINUOUS
 10
187.2352789592
 20
393.2486293717
 11
187.2480084516
 21
393.2285837005
  0
LINE
  5
431
100
AcDbEntity
  8
0
100
AcDbLine
 62
7
  6
CONTINUOUS
 10
187.2226312898
 20
393.2688143847
 11
187.2352789592
 21
393.2486293717
  0
LINE
  5
432
100
AcDbEntity
  8
0
100
AcDbLine
 62
7
  6
CONTINUOUS
 10
187.2100663949
 20
393.2891385823
 11
187.2226312898
 21
393.2688143847
  0
LINE
  5
433
100
AcDbEntity
  8
0
100
AcDbLine
 62
7
  6
CONTINUOUS
 10
187.1975852384
 20
393.3096017936
 11
187.2100663949
 21
393.2891385823
  0
LINE
  5
434
100
AcDbEntity
  8
0
100
AcDbLine
 62
7
  6
CONTINUOUS
 10
187.1851887855
 20
393.3302038526
 11
187.1975852384
 21
393.3096017936
  0
LINE
  5
435
100
AcDbEntity
  8
0
100
AcDbLine
 62
7
  6
CONTINUOUS
 10
187.1728780096
 20
393.3509445875
 11
187.1851887855
 21
393.3302038526
  0
LINE
  5
436
100
AcDbEntity
  8
0
100
AcDbLine
 62
7
  6
CONTINUOUS
 10
187.1606538957
 20
393.3718238137
 11
187.1728780096
 21
393.3509445875
  0
LINE
  5
437
100
AcDbEntity
  8
0
100
AcDbLine
 62
7
  6
CONTINUOUS
 10
187.1485174307
 20
393.3928413504
 11
187.1606538957
 21
393.3718238137
  0
LINE
  5
438
100
AcDbEntity
  8
0
100
AcDbLine
 62
7
  6
CONTINUOUS
 10
187.1364696097
 20
393.4139970107
 11
187.1485174307
 21
393.3928413504
  0
LINE
  5
439
100
AcDbEntity
  8
0
100
AcDbLine
 62
7
  6
CONTINUOUS
 10
187.1245114384
 20
393.4352905964
 11
187.1364696097
 21
393.4139970107
  0
LINE
  5
43A
100
AcDbEntity
  8
0
100
AcDbLine
 62
7
  6
CONTINUOUS
 10
187.1126439256
 20
393.4567219115
 11
187.1245114384
 21
393.4352905964
  0
LINE
  5
43B
100
AcDbEntity
  8
0
100
AcDbLine
 62
7
  6
CONTINUOUS
 10
187.1008680879
 20
393.478290754
 11
187.1126439256
 21
393.4567219115
  0
LINE
  5
43C
100
AcDbEntity
  8
0
100
AcDbLine
 62
7
  6
CONTINUOUS
 10
187.0891849517
 20
393.4999969116
 11
187.1008680879
 21
393.478290754
  0
LINE
  5
43D
100
AcDbEntity
  8
0
100
AcDbLine
 62
7
  6
CONTINUOUS
 10
187.0775955473
 20
393.5218401732
 11
187.0891849517
 21
393.4999969116
  0
LINE
  5
43E
100
AcDbEntity
  8
0
100
AcDbLine
 62
7
  6
CONTINUOUS
 10
187.0661009125
 20
393.5438203217
 11
187.0775955473
 21
393.5218401732
  0
LINE
  5
43F
100
AcDbEntity
  8
0
100
AcDbLine
 62
7
  6
CONTINUOUS
 10
187.0547020944
 20
393.5659371306
 11
187.0661009125
 21
393.5438203217
  0
LINE
  5
440
100
AcDbEntity
  8
0
100
AcDbLine
 62
7
  6
CONTINUOUS
 10
187.0434001447
 20
393.5881903737
 11
187.0547020944
 21
393.5659371306
  0
LINE
  5
441
100
AcDbEntity
  8
0
100
AcDbLine
 62
7
  6
CONTINUOUS
 10
187.6263479811
 20
392.7329861437
 11
187.6409935578
 21
392.7170408177
  0
LINE
  5
442
100
AcDbEntity
  8
0
100
AcDbLine
 62
7
  6
CONTINUOUS
 10
187.611756162
 20
392.7490804851
 11
187.6263479811
 21
392.7329861437
  0
LINE
  5
443
100
AcDbEntity
  8
0
100
AcDbLine
 62
7
  6
CONTINUOUS
 10
187.5972190115
 20
392.7653235026
 11
187.611756162
 21
392.7490804851
  0
LINE
  5
444
100
AcDbEntity
  8
0
100
AcDbLine
 62
7
  6
CONTINUOUS
 10
187.5827374642
 20
392.7817148353
 11
187.5972190115
 21
392.7653235026
  0
LINE
  5
445
100
AcDbEntity
  8
0
100
AcDbLine
 62
7
  6
CONTINUOUS
 10
187.5683124473
 20
392.7982541347
 11
187.5827374642
 21
392.7817148353
  0
LINE
  5
446
100
AcDbEntity
  8
0
100
AcDbLine
 62
7
  6
CONTINUOUS
 10
187.5539448972
 20
392.8149410471
 11
187.5683124473
 21
392.7982541347
  0
LINE
  5
447
100
AcDbEntity
  8
0
100
AcDbLine
 62
7
  6
CONTINUOUS
 10
187.5396357724
 20
392.8317751977
 11
187.5539448972
 21
392.8149410471
  0
LINE
  5
448
100
AcDbEntity
  8
0
100
AcDbLine
 62
7
  6
CONTINUOUS
 10
187.5253860251
 20
392.8487562233
 11
187.5396357724
 21
392.8317751977
  0
LINE
  5
449
100
AcDbEntity
  8
0
100
AcDbLine
 62
7
  6
CONTINUOUS
 10
187.511196617
 20
392.865883755
 11
187.5253860251
 21
392.8487562233
  0
LINE
  5
44A
100
AcDbEntity
  8
0
100
AcDbLine
 62
7
  6
CONTINUOUS
 10
187.4970685303
 20
392.8831574036
 11
187.511196617
 21
392.865883755
  0
LINE
  5
44B
100
AcDbEntity
  8
0
100
AcDbLine
 62
7
  6
CONTINUOUS
 10
187.4830027426
 20
392.9005767903
 11
187.4970685303
 21
392.8831574036
  0
LINE
  5
44C
100
AcDbEntity
  8
0
100
AcDbLine
 62
7
  6
CONTINUOUS
 10
187.4690002405
 20
392.9181415307
 11
187.4830027426
 21
392.9005767903
  0
LINE
  5
44D
100
AcDbEntity
  8
0
100
AcDbLine
 62
7
  6
CONTINUOUS
 10
187.4550620305
 20
392.9358512205
 11
187.4690002405
 21
392.9181415307
  0
LINE
  5
44E
100
AcDbEntity
  8
0
100
AcDbLine
 62
7
  6
CONTINUOUS
 10
187.4411891151
 20
392.9537054648
 11
187.4550620305
 21
392.9358512205
  0
LINE
  5
44F
100
AcDbEntity
  8
0
100
AcDbLine
 62
7
  6
CONTINUOUS
 10
187.427382506
 20
392.9717038631
 11
187.4411891151
 21
392.9537054648
  0
LINE
  5
450
100
AcDbEntity
  8
0
100
AcDbLine
 62
7
  6
CONTINUOUS
 10
187.4136432339
 20
392.9898459951
 11
187.427382506
 21
392.9717038631
  0
LINE
  5
451
100
AcDbEntity
  8
0
100
AcDbLine
 62
7
  6
CONTINUOUS
 10
187.3999723266
 20
393.0081314495
 11
187.4136432339
 21
392.9898459951
  0
LINE
  5
452
100
AcDbEntity
  8
0
100
AcDbLine
 62
7
  6
CONTINUOUS
 10
187.3863708208
 20
393.0265598089
 11
187.3999723266
 21
393.0081314495
  0
LINE
  5
453
100
AcDbEntity
  8
0
100
AcDbLine
 62
7
  6
CONTINUOUS
 10
187.3728397714
 20
393.0451306367
 11
187.3863708208
 21
393.0265598089
  0
LINE
  5
454
100
AcDbEntity
  8
0
100
AcDbLine
 62
7
  6
CONTINUOUS
 10
187.3593802316
 20
393.0638435043
 11
187.3728397714
 21
393.0451306367
  0
LWPOLYLINE
  5
455
100
AcDbEntity
  8
0
100
AcDbPolyline
 62
7
  6
CONTINUOUS
 90
3
 70
0
 10
187.3393273325
 20
393.0921781703
 10
187.3459932632
 20
393.0826979769
 10
187.3593802316
 20
393.0638435043
  0
LINE
  5
456
100
AcDbEntity
  8
0
100
AcDbLine
 62
7
  6
CONTINUOUS
 10
187.9050673988
 20
392.4624508693
 11
187.9205500949
 21
392.4493130811
  0
LINE
  5
457
100
AcDbEntity
  8
0
100
AcDbLine
 62
7
  6
CONTINUOUS
 10
187.8896226424
 20
392.475741246
 11
187.9050673988
 21
392.4624508693
  0
LINE
  5
458
100
AcDbEntity
  8
0
100
AcDbLine
 62
7
  6
CONTINUOUS
 10
187.8742165999
 20
392.4891843296
 11
187.8896226424
 21
392.475741246
  0
LINE
  5
459
100
AcDbEntity
  8
0
100
AcDbLine
 62
7
  6
CONTINUOUS
 10
187.8588500311
 20
392.5027802559
 11
187.8742165999
 21
392.4891843296
  0
LINE
  5
45A
100
AcDbEntity
  8
0
100
AcDbLine
 62
7
  6
CONTINUOUS
 10
187.8435237025
 20
392.5165291614
 11
187.8588500311
 21
392.5027802559
  0
LINE
  5
45B
100
AcDbEntity
  8
0
100
AcDbLine
 62
7
  6
CONTINUOUS
 10
187.8282384172
 20
392.530431155
 11
187.8435237025
 21
392.5165291614
  0
LINE
  5
45C
100
AcDbEntity
  8
0
100
AcDbLine
 62
7
  6
CONTINUOUS
 10
187.8129949399
 20
392.5444863864
 11
187.8282384172
 21
392.530431155
  0
LINE
  5
45D
100
AcDbEntity
  8
0
100
AcDbLine
 62
7
  6
CONTINUOUS
 10
187.7977943342
 20
392.5586946508
 11
187.8129949399
 21
392.5444863864
  0
LINE
  5
45E
100
AcDbEntity
  8
0
100
AcDbLine
 62
7
  6
CONTINUOUS
 10
187.7826375169
 20
392.5730556139
 11
187.7977943342
 21
392.5586946508
  0
LINE
  5
45F
100
AcDbEntity
  8
0
100
AcDbLine
 62
7
  6
CONTINUOUS
 10
187.7675253505
 20
392.5875689395
 11
187.7826375169
 21
392.5730556139
  0
LINE
  5
460
100
AcDbEntity
  8
0
100
AcDbLine
 62
7
  6
CONTINUOUS
 10
187.7524586453
 20
392.602234345
 11
187.7675253505
 21
392.5875689395
  0
LINE
  5
461
100
AcDbEntity
  8
0
100
AcDbLine
 62
7
  6
CONTINUOUS
 10
187.737438252
 20
392.6170515131
 11
187.7524586453
 21
392.602234345
  0
LINE
  5
462
100
AcDbEntity
  8
0
100
AcDbLine
 62
7
  6
CONTINUOUS
 10
187.7224650092
 20
392.6320201423
 11
187.737438252
 21
392.6170515131
  0
LINE
  5
463
100
AcDbEntity
  8
0
100
AcDbLine
 62
7
  6
CONTINUOUS
 10
187.707539765
 20
392.6471399263
 11
187.7224650092
 21
392.6320201423
  0
LINE
  5
464
100
AcDbEntity
  8
0
100
AcDbLine
 62
7
  6
CONTINUOUS
 10
187.692663394
 20
392.6624105363
 11
187.707539765
 21
392.6471399263
  0
LINE
  5
465
100
AcDbEntity
  8
0
100
AcDbLine
 62
7
  6
CONTINUOUS
 10
187.6778367603
 20
392.6778316582
 11
187.692663394
 21
392.6624105363
  0
LINE
  5
466
100
AcDbEntity
  8
0
100
AcDbLine
 62
7
  6
CONTINUOUS
 10
187.6630607375
 20
392.6934029728
 11
187.6778367603
 21
392.6778316582
  0
LWPOLYLINE
  5
467
100
AcDbEntity
  8
0
100
AcDbPolyline
 62
7
  6
CONTINUOUS
 90
3
 70
0
 10
187.6409935578
 20
392.7170408177
 10
187.648336224
 20
392.709124139
 10
187.6630607375
 20
392.6934029728
  0
LINE
  5
468
100
AcDbEntity
  8
0
100
AcDbLine
 62
7
  6
CONTINUOUS
 10
217.4723978215
 20
418.6662071228
 11
217.4724689655
 21
418.6720468806
  0
LINE
  5
469
100
AcDbEntity
  8
0
100
AcDbLine
 62
7
  6
CONTINUOUS
 10
217.4724890537
 20
418.6731032003
 11
217.2118837182
 21
405.6207867221
  0
LINE
  5
46A
100
AcDbEntity
  8
0
100
AcDbLine
 62
7
  6
CONTINUOUS
 10
217.0207767381
 20
396.0492682358
 11
216.8936462854
 21
389.6819891469
  0
LINE
  5
46B
100
AcDbEntity
  8
0
100
AcDbLine
 62
7
  6
CONTINUOUS
 10
216.8524121054
 20
387.6125766503
 11
216.7396786312
 21
381.9689810438
  0
LWPOLYLINE
  5
46C
100
AcDbEntity
  8
0
100
AcDbPolyline
 62
7
  6
CONTINUOUS
 90
57
 70
0
 10
216.7396786312
 20
381.9689810438
 10
216.7150085231
 20
380.8550463329
 10
216.7015366648
 20
380.3355558567
 10
216.6870702528
 20
379.8392822574
 10
216.6712158528
 20
379.3554497706
 10
216.6538868185
 20
378.8842089611
 10
216.635054324
 20
378.4266173183
 10
216.6142066698
 20
377.9733822401
 10
216.5910432176
 20
377.5232005363
 10
216.5654020826
 20
377.0786428071
 10
216.5367161352
 20
376.6366650954
 10
216.5043555526
 20
376.1962962303
 10
216.4678041867
 20
375.7604202225
 10
216.4265061977
 20
375.3325925738
 10
216.3793483159
 20
374.9122762308
 10
216.3254621905
 20
374.5031032717
 10
216.2652257123
 20
374.1151901729
 10
216.1985269465
 20
373.7499985596
 10
216.1256266635
 20
373.4081366805
 10
216.0489847982
 20
373.096772172
 10
215.9720109947
 20
372.8224976227
 10
215.8946735065
 20
372.5779719843
 10
215.8135700363
 20
372.3491312758
 10
215.7296363058
 20
372.136753933
 10
215.6437644077
 20
371.939755578
 10
215.5496881647
 20
371.7424117148
 10
215.4445005547
 20
371.5399727305
 10
215.3306444653
 20
371.3382983165
 10
215.208513658
 20
371.1384572732
 10
215.0774697167
 20
370.9398728237
 10
214.9385053655
 20
370.7445651366
 10
214.7949979509
 20
370.5572843483
 10
214.6478143133
 20
370.3788108314
 10
214.4974387184
 20
370.2095529184
 10
214.3474748682
 20
370.053241614
 10
214.1999295548
 20
369.911235868
 10
214.0548506735
 20
369.7824346639
 10
213.9131471976
 20
369.666317746
 10
213.7750643125
 20
369.5618649829
 10
213.6415298538
 20
369.4686407241
 10
213.5143187316
 20
369.3867072267
 10
213.3948962564
 20
369.3157635945
 10
213.2824035765
 20
369.2541404657
 10
213.1749920591
 20
369.1999435906
 10
213.073098439
 20
369.1526560873
 10
212.9763829974
 20
369.1114103326
 10
212.8816412229
 20
369.0743414648
 10
212.7889599913
 20
369.041138636
 10
212.6978867254
 20
369.0112925734
 10
212.6042368564
 20
368.9832791624
 10
212.5081772418
 20
368.9571123686
 10
212.4090177558
 20
368.9325127628
 10
212.3008387867
 20
368.9080622818
 10
212.1831543206
 20
368.8837825719
 10
212.0549721677
 20
368.8594863235
 10
211.9087892527
 20
368.8337865918
 10
211.7411194391
 20
368.8060674123
  0
LINE
  5
46D
100
AcDbEntity
  8
0
100
AcDbLine
 62
2
  6
CONTINUOUS
 10
291.8777013883
 20
372.8763268249
 11
291.7962048037
 21
372.8639516171
  0
LINE
  5
46E
100
AcDbEntity
  8
0
100
AcDbLine
 62
7
  6
CONTINUOUS
 10
188.1807849535
 20
392.2544921616
 11
188.1967958289
 21
392.2440156723
  0
LINE
  5
46F
100
AcDbEntity
  8
0
100
AcDbLine
 62
7
  6
CONTINUOUS
 10
188.1647962192
 20
392.2651209369
 11
188.1807849535
 21
392.2544921616
  0
LINE
  5
470
100
AcDbEntity
  8
0
100
AcDbLine
 62
7
  6
CONTINUOUS
 10
188.1488306659
 20
392.2759019676
 11
188.1647962192
 21
392.2651209369
  0
LINE
  5
471
100
AcDbEntity
  8
0
100
AcDbLine
 62
7
  6
CONTINUOUS
 10
188.1328892365
 20
392.2868352796
 11
188.1488306659
 21
392.2759019676
  0
LINE
  5
472
100
AcDbEntity
  8
0
100
AcDbLine
 62
7
  6
CONTINUOUS
 10
188.1169729783
 20
392.2979208189
 11
188.1328892365
 21
392.2868352796
  0
LINE
  5
473
100
AcDbEntity
  8
0
100
AcDbLine
 62
7
  6
CONTINUOUS
 10
188.1010829433
 20
392.3091585181
 11
188.1169729783
 21
392.2979208189
  0
LINE
  5
474
100
AcDbEntity
  8
0
100
AcDbLine
 62
7
  6
CONTINUOUS
 10
188.0852200854
 20
392.3205483694
 11
188.1010829433
 21
392.3091585181
  0
LINE
  5
475
100
AcDbEntity
  8
0
100
AcDbLine
 62
7
  6
CONTINUOUS
 10
188.0693854633
 20
392.332090282
 11
188.0852200854
 21
392.3205483694
  0
LINE
  5
476
100
AcDbEntity
  8
0
100
AcDbLine
 62
7
  6
CONTINUOUS
 10
188.0535801397
 20
392.343784151
 11
188.0693854633
 21
392.332090282
  0
LINE
  5
477
100
AcDbEntity
  8
0
100
AcDbLine
 62
7
  6
CONTINUOUS
 10
188.0378050789
 20
392.3556299349
 11
188.0535801397
 21
392.343784151
  0
LINE
  5
478
100
AcDbEntity
  8
0
100
AcDbLine
 62
7
  6
CONTINUOUS
 10
188.0220613676
 20
392.3676274919
 11
188.0378050789
 21
392.3556299349
  0
LINE
  5
479
100
AcDbEntity
  8
0
100
AcDbLine
 62
7
  6
CONTINUOUS
 10
188.0063500093
 20
392.3797767327
 11
188.0220613676
 21
392.3676274919
  0
LINE
  5
47A
100
AcDbEntity
  8
0
100
AcDbLine
 62
7
  6
CONTINUOUS
 10
187.990671839
 20
392.392077693
 11
188.0063500093
 21
392.3797767327
  0
LINE
  5
47B
100
AcDbEntity
  8
0
100
AcDbLine
 62
7
  6
CONTINUOUS
 10
187.9750275815
 20
392.4045304969
 11
187.990671839
 21
392.392077693
  0
LINE
  5
47C
100
AcDbEntity
  8
0
100
AcDbLine
 62
7
  6
CONTINUOUS
 10
187.9594179378
 20
392.4171352923
 11
187.9750275815
 21
392.4045304969
  0
LINE
  5
47D
100
AcDbEntity
  8
0
100
AcDbLine
 62
7
  6
CONTINUOUS
 10
187.9438436493
 20
392.4298922005
 11
187.9594179378
 21
392.4171352923
  0
LWPOLYLINE
  5
47E
100
AcDbEntity
  8
0
100
AcDbPolyline
 62
7
  6
CONTINUOUS
 90
3
 70
0
 10
187.9205500949
 20
392.4493130811
 10
187.9283054411
 20
392.4428013615
 10
187.9438436493
 20
392.4298922005
  0
LINE
  5
47F
100
AcDbEntity
  8
0
100
AcDbLine
 62
7
  6
CONTINUOUS
 10
222.0227496556
 20
385.3931811672
 11
221.9513873199
 21
381.5821834233
  0
LINE
  5
480
100
AcDbEntity
  8
0
100
AcDbLine
 62
7
  6
CONTINUOUS
 10
188.4389444397
 20
392.1051122155
 11
188.4551759373
 21
392.0970639339
  0
LINE
  5
481
100
AcDbEntity
  8
0
100
AcDbLine
 62
7
  6
CONTINUOUS
 10
188.4227194208
 20
392.1133113749
 11
188.4389444397
 21
392.1051122155
  0
LINE
  5
482
100
AcDbEntity
  8
0
100
AcDbLine
 62
7
  6
CONTINUOUS
 10
188.406501876
 20
392.1216615692
 11
188.4227194208
 21
392.1133113749
  0
LINE
  5
483
100
AcDbEntity
  8
0
100
AcDbLine
 62
7
  6
CONTINUOUS
 10
188.3902928147
 20
392.1301629389
 11
188.406501876
 21
392.1216615692
  0
LINE
  5
484
100
AcDbEntity
  8
0
100
AcDbLine
 62
7
  6
CONTINUOUS
 10
188.3740931496
 20
392.1388156653
 11
188.3902928147
 21
392.1301629389
  0
LINE
  5
485
100
AcDbEntity
  8
0
100
AcDbLine
 62
7
  6
CONTINUOUS
 10
188.3579038965
 20
392.1476198583
 11
188.3740931496
 21
392.1388156653
  0
LINE
  5
486
100
AcDbEntity
  8
0
100
AcDbLine
 62
7
  6
CONTINUOUS
 10
188.3417260383
 20
392.1565756319
 11
188.3579038965
 21
392.1476198583
  0
LINE
  5
487
100
AcDbEntity
  8
0
100
AcDbLine
 62
7
  6
CONTINUOUS
 10
188.3255604657
 20
392.1656831423
 11
188.3417260383
 21
392.1565756319
  0
LINE
  5
488
100
AcDbEntity
  8
0
100
AcDbLine
 62
7
  6
CONTINUOUS
 10
188.3094081733
 20
392.1749424805
 11
188.3255604657
 21
392.1656831423
  0
LINE
  5
489
100
AcDbEntity
  8
0
100
AcDbLine
 62
7
  6
CONTINUOUS
 10
188.2932701607
 20
392.1843537238
 11
188.3094081733
 21
392.1749424805
  0
LINE
  5
48A
100
AcDbEntity
  8
0
100
AcDbLine
 62
7
  6
CONTINUOUS
 10
188.2771473323
 20
392.1939169969
 11
188.2932701607
 21
392.1843537238
  0
LINE
  5
48B
100
AcDbEntity
  8
0
100
AcDbLine
 62
7
  6
CONTINUOUS
 10
188.2610406971
 20
392.2036323551
 11
188.2771473323
 21
392.1939169969
  0
LINE
  5
48C
100
AcDbEntity
  8
0
100
AcDbLine
 62
7
  6
CONTINUOUS
 10
188.2449512688
 20
392.2134998401
 11
188.2610406971
 21
392.2036323551
  0
LINE
  5
48D
100
AcDbEntity
  8
0
100
AcDbLine
 62
7
  6
CONTINUOUS
 10
188.2288799656
 20
392.223519544
 11
188.2449512688
 21
392.2134998401
  0
LINE
  5
48E
100
AcDbEntity
  8
0
100
AcDbLine
 62
7
  6
CONTINUOUS
 10
188.2128278098
 20
392.2336914862
 11
188.2288799656
 21
392.223519544
  0
LINE
  5
48F
100
AcDbEntity
  8
0
100
AcDbLine
 62
7
  6
CONTINUOUS
 10
188.1967958289
 20
392.2440156723
 11
188.2128278098
 21
392.2336914862
  0
LWPOLYLINE
  5
490
100
AcDbEntity
  8
0
100
AcDbPolyline
 62
7
  6
CONTINUOUS
 90
23
 70
0
 10
170.4235294822
 20
362.5045724673
 10
169.9000964301
 20
362.3999659234
 10
169.3737762904
 20
362.2442712803
 10
168.8589161867
 20
362.0396090299
 10
168.3580448664
 20
361.7864310032
 10
167.8736706221
 20
361.4853296869
 10
167.4057808558
 20
361.1354240542
 10
166.9572191462
 20
360.7375450864
 10
166.5304322262
 20
360.2925696624
 10
166.1256299754
 20
359.7984664511
 10
165.7467291366
 20
359.2565091068
 10
165.3965960304
 20
358.6665583655
 10
165.0756478965
 20
358.0223961938
 10
164.7898409865
 20
357.3264351559
 10
164.5431014683
 20
356.5781297235
 10
164.3374330176
 20
355.7690685852
 10
164.1719139797
 20
354.9005944323
 10
164.0446320928
 20
353.9863048027
 10
163.9507395887
 20
353.0379293574
 10
163.8838757518
 20
352.0545460809
 10
163.8381012604
 20
351.0433600175
 10
163.8077270267
 20
350.0283736823
 10
163.7854834511
 20
349.0124516142
  0
LWPOLYLINE
  5
491
100
AcDbEntity
  8
0
100
AcDbPolyline
 62
7
  6
CONTINUOUS
 90
4
 70
0
 10
211.7411194391
 20
368.8060674123
 10
209.8241784799
 20
368.506377474
 10
204.7821225276
 20
367.7277560341
 10
199.4436024124
 20
366.911987915
  0
LINE
  5
492
100
AcDbEntity
  8
0
100
AcDbLine
 62
7
  6
CONTINUOUS
 10
255.5202445569
 20
375.0868331807
 11
268.8931300151
 21
377.1190969187
  0
LINE
  5
493
100
AcDbEntity
  8
0
100
AcDbLine
 62
7
  6
CONTINUOUS
 10
172.4029761357
 20
362.4671215216
 11
196.0195836407
 21
366.0532892955
  0
LINE
  5
494
100
AcDbEntity
  8
0
100
AcDbLine
 62
7
  6
CONTINUOUS
 10
199.4436024124
 20
366.911987915
 11
172.3528032185
 21
362.7975338639
  0
LINE
  5
495
100
AcDbEntity
  8
0
100
AcDbLine
 62
7
  6
CONTINUOUS
 10
172.3528032185
 20
362.7975338639
 11
170.4235294822
 21
362.5045724673
  0
LINE
  5
496
100
AcDbEntity
  8
0
100
AcDbLine
 62
7
  6
CONTINUOUS
 10
252.5399372297
 20
375.1460212304
 11
252.2086492614
 21
375.0957149251
  0
LINE
  5
497
100
AcDbEntity
  8
0
100
AcDbLine
 62
7
  6
CONTINUOUS
 10
252.5410906104
 20
375.1464380674
 11
265.9216542594
 21
377.1782692134
  0
LINE
  5
498
100
AcDbEntity
  8
0
100
AcDbLine
 62
7
  6
CONTINUOUS
 10
188.6825804294
 20
392.0001034746
 11
188.6987995263
 21
391.994289399
  0
LINE
  5
499
100
AcDbEntity
  8
0
100
AcDbLine
 62
7
  6
CONTINUOUS
 10
188.666354366
 20
392.0060644307
 11
188.6825804294
 21
392.0001034746
  0
LINE
  5
49A
100
AcDbEntity
  8
0
100
AcDbLine
 62
7
  6
CONTINUOUS
 10
188.6501221958
 20
392.012172603
 11
188.666354366
 21
392.0060644307
  0
LINE
  5
49B
100
AcDbEntity
  8
0
100
AcDbLine
 62
7
  6
CONTINUOUS
 10
188.6338847915
 20
392.0184283138
 11
188.6501221958
 21
392.012172603
  0
LINE
  5
49C
100
AcDbEntity
  8
0
100
AcDbLine
 62
7
  6
CONTINUOUS
 10
188.6176429444
 20
392.0248319097
 11
188.6338847915
 21
392.0184283138
  0
LINE
  5
49D
100
AcDbEntity
  8
0
100
AcDbLine
 62
7
  6
CONTINUOUS
 10
188.6013975451
 20
392.031383692
 11
188.6176429444
 21
392.0248319097
  0
LINE
  5
49E
100
AcDbEntity
  8
0
100
AcDbLine
 62
7
  6
CONTINUOUS
 10
188.5851494967
 20
392.0380839481
 11
188.6013975451
 21
392.031383692
  0
LINE
  5
49F
100
AcDbEntity
  8
0
100
AcDbLine
 62
7
  6
CONTINUOUS
 10
188.5688996171
 20
392.0449329935
 11
188.5851494967
 21
392.0380839481
  0
LINE
  5
4A0
100
AcDbEntity
  8
0
100
AcDbLine
 62
7
  6
CONTINUOUS
 10
188.5526488261
 20
392.0519310938
 11
188.5688996171
 21
392.0449329935
  0
LINE
  5
4A1
100
AcDbEntity
  8
0
100
AcDbLine
 62
7
  6
CONTINUOUS
 10
188.5363980551
 20
392.0590785012
 11
188.5526488261
 21
392.0519310938
  0
LINE
  5
4A2
100
AcDbEntity
  8
0
100
AcDbLine
 62
7
  6
CONTINUOUS
 10
188.5201481471
 20
392.0663754989
 11
188.5363980551
 21
392.0590785012
  0
LINE
  5
4A3
100
AcDbEntity
  8
0
100
AcDbLine
 62
7
  6
CONTINUOUS
 10
188.5039000494
 20
392.0738223169
 11
188.5201481471
 21
392.0663754989
  0
LINE
  5
4A4
100
AcDbEntity
  8
0
100
AcDbLine
 62
7
  6
CONTINUOUS
 10
188.4876547197
 20
392.0814191711
 11
188.5039000494
 21
392.0738223169
  0
LINE
  5
4A5
100
AcDbEntity
  8
0
100
AcDbLine
 62
7
  6
CONTINUOUS
 10
188.4714130248
 20
392.0891663122
 11
188.4876547197
 21
392.0814191711
  0
LINE
  5
4A6
100
AcDbEntity
  8
0
100
AcDbLine
 62
7
  6
CONTINUOUS
 10
188.4551759373
 20
392.0970639339
 11
188.4714130248
 21
392.0891663122
  0
LINE
  5
4A7
100
AcDbEntity
  8
0
100
AcDbLine
 62
7
  6
CONTINUOUS
 10
263.6462406024
 20
389.3630565248
 11
266.75922085
 21
390.2359670436
  0
LINE
  5
4A8
100
AcDbEntity
  8
0
100
AcDbLine
 62
7
  6
CONTINUOUS
 10
188.9246988257
 20
391.9280947697
 11
188.9407215505
 21
391.9244351183
  0
LINE
  5
4A9
100
AcDbEntity
  8
0
100
AcDbLine
 62
7
  6
CONTINUOUS
 10
188.9086580125
 20
391.9318948679
 11
188.9246988257
 21
391.9280947697
  0
LINE
  5
4AA
100
AcDbEntity
  8
0
100
AcDbLine
 62
7
  6
CONTINUOUS
 10
188.8925997883
 20
391.9358359048
 11
188.9086580125
 21
391.9318948679
  0
LINE
  5
4AB
100
AcDbEntity
  8
0
100
AcDbLine
 62
7
  6
CONTINUOUS
 10
188.8765248481
 20
391.9399183614
 11
188.8925997883
 21
391.9358359048
  0
LINE
  5
4AC
100
AcDbEntity
  8
0
100
AcDbLine
 62
7
  6
CONTINUOUS
 10
188.8604338284
 20
391.9441427278
 11
188.8765248481
 21
391.9399183614
  0
LINE
  5
4AD
100
AcDbEntity
  8
0
100
AcDbLine
 62
7
  6
CONTINUOUS
 10
188.8443274465
 20
391.9485094673
 11
188.8604338284
 21
391.9441427278
  0
LINE
  5
4AE
100
AcDbEntity
  8
0
100
AcDbLine
 62
7
  6
CONTINUOUS
 10
188.8282064361
 20
391.9530190317
 11
188.8443274465
 21
391.9485094673
  0
LINE
  5
4AF
100
AcDbEntity
  8
0
100
AcDbLine
 62
7
  6
CONTINUOUS
 10
188.8120714675
 20
391.9576718847
 11
188.8282064361
 21
391.9530190317
  0
LINE
  5
4B0
100
AcDbEntity
  8
0
100
AcDbLine
 62
7
  6
CONTINUOUS
 10
188.795923296
 20
391.9624684595
 11
188.8120714675
 21
391.9576718847
  0
LINE
  5
4B1
100
AcDbEntity
  8
0
100
AcDbLine
 62
7
  6
CONTINUOUS
 10
188.7797626929
 20
391.9674091775
 11
188.795923296
 21
391.9624684595
  0
LINE
  5
4B2
100
AcDbEntity
  8
0
100
AcDbLine
 62
7
  6
CONTINUOUS
 10
188.7635903605
 20
391.9724944745
 11
188.7797626929
 21
391.9674091775
  0
LINE
  5
4B3
100
AcDbEntity
  8
0
100
AcDbLine
 62
7
  6
CONTINUOUS
 10
188.7474070908
 20
391.9777247524
 11
188.7635903605
 21
391.9724944745
  0
LINE
  5
4B4
100
AcDbEntity
  8
0
100
AcDbLine
 62
7
  6
CONTINUOUS
 10
188.7312136907
 20
391.9831004007
 11
188.7474070908
 21
391.9777247524
  0
LINE
  5
4B5
100
AcDbEntity
  8
0
100
AcDbLine
 62
7
  6
CONTINUOUS
 10
188.7150108937
 20
391.9886218265
 11
188.7312136907
 21
391.9831004007
  0
LINE
  5
4B6
100
AcDbEntity
  8
0
100
AcDbLine
 62
7
  6
CONTINUOUS
 10
188.6987995263
 20
391.994289399
 11
188.7150108937
 21
391.9886218265
  0
LINE
  5
4B7
100
AcDbEntity
  8
0
100
AcDbLine
 62
7
  6
CONTINUOUS
 10
189.1704970351
 20
391.8867805533
 11
189.1861423178
 21
391.8852107928
  0
LINE
  5
4B8
100
AcDbEntity
  8
0
100
AcDbLine
 62
7
  6
CONTINUOUS
 10
189.154830121
 20
391.888477947
 11
189.1704970351
 21
391.8867805533
  0
LINE
  5
4B9
100
AcDbEntity
  8
0
100
AcDbLine
 62
7
  6
CONTINUOUS
 10
189.1391364456
 20
391.8903044581
 11
189.154830121
 21
391.888477947
  0
LINE
  5
4BA
100
AcDbEntity
  8
0
100
AcDbLine
 62
7
  6
CONTINUOUS
 10
189.1234144647
 20
391.8922612486
 11
189.1391364456
 21
391.8903044581
  0
LINE
  5
4BB
100
AcDbEntity
  8
0
100
AcDbLine
 62
7
  6
CONTINUOUS
 10
189.1076629108
 20
391.8943494947
 11
189.1234144647
 21
391.8922612486
  0
LINE
  5
4BC
100
AcDbEntity
  8
0
100
AcDbLine
 62
7
  6
CONTINUOUS
 10
189.0918829628
 20
391.8965700821
 11
189.1076629108
 21
391.8943494947
  0
LINE
  5
4BD
100
AcDbEntity
  8
0
100
AcDbLine
 62
7
  6
CONTINUOUS
 10
189.0760753142
 20
391.8989239551
 11
189.0918829628
 21
391.8965700821
  0
LINE
  5
4BE
100
AcDbEntity
  8
0
100
AcDbLine
 62
7
  6
CONTINUOUS
 10
189.0602407462
 20
391.9014120445
 11
189.0760753142
 21
391.8989239551
  0
LINE
  5
4BF
100
AcDbEntity
  8
0
100
AcDbLine
 62
7
  6
CONTINUOUS
 10
189.044380048
 20
391.9040352776
 11
189.0602407462
 21
391.9014120445
  0
LINE
  5
4C0
100
AcDbEntity
  8
0
100
AcDbLine
 62
7
  6
CONTINUOUS
 10
189.0284939626
 20
391.906794588
 11
189.044380048
 21
391.9040352776
  0
LINE
  5
4C1
100
AcDbEntity
  8
0
100
AcDbLine
 62
7
  6
CONTINUOUS
 10
189.0125831149
 20
391.9096909312
 11
189.0284939626
 21
391.906794588
  0
LINE
  5
4C2
100
AcDbEntity
  8
0
100
AcDbLine
 62
7
  6
CONTINUOUS
 10
188.9966497913
 20
391.9127249115
 11
189.0125831149
 21
391.9096909312
  0
LINE
  5
4C3
100
AcDbEntity
  8
0
100
AcDbLine
 62
7
  6
CONTINUOUS
 10
188.9806951621
 20
391.9158970769
 11
188.9966497913
 21
391.9127249115
  0
LINE
  5
4C4
100
AcDbEntity
  8
0
100
AcDbLine
 62
7
  6
CONTINUOUS
 10
188.9647203763
 20
391.9192078574
 11
188.9806951621
 21
391.9158970769
  0
LWPOLYLINE
  5
4C5
100
AcDbEntity
  8
0
100
AcDbPolyline
 62
7
  6
CONTINUOUS
 90
3
 70
0
 10
188.9407215505
 20
391.9244351183
 10
188.9487259567
 20
391.9226577961
 10
188.9647203763
 20
391.9192078574
  0
LWPOLYLINE
  5
4C6
100
AcDbEntity
  8
0
100
AcDbPolyline
 62
7
  6
CONTINUOUS
 90
41
 70
0
 10
252.6145299508
 20
374.6641964085
 10
252.6314453453
 20
374.65544017
 10
252.6578905155
 20
374.6408621025
 10
252.6559568963
 20
374.642991035
 10
252.6278271489
 20
374.6639881348
 10
252.5725190322
 20
374.7087931526
 10
252.4989231389
 20
374.7744474482
 10
252.4225350496
 20
374.8491292428
 10
252.3472765516
 20
374.9291976911
 10
252.272928139
 20
375.0151043575
 10
252.2062040949
 20
375.0987813485
 10
252.1492240073
 20
375.1761867256
 10
252.1005718717
 20
375.2477747078
 10
252.0604995003
 20
375.3117921278
 10
252.0301892516
 20
375.3644585845
 10
252.0077556122
 20
375.4068514111
 10
251.9892893306
 20
375.4449826979
 10
251.9750294288
 20
375.4773867596
 10
251.9643665539
 20
375.5040341447
 10
251.9535696406
 20
375.5338154665
 10
251.943089625
 20
375.5659896935
 10
251.9329506646
 20
375.6005872076
 10
251.9205459713
 20
375.6482829176
 10
251.9070129456
 20
375.7076595207
 10
251.8925882129
 20
375.7799823132
 10
251.8751391963
 20
375.8802718075
 10
251.8552927739
 20
376.0124708716
 10
251.8347314552
 20
376.1724402691
 10
251.813925721
 20
376.362853972
 10
251.7934236039
 20
376.5861366874
 10
251.7742196742
 20
376.8386272053
 10
251.7571617965
 20
377.113688695
 10
251.7424821095
 20
377.4099779783
 10
251.7303031022
 20
377.7273509414
 10
251.7208363186
 20
378.0612138643
 10
251.7140930557
 20
378.4085976007
 10
251.7099526669
 20
378.7713564197
 10
251.7083394534
 20
379.1524321237
 10
251.7092005167
 20
379.5507099173
 10
251.712415979
 20
379.9663638234
 10
251.7178678013
 20
380.4043786003
  0
LINE
  5
4C7
100
AcDbEntity
  8
0
100
AcDbLine
 62
7
  6
CONTINUOUS
 10
247.3909954696
 20
415.9905635518
 11
246.8121422577
 21
386.9989264359
  0
LINE
  5
4C8
100
AcDbEntity
  8
0
100
AcDbLine
 62
7
  6
CONTINUOUS
 10
189.4246407764
 20
391.876557499
 11
189.4395085985
 21
391.8769539763
  0
LINE
  5
4C9
100
AcDbEntity
  8
0
100
AcDbLine
 62
7
  6
CONTINUOUS
 10
189.40967436
 20
391.8762679428
 11
189.4246407764
 21
391.876557499
  0
LINE
  5
4CA
100
AcDbEntity
  8
0
100
AcDbLine
 62
7
  6
CONTINUOUS
 10
189.3946175124
 20
391.8760878606
 11
189.40967436
 21
391.8762679428
  0
LINE
  5
4CB
100
AcDbEntity
  8
0
100
AcDbLine
 62
7
  6
CONTINUOUS
 10
189.3794757776
 20
391.8760195695
 11
189.3946175124
 21
391.8760878606
  0
LINE
  5
4CC
100
AcDbEntity
  8
0
100
AcDbLine
 62
7
  6
CONTINUOUS
 10
189.3642576782
 20
391.8760652088
 11
189.3794757776
 21
391.8760195695
  0
LINE
  5
4CD
100
AcDbEntity
  8
0
100
AcDbLine
 62
7
  6
CONTINUOUS
 10
189.3489721135
 20
391.8762266642
 11
189.3642576782
 21
391.8760652088
  0
LINE
  5
4CE
100
AcDbEntity
  8
0
100
AcDbLine
 62
7
  6
CONTINUOUS
 10
189.3336251294
 20
391.8765056216
 11
189.3489721135
 21
391.8762266642
  0
LINE
  5
4CF
100
AcDbEntity
  8
0
100
AcDbLine
 62
7
  6
CONTINUOUS
 10
189.3182258824
 20
391.8769034981
 11
189.3336251294
 21
391.8765056216
  0
LINE
  5
4D0
100
AcDbEntity
  8
0
100
AcDbLine
 62
7
  6
CONTINUOUS
 10
189.3027838171
 20
391.8774214262
 11
189.3182258824
 21
391.8769034981
  0
LINE
  5
4D1
100
AcDbEntity
  8
0
100
AcDbLine
 62
7
  6
CONTINUOUS
 10
189.2873052651
 20
391.8780603943
 11
189.3027838171
 21
391.8774214262
  0
LINE
  5
4D2
100
AcDbEntity
  8
0
100
AcDbLine
 62
7
  6
CONTINUOUS
 10
189.2718007058
 20
391.878820982
 11
189.2873052651
 21
391.8780603943
  0
LINE
  5
4D3
100
AcDbEntity
  8
0
100
AcDbLine
 62
7
  6
CONTINUOUS
 10
189.2562741702
 20
391.8797038408
 11
189.2718007058
 21
391.878820982
  0
LINE
  5
4D4
100
AcDbEntity
  8
0
100
AcDbLine
 62
7
  6
CONTINUOUS
 10
189.2407271548
 20
391.8807096771
 11
189.2562741702
 21
391.8797038408
  0
LINE
  5
4D5
100
AcDbEntity
  8
0
100
AcDbLine
 62
7
  6
CONTINUOUS
 10
189.2251587989
 20
391.8818393387
 11
189.2407271548
 21
391.8807096771
  0
LINE
  5
4D6
100
AcDbEntity
  8
0
100
AcDbLine
 62
7
  6
CONTINUOUS
 10
189.2095686639
 20
391.8830936739
 11
189.2251587989
 21
391.8818393387
  0
LWPOLYLINE
  5
4D7
100
AcDbEntity
  8
0
100
AcDbPolyline
 62
7
  6
CONTINUOUS
 90
3
 70
0
 10
189.1861423178
 20
391.8852107928
 10
189.1939566399
 20
391.884473525
 10
189.2095686639
 20
391.8830936739
  0
LWPOLYLINE
  5
4D8
100
AcDbEntity
  8
0
100
AcDbPolyline
 62
7
  6
CONTINUOUS
 90
3
 70
0
 10
251.7178678013
 20
380.4043786003
 10
251.7344073133
 20
381.3494137556
 10
251.7388550806
 20
381.5741531249
  0
LINE
  5
4D9
100
AcDbEntity
  8
0
100
AcDbLine
 62
7
  6
CONTINUOUS
 10
251.8454399725
 20
386.9140062273
 11
251.73886461
 21
381.5756183783
  0
LINE
  5
4DA
100
AcDbEntity
  8
0
100
AcDbLine
 62
7
  6
CONTINUOUS
 10
251.886623447
 20
388.9811179959
 11
252.4655252131
 21
417.9749480457
  0
LINE
  5
4DB
100
AcDbEntity
  8
0
100
AcDbLine
 62
7
  6
CONTINUOUS
 10
252.4655296559
 20
417.9751730779
 11
252.4653237431
 21
417.9675654667
  0
LINE
  5
4DC
100
AcDbEntity
  8
0
100
AcDbLine
 62
7
  6
CONTINUOUS
 10
189.6971323814
 20
391.9004614736
 11
220.9103796609
 21
396.6398719149
  0
LINE
  5
4DD
100
AcDbEntity
  8
0
100
AcDbLine
 62
7
  6
CONTINUOUS
 10
189.6840163186
 20
391.8985577735
 11
189.6971323814
 21
391.9004614736
  0
LINE
  5
4DE
100
AcDbEntity
  8
0
100
AcDbLine
 62
7
  6
CONTINUOUS
 10
189.670576753
 20
391.8966736316
 11
189.6840163186
 21
391.8985577735
  0
LINE
  5
4DF
100
AcDbEntity
  8
0
100
AcDbLine
 62
7
  6
CONTINUOUS
 10
189.6569773627
 20
391.8948405469
 11
189.670576753
 21
391.8966736316
  0
LINE
  5
4E0
100
AcDbEntity
  8
0
100
AcDbLine
 62
7
  6
CONTINUOUS
 10
189.6433403059
 20
391.8930800034
 11
189.6569773627
 21
391.8948405469
  0
LINE
  5
4E1
100
AcDbEntity
  8
0
100
AcDbLine
 62
7
  6
CONTINUOUS
 10
189.6297390791
 20
391.8914039848
 11
189.6433403059
 21
391.8930800034
  0
LINE
  5
4E2
100
AcDbEntity
  8
0
100
AcDbLine
 62
7
  6
CONTINUOUS
 10
189.6161791111
 20
391.8898143572
 11
189.6297390791
 21
391.8914039848
  0
LINE
  5
4E3
100
AcDbEntity
  8
0
100
AcDbLine
 62
7
  6
CONTINUOUS
 10
189.6025869834
 20
391.8883039124
 11
189.6161791111
 21
391.8898143572
  0
LINE
  5
4E4
100
AcDbEntity
  8
0
100
AcDbLine
 62
7
  6
CONTINUOUS
 10
189.5889360644
 20
391.8868717332
 11
189.6025869834
 21
391.8883039124
  0
LINE
  5
4E5
100
AcDbEntity
  8
0
100
AcDbLine
 62
7
  6
CONTINUOUS
 10
189.5752098517
 20
391.885518353
 11
189.5889360644
 21
391.8868717332
  0
LINE
  5
4E6
100
AcDbEntity
  8
0
100
AcDbLine
 62
7
  6
CONTINUOUS
 10
189.561390292
 20
391.8842444592
 11
189.5752098517
 21
391.885518353
  0
LINE
  5
4E7
100
AcDbEntity
  8
0
100
AcDbLine
 62
7
  6
CONTINUOUS
 10
189.5474684654
 20
391.8830518697
 11
189.561390292
 21
391.8842444592
  0
LINE
  5
4E8
100
AcDbEntity
  8
0
100
AcDbLine
 62
7
  6
CONTINUOUS
 10
189.5334392332
 20
391.8819428619
 11
189.5474684654
 21
391.8830518697
  0
LINE
  5
4E9
100
AcDbEntity
  8
0
100
AcDbLine
 62
7
  6
CONTINUOUS
 10
189.5192977649
 20
391.8809198285
 11
189.5334392332
 21
391.8819428619
  0
LINE
  5
4EA
100
AcDbEntity
  8
0
100
AcDbLine
 62
7
  6
CONTINUOUS
 10
189.5050439948
 20
391.8799855599
 11
189.5192977649
 21
391.8809198285
  0
LINE
  5
4EB
100
AcDbEntity
  8
0
100
AcDbLine
 62
7
  6
CONTINUOUS
 10
189.490677875
 20
391.879142831
 11
189.5050439948
 21
391.8799855599
  0
LINE
  5
4EC
100
AcDbEntity
  8
0
100
AcDbLine
 62
7
  6
CONTINUOUS
 10
189.4762017065
 20
391.8783945196
 11
189.490677875
 21
391.879142831
  0
LINE
  5
4ED
100
AcDbEntity
  8
0
100
AcDbLine
 62
7
  6
CONTINUOUS
 10
189.4616099058
 20
391.8777431092
 11
189.4762017065
 21
391.8783945196
  0
LWPOLYLINE
  5
4EE
100
AcDbEntity
  8
0
100
AcDbPolyline
 62
7
  6
CONTINUOUS
 90
3
 70
0
 10
189.4395085985
 20
391.8769539763
 10
189.4469030136
 20
391.87719145
 10
189.4616099058
 20
391.8777431092
  0
LWPOLYLINE
  5
4EF
100
AcDbEntity
  8
0
100
AcDbPolyline
 62
7
  6
CONTINUOUS
 90
47
 70
0
 10
252.465398922
 20
417.9669521389
 10
252.4531783015
 20
418.1517472526
 10
252.3951346193
 20
418.365244219
 10
252.2931794731
 20
418.5680722092
 10
252.1514866471
 20
418.7580457365
 10
251.9724937486
 20
418.9364795943
 10
251.7579931418
 20
419.1048970662
 10
251.5064391296
 20
419.266567294
 10
251.2133975503
 20
419.4249028325
 10
250.8757745145
 20
419.5811889987
 10
250.4926396682
 20
419.7353063479
 10
250.0648624069
 20
419.8865559974
 10
249.5915332334
 20
420.0349516168
 10
249.0729104439
 20
420.1800957529
 10
248.5152553301
 20
420.3202211334
 10
247.9211157971
 20
420.4548886945
 10
247.2915888296
 20
420.5840319723
 10
246.6333829921
 20
420.7065237557
 10
245.9517147465
 20
420.8218334893
 10
245.2471475569
 20
420.9302877165
 10
244.5200699547
 20
421.0320943093
 10
243.7732405803
 20
421.1270872175
 10
243.0088345543
 20
421.2152181315
 10
242.2258147493
 20
421.2967423301
 10
241.4262149353
 20
421.3715241981
 10
240.6123646466
 20
421.4394366856
 10
239.7832119814
 20
421.5005928956
 10
238.939926657
 20
421.5548599651
 10
238.0854863772
 20
421.602024972
 10
237.2213888589
 20
421.6419825411
 10
236.3494265047
 20
421.674601198
 10
235.4722364181
 20
421.699735749
 10
234.5926110023
 20
421.7172550087
 10
233.7128398903
 20
421.7270807033
 10
232.8352241106
 20
421.7291808425
 10
231.9625920764
 20
421.7235318294
 10
231.0972620655
 20
421.7101171875
 10
230.2415563584
 20
421.6889235408
 10
229.3982285332
 20
421.660005022
 10
228.569483968
 20
421.6234415173
 10
227.7575217872
 20
421.5793183008
 10
226.9649115214
 20
421.5277739664
 10
226.1937198232
 20
421.4689324889
 10
225.4459451033
 20
421.402929594
 10
224.7238173888
 20
421.3299785462
 10
224.029227776
 20
421.2502802394
 10
223.3637468386
 20
421.1640240419
  0
LINE
  5
4F0
100
AcDbEntity
  8
0
100
AcDbLine
 62
7
  6
CONTINUOUS
 10
188.5500306358
 20
401.2659740756
 11
188.5382791404
 21
401.263566047
  0
LINE
  5
4F1
100
AcDbEntity
  8
0
100
AcDbLine
 62
7
  6
CONTINUOUS
 10
188.5618135808
 20
401.2683205874
 11
188.5500306358
 21
401.2659740756
  0
LINE
  5
4F2
100
AcDbEntity
  8
0
100
AcDbLine
 62
7
  6
CONTINUOUS
 10
188.5736397394
 20
401.2706083705
 11
188.5618135808
 21
401.2683205874
  0
LINE
  5
4F3
100
AcDbEntity
  8
0
100
AcDbLine
 62
7
  6
CONTINUOUS
 10
188.5855392252
 20
401.272843481
 11
188.5736397394
 21
401.2706083705
  0
LINE
  5
4F4
100
AcDbEntity
  8
0
100
AcDbLine
 62
7
  6
CONTINUOUS
 10
188.5974817061
 20
401.2750206426
 11
188.5855392252
 21
401.272843481
  0
LINE
  5
4F5
100
AcDbEntity
  8
0
100
AcDbLine
 62
7
  6
CONTINUOUS
 10
188.6094425622
 20
401.2771364898
 11
188.5974817061
 21
401.2750206426
  0
LINE
  5
4F6
100
AcDbEntity
  8
0
100
AcDbLine
 62
7
  6
CONTINUOUS
 10
188.6213503608
 20
401.2791805947
 11
188.6094425622
 21
401.2771364898
  0
LINE
  5
4F7
100
AcDbEntity
  8
0
100
AcDbLine
 62
7
  6
CONTINUOUS
 10
188.6332743057
 20
401.2811675016
 11
188.6213503608
 21
401.2791805947
  0
LINE
  5
4F8
100
AcDbEntity
  8
0
100
AcDbLine
 62
7
  6
CONTINUOUS
 10
188.6451411486
 20
401.2830883674
 11
188.6332743057
 21
401.2811675016
  0
LINE
  5
4F9
100
AcDbEntity
  8
0
100
AcDbLine
 62
7
  6
CONTINUOUS
 10
188.6622321739
 20
401.2857648587
 11
188.6451411486
 21
401.2830883674
  0
LINE
  5
4FA
100
AcDbEntity
  8
0
100
AcDbLine
 62
7
  6
CONTINUOUS
 10
189.2829605437
 20
401.2747245542
 11
220.4391690372
 21
406.005529002
  0
LINE
  5
4FB
100
AcDbEntity
  8
0
100
AcDbLine
 62
7
  6
CONTINUOUS
 10
219.8687496043
 20
406.0242070692
 11
188.6622321739
 21
401.2857648587
  0
LINE
  5
4FC
100
AcDbEntity
  8
0
100
AcDbLine
 62
7
  6
CONTINUOUS
 10
188.4088119704
 20
401.2323090613
 11
188.3969441989
 21
401.2289906925
  0
LINE
  5
4FD
100
AcDbEntity
  8
0
100
AcDbLine
 62
7
  6
CONTINUOUS
 10
188.4206598835
 20
401.2355436599
 11
188.4088119704
 21
401.2323090613
  0
LINE
  5
4FE
100
AcDbEntity
  8
0
100
AcDbLine
 62
7
  6
CONTINUOUS
 10
188.4324878822
 20
401.2386955303
 11
188.4206598835
 21
401.2355436599
  0
LINE
  5
4FF
100
AcDbEntity
  8
0
100
AcDbLine
 62
7
  6
CONTINUOUS
 10
188.4442961524
 20
401.2417657796
 11
188.4324878822
 21
401.2386955303
  0
LINE
  5
500
100
AcDbEntity
  8
0
100
AcDbLine
 62
7
  6
CONTINUOUS
 10
188.4560857137
 20
401.244755723
 11
188.4442961524
 21
401.2417657796
  0
LINE
  5
501
100
AcDbEntity
  8
0
100
AcDbLine
 62
7
  6
CONTINUOUS
 10
188.4678575141
 20
401.2476666392
 11
188.4560857137
 21
401.244755723
  0
LINE
  5
502
100
AcDbEntity
  8
0
100
AcDbLine
 62
7
  6
CONTINUOUS
 10
188.4796133124
 20
401.2504999858
 11
188.4678575141
 21
401.2476666392
  0
LINE
  5
503
100
AcDbEntity
  8
0
100
AcDbLine
 62
7
  6
CONTINUOUS
 10
188.4913562577
 20
401.2532575135
 11
188.4796133124
 21
401.2504999858
  0
LINE
  5
504
100
AcDbEntity
  8
0
100
AcDbLine
 62
7
  6
CONTINUOUS
 10
188.503088985
 20
401.2559407988
 11
188.4913562577
 21
401.2532575135
  0
LINE
  5
505
100
AcDbEntity
  8
0
100
AcDbLine
 62
7
  6
CONTINUOUS
 10
188.5148159204
 20
401.2585517741
 11
188.503088985
 21
401.2559407988
  0
LINE
  5
506
100
AcDbEntity
  8
0
100
AcDbLine
 62
7
  6
CONTINUOUS
 10
188.5265440488
 20
401.2610928457
 11
188.5148159204
 21
401.2585517741
  0
LINE
  5
507
100
AcDbEntity
  8
0
100
AcDbLine
 62
7
  6
CONTINUOUS
 10
188.5382791404
 20
401.263566047
 11
188.5265440488
 21
401.2610928457
  0
LWPOLYLINE
  5
508
100
AcDbEntity
  8
0
100
AcDbPolyline
 62
7
  6
CONTINUOUS
 90
18
 70
0
 10
222.8269696913
 20
421.0864333142
 10
222.2971296615
 20
421.001816376
 10
221.6994508312
 20
420.8952918633
 10
221.1420201152
 20
420.7833769664
 10
220.624663703
 20
420.6662270936
 10
220.148554762
 20
420.5443255439
 10
219.7153237069
 20
420.4184373278
 10
219.3247222268
 20
420.2889147965
 10
218.9753633292
 20
420.1557402581
 10
218.6654175343
 20
420.0185685096
 10
218.39389089
 20
419.8771615872
 10
218.1588030846
 20
419.7304954329
 10
217.9559571145
 20
419.5750953289
 10
217.7840519139
 20
419.4072451036
 10
217.6463384547
 20
419.2260838513
 10
217.546524601
 20
419.0324152449
 10
217.487993164
 20
418.8293117672
 10
217.4723517427
 20
418.6663120521
  0
LINE
  5
509
100
AcDbEntity
  8
0
100
AcDbLine
 62
7
  6
CONTINUOUS
 10
223.3637468386
 20
421.1640240419
 11
222.8268558592
 21
421.0864160422
  0
LINE
  5
50A
100
AcDbEntity
  8
0
100
AcDbLine
 62
2
  6
CONTINUOUS
 10
299.4699104399
 20
366.0573517309
 11
299.4619478411
 21
366.0869201216
  0
CIRCLE
  5
50B
100
AcDbEntity
  8
0
100
AcDbCircle
 62
7
  6
CONTINUOUS
 10
123.470060194
 20
233.951396054
 40
1.342548728
  0
CIRCLE
  5
50C
100
AcDbEntity
  8
0
100
AcDbCircle
 62
7
  6
CONTINUOUS
 10
143.0922938856
 20
233.9524558321
 40
1.342548728
  0
HATCH
  5
50D
100
AcDbEntity
  8
0
100
AcDbHatch
 62
2
  6
CONTINUOUS
 10
0.0
 20
0.0
 30
0.0
210
0.0
220
0.0
230
1.0
  2
XSEC0001
 70
1
 71
1
 91
2
 92
1
 93
1
 72
2
 10
123.470060194
 20
233.951396054
 40
1.342548728
 50
0.0
 51
360.0
 73
1
 97
2
330
50B
330
50C
 92
1
 93
1
 72
2
 10
143.0922938856
 20
233.9524558321
 40
1.342548728
 50
0.0
 51
360.0
 73
1
 97
2
330
50B
330
50C
 75
0
 76
1
 98
1
 10
0.0
 20
0.0
  0
ARC
  5
50E
100
AcDbEntity
  8
0
100
AcDbCircle
 62
7
  6
CONTINUOUS
 10
133.3632002709
 20
22.0633502703
 40
246.3712783131
100
AcDbArc
 50
86.0374218236
 51
93.9667014078
  0
ARC
  5
50F
100
AcDbEntity
  8
_CURVE
100
AcDbCircle
 62
40
  6
CONTINUOUS
 10
133.3630148684
 20
22.0633253476
 40
246.241479709
100
AcDbArc
 50
89.7228653113
 51
90.2813025631
  0
ARC
  5
510
100
AcDbEntity
  8
0
100
AcDbCircle
 62
7
  6
CONTINUOUS
 10
50.8085429132
 20
172.2614769552
 40
23.6009924516
100
AcDbArc
 50
51.3647933077
 51
52.6822927573
  0
ARC
  5
511
100
AcDbEntity
  8
0
100
AcDbCircle
 62
7
  6
CONTINUOUS
 10
60.2933482429
 20
171.2289159102
 40
21.6850532186
100
AcDbArc
 50
120.6133076874
 51
121.3021175086
  0
ARC
  5
512
100
AcDbEntity
  8
0
100
AcDbCircle
 62
7
  6
CONTINUOUS
 10
51.9910207019
 20
173.847616503
 40
21.6227094845
100
AcDbArc
 50
52.6262128888
 51
55.0097608776
  0
ARC
  5
513
100
AcDbEntity
  8
0
100
AcDbCircle
 62
7
  6
CONTINUOUS
 10
61.1617675811
 20
176.0141591337
 40
17.8579659555
100
AcDbArc
 50
108.5737540816
 51
110.8449533304
  0
ARC
  5
514
100
AcDbEntity
  8
0
100
AcDbCircle
 62
7
  6
CONTINUOUS
 10
58.0392947249
 20
183.4338456721
 40
10.2711321138
100
AcDbArc
 50
64.0630233998
 51
68.0779352256
  0
ARC
  5
515
100
AcDbEntity
  8
0
100
AcDbCircle
 62
7
  6
CONTINUOUS
 10
58.8668306934
 20
185.8171643001
 40
7.744821808
100
AcDbArc
 50
87.0937131524
 51
89.9457666849
  0
ARC
  5
516
100
AcDbEntity
  8
0
100
AcDbCircle
 62
7
  6
CONTINUOUS
 10
58.8874209649
 20
186.3082619483
 40
7.3056047916
100
AcDbArc
 50
90.0715896847
 51
92.1628717991
  0
ARC
  5
517
100
AcDbEntity
  8
0
100
AcDbCircle
 62
7
  6
CONTINUOUS
 10
58.8820104095
 20
186.8693641554
 40
6.7444979085
100
AcDbArc
 50
87.4424891553
 51
90.0315818639
  0
ARC
  5
518
100
AcDbEntity
  8
0
100
AcDbCircle
 62
7
  6
CONTINUOUS
 10
113.0042412088
 20
244.7014267752
 40
2.8500061126
100
AcDbArc
 50
0.000773798
 51
89.9968692909
  0
ARC
  5
519
100
AcDbEntity
  8
0
100
AcDbCircle
 62
7
  6
CONTINUOUS
 10
113.0042474597
 20
259.9015147252
 40
2.8499967629
100
AcDbArc
 50
269.9999364909
 51
0.0002644015
  0
ARC
  5
51A
100
AcDbEntity
  8
0
100
AcDbCircle
 62
7
  6
CONTINUOUS
 10
184.9542279346
 20
174.2479649185
 40
1.6
100
AcDbArc
 50
180.0
 51
265.0
  0
ARC
  5
51B
100
AcDbEntity
  8
0
100
AcDbCircle
 62
7
  6
CONTINUOUS
 10
184.9542279346
 20
231.0601418846
 40
1.6
100
AcDbArc
 50
95.0
 51
180.0
  0
ARC
  5
51C
100
AcDbEntity
  8
0
100
AcDbCircle
 62
7
  6
CONTINUOUS
 10
116.3541976728
 20
237.9212627042
 40
0.5000006111
100
AcDbArc
 50
180.0000385898
 51
269.9999999999
  0
ARC
  5
51D
100
AcDbEntity
  8
0
100
AcDbCircle
 62
7
  6
CONTINUOUS
 10
150.3542821631
 20
237.9212682455
 40
0.5000005133
100
AcDbArc
 50
269.9962527194
 51
359.9999896961
  0
ARC
  5
51E
100
AcDbEntity
  8
0
100
AcDbCircle
 62
7
  6
CONTINUOUS
 10
150.3542497938
 20
235.8210263783
 40
0.5000001253
100
AcDbArc
 50
359.9999669135
 51
90.0006422705
  0
ARC
  5
51F
100
AcDbEntity
  8
0
100
AcDbCircle
 62
7
  6
CONTINUOUS
 10
116.3542183744
 20
235.8210460123
 40
0.5000001253
100
AcDbArc
 50
90.0049099991
 51
179.9999669135
  0
ARC
  5
520
100
AcDbEntity
  8
0
100
AcDbCircle
 62
7
  6
CONTINUOUS
 10
182.8542155655
 20
185.6540509521
 40
0.5000000831
100
AcDbArc
 50
269.9999667335
 51
0.0002806817
  0
ARC
  5
521
100
AcDbEntity
  8
0
100
AcDbCircle
 62
7
  6
CONTINUOUS
 10
182.8542353062
 20
219.6540761723
 40
0.5000000831
100
AcDbArc
 50
0.005258805
 51
89.9999667336
  0
ARC
  5
522
100
AcDbEntity
  8
0
100
AcDbCircle
 62
7
  6
CONTINUOUS
 10
45.8110117465
 20
190.1558736551
 40
0.4999995606
100
AcDbArc
 50
184.3859068846
 51
270.5247195309
  0
ARC
  5
523
100
AcDbEntity
  8
0
100
AcDbCircle
 62
7
  6
CONTINUOUS
 10
68.7475987065
 20
116.0491010147
 40
2.844252933
100
AcDbArc
 50
269.6493447274
 51
270.0350314785
  0
ARC
  5
524
100
AcDbEntity
  8
0
100
AcDbCircle
 62
7
  6
CONTINUOUS
 10
70.741976652
 20
113.6140640415
 40
2.2489845528
100
AcDbArc
 50
184.5772877231
 51
185.2569667721
  0
ARC
  5
525
100
AcDbEntity
  8
0
100
AcDbCircle
 62
7
  6
CONTINUOUS
 10
45.7946880824
 20
105.7872082732
 40
0.5000000755
100
AcDbArc
 50
185.5551527273
 51
269.999992144
  0
ARC
  5
526
100
AcDbEntity
  8
0
100
AcDbCircle
 62
7
  6
CONTINUOUS
 10
133.3542340841
 20
116.7868684675
 40
17.500015835
100
AcDbArc
 50
198.4346058311
 51
356.1107396445
  0
ARC
  5
527
100
AcDbEntity
  8
0
100
AcDbCircle
 62
7
  6
CONTINUOUS
 10
184.9542279346
 20
88.3807851809
 40
1.6
100
AcDbArc
 50
180.0
 51
265.0
  0
ARC
  5
528
100
AcDbEntity
  8
0
100
AcDbCircle
 62
7
  6
CONTINUOUS
 10
182.8542307921
 20
99.7865464036
 40
0.5000000971
100
AcDbArc
 50
270.0000102796
 51
0.0024990458
  0
CIRCLE
  5
529
100
AcDbEntity
  8
0
100
AcDbCircle
 62
7
  6
CONTINUOUS
 10
133.3542441889
 20
116.7868935445
 40
17.5
  0
ARC
  5
52A
100
AcDbEntity
  8
0
100
AcDbCircle
 62
7
  6
CONTINUOUS
 10
184.9542279346
 20
145.192962147
 40
1.6
100
AcDbArc
 50
95.0
 51
180.0
  0
ARC
  5
52B
100
AcDbEntity
  8
0
100
AcDbCircle
 62
7
  6
CONTINUOUS
 10
182.8542368624
 20
133.7865904813
 40
0.5000000831
100
AcDbArc
 50
359.9973652229
 51
89.9999614888
  0
ARC
  5
52C
100
AcDbEntity
  8
0
100
AcDbCircle
 62
7
  6
CONTINUOUS
 10
327.5769663436
 20
21.7362997011
 40
246.6983288822
100
AcDbArc
 50
86.0406550697
 51
93.9589747461
  0
ARC
  5
52D
100
AcDbEntity
  8
_CURVE
100
AcDbCircle
 62
40
  6
CONTINUOUS
 10
327.5769383312
 20
21.7363037736
 40
246.6953585883
100
AcDbArc
 50
88.1411022259
 51
91.857804594
  0
ARC
  5
52E
100
AcDbEntity
  8
0
100
AcDbCircle
 62
7
  6
CONTINUOUS
 10
325.5330879688
 20
204.9158003453
 40
15.9908666862
100
AcDbArc
 50
39.2465137227
 51
39.5581069501
  0
ARC
  5
52F
100
AcDbEntity
  8
0
100
AcDbCircle
 62
7
  6
CONTINUOUS
 10
325.6217844512
 20
204.9892909977
 40
15.8756800124
100
AcDbArc
 50
39.6594149679
 51
40.174411697
  0
ARC
  5
530
100
AcDbEntity
  8
0
100
AcDbCircle
 62
7
  6
CONTINUOUS
 10
322.713432618
 20
202.9303826743
 40
12.6914209699
100
AcDbArc
 50
176.4039522982
 51
177.26811101
  0
ARC
  5
531
100
AcDbEntity
  8
0
100
AcDbCircle
 62
7
  6
CONTINUOUS
 10
327.5368772717
 20
201.3383791968
 40
11.6836824319
100
AcDbArc
 50
273.9009956161
 51
276.6767907429
  0
ARC
  5
532
100
AcDbEntity
  8
0
100
AcDbCircle
 62
7
  6
CONTINUOUS
 10
327.5558137368
 20
201.2370916674
 40
11.5756801688
100
AcDbArc
 50
246.872345333
 51
254.9880904234
  0
ARC
  5
533
100
AcDbEntity
  8
0
100
AcDbCircle
 62
7
  6
CONTINUOUS
 10
327.5560541236
 20
201.0818462181
 40
11.4264392872
100
AcDbArc
 50
273.497591008
 51
273.8925725251
  0
ARC
  5
534
100
AcDbEntity
  8
0
100
AcDbCircle
 62
7
  6
CONTINUOUS
 10
327.5088877276
 20
201.0840625924
 40
11.4183221808
100
AcDbArc
 50
229.0973212202
 51
232.7736314007
  0
ARC
  5
535
100
AcDbEntity
  8
0
100
AcDbCircle
 62
7
  6
CONTINUOUS
 10
327.4591475599
 20
201.0124669095
 40
11.331139427
100
AcDbArc
 50
236.4282912136
 51
246.8757279548
  0
ARC
  5
536
100
AcDbEntity
  8
0
100
AcDbCircle
 62
7
  6
CONTINUOUS
 10
327.5744570091
 20
200.7298817648
 40
11.0740081533
100
AcDbArc
 50
270.0170712211
 51
273.5136483923
  0
ARC
  5
537
100
AcDbEntity
  8
0
100
AcDbCircle
 62
7
  6
CONTINUOUS
 10
327.2592412214
 20
200.8151642378
 40
11.0512021895
100
AcDbArc
 50
220.6719659972
 51
221.0588501866
  0
ARC
  5
538
100
AcDbEntity
  8
0
100
AcDbCircle
 62
7
  6
CONTINUOUS
 10
327.2253405016
 20
200.8028049334
 40
11.0188868984
100
AcDbArc
 50
222.7775830583
 51
225.1388689182
  0
ARC
  5
539
100
AcDbEntity
  8
0
100
AcDbCircle
 62
7
  6
CONTINUOUS
 10
326.4269839791
 20
200.0607092075
 40
9.9288995891
100
AcDbArc
 50
222.4612805207
 51
222.7632266143
  0
ARC
  5
53A
100
AcDbEntity
  8
0
100
AcDbCircle
 62
7
  6
CONTINUOUS
 10
327.5772068464
 20
253.4481824832
 40
3.6033355201
100
AcDbArc
 50
84.1882841446
 51
89.9744809055
  0
ARC
  5
53B
100
AcDbEntity
  8
0
100
AcDbCircle
 62
7
  6
CONTINUOUS
 10
310.5776027841
 20
237.9213199101
 40
0.5000006111
100
AcDbArc
 50
179.9998457868
 51
269.9967843036
  0
ARC
  5
53C
100
AcDbEntity
  8
0
100
AcDbCircle
 62
7
  6
CONTINUOUS
 10
310.5777373117
 20
235.8210372157
 40
0.500000168
100
AcDbArc
 50
89.9974659298
 51
179.9999982497
  0
ARC
  5
53D
100
AcDbEntity
  8
0
100
AcDbCircle
 62
7
  6
CONTINUOUS
 10
310.5775455532
 20
267.3468711307
 40
0.4998290319
100
AcDbArc
 50
93.9255473623
 51
180.0181134715
  0
ARC
  5
53E
100
AcDbEntity
  8
0
100
AcDbCircle
 62
7
  6
CONTINUOUS
 10
327.5777564989
 20
202.6540534015
 40
30.3971503426
100
AcDbArc
 50
125.1536622318
 51
54.8462622336
  0
ARC
  5
53F
100
AcDbEntity
  8
0
100
AcDbCircle
 62
7
  6
CONTINUOUS
 10
327.5777564989
 20
202.6540534015
 40
30.0
100
AcDbArc
 50
125.6862630294
 51
54.3136362626
  0
ARC
  5
540
100
AcDbEntity
  8
0
100
AcDbCircle
 62
7
  6
CONTINUOUS
 10
327.5777564989
 20
202.6540534015
 40
28.4060884831
100
AcDbArc
 50
128.0189721045
 51
51.9801162225
  0
ARC
  5
541
100
AcDbEntity
  8
0
100
AcDbCircle
 62
7
  6
CONTINUOUS
 10
329.6029038326
 20
204.9397552665
 40
15.9604769128
100
AcDbArc
 50
140.3809017321
 51
140.7868381286
  0
ARC
  5
542
100
AcDbEntity
  8
0
100
AcDbCircle
 62
7
  6
CONTINUOUS
 10
329.5513313615
 20
204.982386518
 40
15.8935654708
100
AcDbArc
 50
140.2184927769
 51
140.3807290906
  0
ARC
  5
543
100
AcDbEntity
  8
0
100
AcDbCircle
 62
7
  6
CONTINUOUS
 10
329.4944416627
 20
205.029842563
 40
15.819480996
100
AcDbArc
 50
139.7365272804
 51
140.2187389212
  0
ARC
  5
544
100
AcDbEntity
  8
0
100
AcDbCircle
 62
7
  6
CONTINUOUS
 10
329.3200326189
 20
205.1785073279
 40
15.5903103218
100
AcDbArc
 50
138.1218026557
 51
139.7391807765
  0
ARC
  5
545
100
AcDbEntity
  8
0
100
AcDbCircle
 62
7
  6
CONTINUOUS
 10
327.5918960151
 20
207.8403029581
 40
12.3135111064
100
AcDbArc
 50
89.5498497206
 51
90.0643110311
  0
ARC
  5
546
100
AcDbEntity
  8
0
100
AcDbCircle
 62
7
  6
CONTINUOUS
 10
327.587637101
 20
207.8421307886
 40
12.3118007004
100
AcDbArc
 50
86.3522852097
 51
87.3499040156
  0
ARC
  5
547
100
AcDbEntity
  8
0
100
AcDbCircle
 62
7
  6
CONTINUOUS
 10
327.5927625424
 20
207.9319765668
 40
12.22183352
100
AcDbArc
 50
88.5126913707
 51
89.550535407
  0
ARC
  5
548
100
AcDbEntity
  8
0
100
AcDbCircle
 62
7
  6
CONTINUOUS
 10
327.5919879369
 20
207.9372367289
 40
12.2165953065
100
AcDbArc
 50
87.3496640072
 51
88.5084805859
  0
ARC
  5
549
100
AcDbEntity
  8
0
100
AcDbCircle
 62
7
  6
CONTINUOUS
 10
344.5776738439
 20
237.9212240865
 40
0.5000005133
100
AcDbArc
 50
269.9965090995
 51
359.9998408656
  0
ARC
  5
54A
100
AcDbEntity
  8
0
100
AcDbCircle
 62
7
  6
CONTINUOUS
 10
344.577777405
 20
235.8210412351
 40
0.5000001253
100
AcDbArc
 50
0.0000169858
 51
90.0062411618
  0
ARC
  5
54B
100
AcDbEntity
  8
0
100
AcDbCircle
 62
7
  6
CONTINUOUS
 10
344.5779082693
 20
267.3467651189
 40
0.4998283727
100
AcDbArc
 50
359.9814546651
 51
86.0741017398
  0
ARC
  5
54C
100
AcDbEntity
  8
0
100
AcDbCircle
 62
7
  6
CONTINUOUS
 10
211.9918567153
 20
562.7977444786
 40
219.2759626692
100
AcDbArc
 50
257.3302013172
 51
259.3132363388
  0
ARC
  5
54D
100
AcDbEntity
  8
0
100
AcDbCircle
 62
7
  6
CONTINUOUS
 10
193.4869643856
 20
233.9409939167
 40
150.3634647594
100
AcDbArc
 50
77.873519804
 51
77.9957187214
  0
ARC
  5
54E
100
AcDbEntity
  8
0
100
AcDbCircle
 62
7
  6
CONTINUOUS
 10
197.707447776
 20
253.6550424496
 40
130.2027285062
100
AcDbArc
 50
78.0080260898
 51
78.4328490355
  0
ARC
  5
54F
100
AcDbEntity
  8
0
100
AcDbCircle
 62
7
  6
CONTINUOUS
 10
203.9815786505
 20
476.5736688752
 40
81.4292802012
100
AcDbArc
 50
257.6970457302
 51
259.3314098787
  0
ARC
  5
550
100
AcDbEntity
  8
0
100
AcDbCircle
 62
7
  6
CONTINUOUS
 10
207.7710862917
 20
279.0089566435
 40
61.2389880115
100
AcDbArc
 50
112.4360515041
 51
113.0965539077
  0
ARC
  5
551
100
AcDbEntity
  8
0
100
AcDbCircle
 62
7
  6
CONTINUOUS
 10
231.4445510866
 20
436.6994011791
 40
50.5072139712
100
AcDbArc
 50
261.1629320529
 51
261.3736229429
  0
ARC
  5
552
100
AcDbEntity
  8
0
100
AcDbCircle
 62
7
  6
CONTINUOUS
 10
239.3768956268
 20
435.2028706914
 40
49.157309837
100
AcDbArc
 50
276.5508742168
 51
276.749180128
  0
ARC
  5
553
100
AcDbEntity
  8
0
100
AcDbCircle
 62
7
  6
CONTINUOUS
 10
240.068794896
 20
429.4844562181
 40
43.3972115877
100
AcDbArc
 50
276.7292993153
 51
278.5654138294
  0
ARC
  5
554
100
AcDbEntity
  8
0
100
AcDbCircle
 62
7
  6
CONTINUOUS
 10
254.5022539538
 20
357.287005222
 40
40.2069468149
100
AcDbArc
 50
355.7274848765
 51
355.8726168093
  0
ARC
  5
555
100
AcDbEntity
  8
0
100
AcDbCircle
 62
7
  6
CONTINUOUS
 10
224.1922038167
 20
403.9796744881
 40
16.5959746486
100
AcDbArc
 50
253.0953672584
 51
253.985760585
  0
ARC
  5
556
100
AcDbEntity
  8
0
100
AcDbCircle
 62
7
  6
CONTINUOUS
 10
245.2560984403
 20
403.213392306
 40
16.2366154811
100
AcDbArc
 50
284.191698109
 51
284.600433161
  0
ARC
  5
557
100
AcDbEntity
  8
0
100
AcDbCircle
 62
7
  6
CONTINUOUS
 10
285.0622192338
 20
362.3841062148
 40
14.8659094686
100
AcDbArc
 50
1.830719747
 51
15.4388445545
  0
ARC
  5
558
100
AcDbEntity
  8
0
100
AcDbCircle
 62
7
  6
CONTINUOUS
 10
285.391104676
 20
362.4008709048
 40
14.5366576652
100
AcDbArc
 50
0.2950052514
 51
1.806088151
  0
ARC
  5
559
100
AcDbEntity
  8
0
100
AcDbCircle
 62
7
  6
CONTINUOUS
 10
285.4750690805
 20
362.4015617318
 40
14.452690819
100
AcDbArc
 50
359.93445679
 51
0.2939804515
  0
ARC
  5
55A
100
AcDbEntity
  8
0
100
AcDbCircle
 62
7
  6
CONTINUOUS
 10
177.15360681
 20
345.6882462117
 40
13.6209884499
100
AcDbArc
 50
317.6341920702
 51
317.8880197153
  0
ARC
  5
55B
100
AcDbEntity
  8
0
100
AcDbCircle
 62
7
  6
CONTINUOUS
 10
174.48606603
 20
344.7889237287
 40
12.1594623725
100
AcDbArc
 50
278.4961460325
 51
279.5869830758
  0
ARC
  5
55C
100
AcDbEntity
  8
0
100
AcDbCircle
 62
7
  6
CONTINUOUS
 10
267.2100529147
 20
367.7196802225
 40
9.5626043388
100
AcDbArc
 50
79.3602623182
 51
79.8528931839
  0
ARC
  5
55D
100
AcDbEntity
  8
0
100
AcDbCircle
 62
7
  6
CONTINUOUS
 10
267.1642069237
 20
367.9159764755
 40
9.364112395
100
AcDbArc
 50
78.8701499473
 51
79.36027042
  0
ARC
  5
55E
100
AcDbEntity
  8
0
100
AcDbCircle
 62
7
  6
CONTINUOUS
 10
267.2181898373
 20
368.6402828376
 40
8.6358505791
100
AcDbArc
 50
93.92493127
 51
98.631031617
  0
ARC
  5
55F
100
AcDbEntity
  8
0
100
AcDbCircle
 62
7
  6
CONTINUOUS
 10
211.8949712069
 20
360.443056795
 40
8.3967805937
100
AcDbArc
 50
77.7788127862
 51
79.4350967088
  0
ARC
  5
560
100
AcDbEntity
  8
0
100
AcDbCircle
 62
7
  6
CONTINUOUS
 10
253.1369611934
 20
367.1286015283
 40
7.9583777351
100
AcDbArc
 50
79.3501743436
 51
80.9190999806
  0
ARC
  5
561
100
AcDbEntity
  8
0
100
AcDbCircle
 62
7
  6
CONTINUOUS
 10
188.2757393387
 20
330.2370169398
 40
6.3993729821
100
AcDbArc
 50
100.886097346
 51
102.678420667
  0
ARC
  5
562
100
AcDbEntity
  8
0
100
AcDbCircle
 62
7
  6
CONTINUOUS
 10
194.8914813137
 20
360.0464705881
 40
6.1121112253
100
AcDbArc
 50
79.3560448488
 51
82.2940172999
  0
ARC
  5
563
100
AcDbEntity
  8
0
100
AcDbCircle
 62
7
  6
CONTINUOUS
 10
188.0377821438
 20
331.4779580763
 40
5.1358232421
100
AcDbArc
 50
98.7315093582
 51
100.8937457083
  0
ARC
  5
564
100
AcDbEntity
  8
0
100
AcDbCircle
 62
7
  6
CONTINUOUS
 10
187.9630624551
 20
331.5710862515
 40
4.9944490073
100
AcDbArc
 50
98.0482078799
 51
98.5841984847
  0
ARC
  5
565
100
AcDbEntity
  8
0
100
AcDbCircle
 62
7
  6
CONTINUOUS
 10
187.9172803757
 20
331.9100970319
 40
4.6523679845
100
AcDbArc
 50
95.3608206418
 51
98.0744701497
  0
ARC
  5
566
100
AcDbEntity
  8
0
100
AcDbCircle
 62
7
  6
CONTINUOUS
 10
187.8877192576
 20
332.4409301695
 40
4.1612318072
100
AcDbArc
 50
95.7829497066
 51
98.7020392658
  0
ARC
  5
567
100
AcDbEntity
  8
0
100
AcDbCircle
 62
7
  6
CONTINUOUS
 10
187.7948770127
 20
337.7426025718
 40
3.1972569642
100
AcDbArc
 50
275.5311479298
 51
278.7149890457
  0
ARC
  5
568
100
AcDbEntity
  8
0
100
AcDbCircle
 62
7
  6
CONTINUOUS
 10
220.4674252075
 20
395.2853826437
 40
1.3766043564
100
AcDbArc
 50
72.2500395162
 51
76.4826400308
  0
ARC
  5
569
100
AcDbEntity
  8
0
100
AcDbCircle
 62
7
  6
CONTINUOUS
 10
188.6385069696
 20
335.5036466706
 40
0.8123800348
100
AcDbArc
 50
18.7831884325
 51
25.6663458055
  0
SPLINE
  5
56A
100
AcDbEntity
  8
0
100
AcDbSpline
 62
7
  6
CONTINUOUS
 70
0
 71
3
 72
17
 73
13
 74
0
 42
0.0000001
 43
0.0000001
 44
0.0000000001
 40
0.0
 40
0.0
 40
0.0
 40
0.0
 40
0.1109585071
 40
0.2299647499
 40
0.3670495808
 40
0.5148303517
 40
0.5873622656
 40
0.6560967488
 40
0.719561748
 40
0.7788147313
 40
0.8907580237
 40
1.0
 40
1.0
 40
1.0
 40
1.0
 10
150.871548133
 20
230.5314695953
 30
0.0
 10
150.895007311
 20
229.8867824322
 30
0.0
 10
151.010659946
 20
228.548450067
 30
0.0
 10
151.667017342
 20
226.4919238268
 30
0.0
 10
152.9681483138
 20
224.511171636
 30
0.0
 10
154.4020458516
 20
222.9940885034
 30
0.0
 10
155.710029843
 20
221.9354232692
 30
0.0
 10
156.7082123033
 20
221.2819998799
 30
0.0
 10
157.7137697859
 20
220.7966614647
 30
0.0
 10
159.0146575949
 20
220.3729873821
 30
0.0
 10
160.6414631442
 20
220.1512551108
 30
0.0
 10
161.9277476172
 20
220.1516784736
 30
0.0
 10
162.5628815187
 20
220.1515378914
 30
0.0
  0
SPLINE
  5
56B
100
AcDbEntity
  8
0
100
AcDbSpline
 62
7
  6
CONTINUOUS
 70
0
 71
3
 72
19
 73
15
 74
0
 42
0.0000001
 43
0.0000001
 44
0.0000000001
 40
0.0
 40
0.0
 40
0.0
 40
0.0
 40
0.1105061031
 40
0.2246974716
 40
0.2862784938
 40
0.3533223585
 40
0.4254294062
 40
0.5001728838
 40
0.5748989714
 40
0.6469569218
 40
0.7139306117
 40
0.775439182
 40
0.8895291892
 40
1.0
 40
1.0
 40
1.0
 40
1.0
 10
115.8542441889
 20
231.9540205965
 30
0.0
 10
115.8542441888
 20
231.2572945187
 30
0.0
 10
115.8553830195
 20
229.8398570801
 30
0.0
 10
115.5635253021
 20
228.0415927082
 30
0.0
 10
115.0142684283
 20
226.6066591364
 30
0.0
 10
114.389999125
 20
225.5010756313
 30
0.0
 10
113.5884596128
 20
224.4133545199
 30
0.0
 10
112.6502164494
 20
223.3753828446
 30
0.0
 10
111.6173868483
 20
222.4319326012
 30
0.0
 10
110.5343000897
 20
221.6255485606
 30
0.0
 10
109.4323510413
 20
220.9972142496
 30
0.0
 10
108.0004561522
 20
220.4441072137
 30
0.0
 10
106.2037142371
 20
220.1497398765
 30
0.0
 10
104.7871388313
 20
220.1501061136
 30
0.0
 10
104.0906353898
 20
220.1496925274
 30
0.0
  0
SPLINE
  5
56C
100
AcDbEntity
  8
0
100
AcDbSpline
 62
7
  6
CONTINUOUS
 70
0
 71
3
 72
9
 73
5
 74
0
 42
0.0000001
 43
0.0000001
 44
0.0000000001
 40
0.0
 40
0.0
 40
0.0
 40
0.0
 40
0.089876494
 40
1.0
 40
1.0
 40
1.0
 40
1.0
 10
48.8637441785
 20
189.6564286552
 30
0.0
 10
48.8685874891
 20
189.659525462
 30
0.0
 10
48.9225971729
 20
189.693792006
 30
0.0
 10
48.977132777
 20
189.7272248019
 30
0.0
 10
49.0268638765
 20
189.7574847463
 30
0.0
  0
SPLINE
  5
56D
100
AcDbEntity
  8
0
100
AcDbSpline
 62
7
  6
CONTINUOUS
 70
0
 71
3
 72
10
 73
6
 74
0
 42
0.0000001
 43
0.0000001
 44
0.0000000001
 40
0.0
 40
0.0
 40
0.0
 40
0.0
 40
0.1703889587
 40
0.4088866563
 40
1.0
 40
1.0
 40
1.0
 40
1.0
 10
49.2504231065
 20
189.8915882142
 30
0.0
 10
49.5549041552
 20
190.072090858
 30
0.0
 10
50.2913955068
 20
190.4955546542
 30
0.0
 10
52.1048659185
 20
191.5073869311
 30
0.0
 10
53.6593318863
 20
192.266979236
 30
0.0
 10
54.8071835832
 20
192.7032636717
 30
0.0
  0
SPLINE
  5
56E
100
AcDbEntity
  8
0
100
AcDbSpline
 62
7
  6
CONTINUOUS
 70
0
 71
3
 72
9
 73
5
 74
0
 42
0.0000001
 43
0.0000001
 44
0.0000000001
 40
0.0
 40
0.0
 40
0.0
 40
0.0
 40
0.2450238112
 40
1.0
 40
1.0
 40
1.0
 40
1.0
 10
55.4735567557
 20
192.9419825518
 30
0.0
 10
55.7418015002
 20
193.0319430451
 30
0.0
 10
56.8447585429
 20
193.3704459497
 30
0.0
 10
58.0023946233
 20
193.562772671
 30
0.0
 10
58.8741615527
 20
193.5619826386
 30
0.0
  0
SPLINE
  5
56F
100
AcDbEntity
  8
0
100
AcDbSpline
 62
7
  6
CONTINUOUS
 70
0
 71
3
 72
9
 73
5
 74
0
 42
0.0000001
 43
0.0000001
 44
0.0000000001
 40
0.0
 40
0.0
 40
0.0
 40
0.0
 40
0.50821482
 40
1.0
 40
1.0
 40
1.0
 40
1.0
 10
59.2595127181
 20
193.5520247167
 30
0.0
 10
59.7145609508
 20
193.5289377795
 30
0.0
 10
60.6078805129
 20
193.4032889329
 30
0.0
 10
61.4648722899
 20
193.1267190347
 30
0.0
 10
61.8739712362
 20
192.9622983771
 30
0.0
  0
SPLINE
  5
570
100
AcDbEntity
  8
0
100
AcDbSpline
 62
7
  6
CONTINUOUS
 70
0
 71
3
 72
9
 73
5
 74
0
 42
0.0000001
 43
0.0000001
 44
0.0000000001
 40
0.0
 40
0.0
 40
0.0
 40
0.0
 40
0.2660322359
 40
1.0
 40
1.0
 40
1.0
 40
1.0
 10
62.5317054864
 20
192.6704251498
 30
0.0
 10
62.7044833307
 20
192.5866285406
 30
0.0
 10
63.3457938001
 20
192.2547418288
 30
0.0
 10
63.9560961933
 20
191.8655966583
 30
0.0
 10
64.3902797168
 20
191.5620157683
 30
0.0
  0
SPLINE
  5
571
100
AcDbEntity
  8
0
100
AcDbSpline
 62
7
  6
CONTINUOUS
 70
0
 71
3
 72
9
 73
5
 74
0
 42
0.0000001
 43
0.0000001
 44
0.0000000001
 40
0.0
 40
0.0
 40
0.0
 40
0.0
 40
0.2948721216
 40
1.0
 40
1.0
 40
1.0
 40
1.0
 10
65.5440515247
 20
190.6970846388
 30
0.0
 10
65.6275549976
 20
190.6303707036
 30
0.0
 10
65.9092720228
 20
190.4022823127
 30
0.0
 10
66.1863556681
 20
190.1685360076
 30
0.0
 10
66.3803394596
 20
190.0021210061
 30
0.0
  0
LINE
  5
572
100
AcDbEntity
  8
0
100
AcDbLine
 62
7
  6
CONTINUOUS
 10
66.3803394596
 20
190.0021210061
 11
66.4141022698
 21
189.9731153544
  0
SPLINE
  5
573
100
AcDbEntity
  8
0
100
AcDbSpline
 62
7
  6
CONTINUOUS
 70
0
 71
3
 72
9
 73
5
 74
0
 42
0.0000001
 43
0.0000001
 44
0.0000000001
 40
0.0
 40
0.0
 40
0.0
 40
0.0
 40
0.4316958447
 40
1.0
 40
1.0
 40
1.0
 40
1.0
 10
66.4141022698
 20
189.9731153544
 30
0.0
 10
66.4663676536
 20
189.92814751
 30
0.0
 10
66.5871385825
 20
189.823628577
 30
0.0
 10
66.7063195134
 20
189.7173029888
 30
0.0
 10
66.7731554665
 20
189.6558741029
 30
0.0
  0
SPLINE
  5
574
100
AcDbEntity
  8
0
100
AcDbSpline
 62
7
  6
CONTINUOUS
 70
0
 71
3
 72
8
 73
4
 74
0
 42
0.0000001
 43
0.0000001
 44
0.0000000001
 40
0.0
 40
0.0
 40
0.0
 40
0.0
 40
1.0
 40
1.0
 40
1.0
 40
1.0
 10
150.8542441889
 20
231.9540514497
 30
0.0
 10
150.8542441889
 20
231.4798224194
 30
0.0
 10
150.8543030788
 20
231.0053849689
 30
0.0
 10
150.871548133
 20
230.5314695953
 30
0.0
  0
SPLINE
  5
575
100
AcDbEntity
  8
0
100
AcDbSpline
 62
7
  6
CONTINUOUS
 70
0
 71
3
 72
22
 73
18
 74
0
 42
0.0000001
 43
0.0000001
 44
0.0000000001
 40
0.0
 40
0.0
 40
0.0
 40
0.0
 40
0.062681967
 40
0.1254023638
 40
0.1881202113
 40
0.2507932956
 40
0.3133870369
 40
0.3759370362
 40
0.438566206
 40
0.5012991947
 40
0.564050853
 40
0.6266924982
 40
0.6891138255
 40
0.751314882
 40
0.8134197021
 40
0.8755285651
 40
1.0
 40
1.0
 40
1.0
 40
1.0
 10
163.8542441889
 20
185.1540534015
 30
0.0
 10
162.0835507723
 20
185.1540534015
 30
0.0
 10
158.5410788712
 20
185.1539338671
 30
0.0
 10
153.2268979425
 20
185.1468964054
 30
0.0
 10
147.913018631
 20
185.1222442842
 30
0.0
 10
142.6027958149
 20
185.0843554739
 30
0.0
 10
137.2968377543
 20
185.1445070237
 30
0.0
 10
131.9973239385
 20
185.4195820346
 30
0.0
 10
126.7160555439
 20
185.9715103659
 30
0.0
 10
121.4496060721
 20
186.6826330086
 30
0.0
 10
116.1926579031
 20
187.461682211
 30
0.0
 10
110.9403369489
 20
188.2119531565
 30
0.0
 10
105.6859896195
 20
188.8342379287
 30
0.0
 10
100.4258682425
 20
189.2444357942
 30
0.0
 10
95.1650882096
 20
189.4916052696
 30
0.0
 10
88.14146337
 20
189.6559799354
 30
0.0
 10
82.8704026977
 20
189.6558740982
 30
0.0
 10
79.3542279346
 20
189.6558740982
 30
0.0
  0
SPLINE
  5
576
100
AcDbEntity
  8
0
100
AcDbSpline
 62
7
  6
CONTINUOUS
 70
0
 71
3
 72
9
 73
5
 74
0
 42
0.0000001
 43
0.0000001
 44
0.0000000001
 40
0.0
 40
0.0
 40
0.0
 40
0.0
 40
0.5071422046
 40
1.0
 40
1.0
 40
1.0
 40
1.0
 10
58.6117054723
 20
193.6086620975
 30
0.0
 10
58.0183515642
 20
193.5864451769
 30
0.0
 10
56.8511031093
 20
193.4205390234
 30
0.0
 10
55.7294930699
 20
193.07570517
 30
0.0
 10
55.1855782162
 20
192.8829931957
 30
0.0
  0
SPLINE
  5
577
100
AcDbEntity
  8
0
100
AcDbSpline
 62
7
  6
CONTINUOUS
 70
0
 71
3
 72
13
 73
9
 74
0
 42
0.0000001
 43
0.0000001
 44
0.0000000001
 40
0.0
 40
0.0
 40
0.0
 40
0.0
 40
0.0135009225
 40
0.0625457416
 40
0.1451988874
 40
0.2593370659
 40
0.5751949737
 40
1.0
 40
1.0
 40
1.0
 40
1.0
 10
48.8110303601
 20
189.6558740982
 30
0.0
 10
48.8085286687
 20
189.6558740982
 30
0.0
 10
48.8289022845
 20
189.6685187566
 30
0.0
 10
48.8401302597
 20
189.6765103636
 30
0.0
 10
48.8856283365
 20
189.704043902
 30
0.0
 10
48.9628204412
 20
189.7512178157
 30
0.0
 10
49.101215807
 20
189.8348825441
 30
0.0
 10
49.2180651593
 20
189.9046364108
 30
0.0
 10
49.2858036428
 20
189.9447315323
 30
0.0
  0
SPLINE
  5
578
100
AcDbEntity
  8
0
100
AcDbSpline
 62
7
  6
CONTINUOUS
 70
0
 71
3
 72
9
 73
5
 74
0
 42
0.0000001
 43
0.0000001
 44
0.0000000001
 40
0.0
 40
0.0
 40
0.0
 40
0.0
 40
0.4157507391
 40
1.0
 40
1.0
 40
1.0
 40
1.0
 10
49.2858036428
 20
189.9447315323
 30
0.0
 10
50.0725449181
 20
190.4104119758
 30
0.0
 10
51.984231628
 20
191.4949587003
 30
0.0
 10
53.9754085062
 20
192.4516069916
 30
0.0
 10
55.1855782162
 20
192.8829931957
 30
0.0
  0
SPLINE
  5
579
100
AcDbEntity
  8
0
100
AcDbSpline
 62
7
  6
CONTINUOUS
 70
0
 71
3
 72
9
 73
5
 74
0
 42
0.0000001
 43
0.0000001
 44
0.0000000001
 40
0.0
 40
0.0
 40
0.0
 40
0.0
 40
0.2712586469
 40
1.0
 40
1.0
 40
1.0
 40
1.0
 10
62.1134737503
 20
192.9091482453
 30
0.0
 10
62.3638453749
 20
192.8003469047
 30
0.0
 10
63.2717013887
 20
192.3639040964
 30
0.0
 10
64.1198749424
 20
191.8129504653
 30
0.0
 10
64.7133737968
 20
191.3821083409
 30
0.0
  0
SPLINE
  5
57A
100
AcDbEntity
  8
0
100
AcDbSpline
 62
7
  6
CONTINUOUS
 70
0
 71
3
 72
9
 73
5
 74
0
 42
0.0000001
 43
0.0000001
 44
0.0000000001
 40
0.0
 40
0.0
 40
0.0
 40
0.0
 40
0.4904166091
 40
1.0
 40
1.0
 40
1.0
 40
1.0
 10
62.1134737503
 20
192.9091482453
 30
0.0
 10
61.6571736949
 20
193.1000324271
 30
0.0
 10
60.7041643915
 20
193.4445954166
 30
0.0
 10
59.6964094296
 20
193.5843983698
 30
0.0
 10
59.1829644977
 20
193.6071441068
 30
0.0
  0
SPLINE
  5
57B
100
AcDbEntity
  8
0
100
AcDbSpline
 62
7
  6
CONTINUOUS
 70
0
 71
3
 72
9
 73
5
 74
0
 42
0.0000001
 43
0.0000001
 44
0.0000000001
 40
0.0
 40
0.0
 40
0.0
 40
0.0
 40
0.2610148225
 40
1.0
 40
1.0
 40
1.0
 40
1.0
 10
68.50016503
 20
113.4345865701
 30
0.0
 10
68.4764913746
 20
113.725718931
 30
0.0
 10
68.3945049755
 20
114.8417609054
 30
0.0
 10
68.3542251385
 20
115.9611370949
 30
0.0
 10
68.3542441986
 20
116.7881116476
 30
0.0
  0
SPLINE
  5
57C
100
AcDbEntity
  8
0
100
AcDbSpline
 62
7
  6
CONTINUOUS
 70
0
 71
3
 72
9
 73
5
 74
0
 42
0.0000001
 43
0.0000001
 44
0.0000000001
 40
0.0
 40
0.0
 40
0.0
 40
0.0
 40
0.2610015225
 40
1.0
 40
1.0
 40
1.0
 40
1.0
 10
68.5001402295
 20
120.1394168221
 30
0.0
 10
68.4764816444
 20
119.8484919207
 30
0.0
 10
68.3945410869
 20
118.7331883847
 30
0.0
 10
68.3542634493
 20
117.6145542995
 30
0.0
 10
68.3542441986
 20
116.7881116476
 30
0.0
  0
SPLINE
  5
57D
100
AcDbEntity
  8
0
100
AcDbSpline
 62
7
  6
CONTINUOUS
 70
0
 71
3
 72
10
 73
6
 74
0
 42
0.0000001
 43
0.0000001
 44
0.0000000001
 40
0.0
 40
0.0
 40
0.0
 40
0.0
 40
0.4987786537
 40
0.7247519597
 40
1.0
 40
1.0
 40
1.0
 40
1.0
 10
68.730191734
 20
113.2049013481
 30
0.0
 10
68.6721321622
 20
113.2052935287
 30
0.0
 10
68.5723040911
 20
113.2097182218
 30
0.0
 10
68.5111832265
 20
113.3178772818
 30
0.0
 10
68.5054272702
 20
113.3761039008
 30
0.0
 10
68.5024517909
 20
113.4080060022
 30
0.0
  0
SPLINE
  5
57E
100
AcDbEntity
  8
0
100
AcDbSpline
 62
7
  6
CONTINUOUS
 70
0
 71
3
 72
20
 73
16
 74
0
 42
0.0000001
 43
0.0000001
 44
0.0000000001
 40
0.0
 40
0.0
 40
0.0
 40
0.0
 40
0.0003560487
 40
0.0024222526
 40
0.0080256555
 40
0.0196339934
 40
0.0401360041
 40
0.0732374113
 40
0.1212673158
 40
0.1831866105
 40
0.2572692583
 40
0.3422419627
 40
0.5396572555
 40
0.7632542546
 40
1.0
 40
1.0
 40
1.0
 40
1.0
 10
68.7493073611
 20
120.3691431619
 30
0.0
 10
68.7497278452
 20
120.3692065279
 30
0.0
 10
68.7506112123
 20
120.3651699709
 30
0.0
 10
68.7522065771
 20
120.3577216856
 30
0.0
 10
68.753912798
 20
120.3328026189
 30
0.0
 10
68.756609812
 20
120.2892441553
 30
0.0
 10
68.7597703627
 20
120.2105808198
 30
0.0
 10
68.7618581023
 20
120.0896479449
 30
0.0
 10
68.7633902755
 20
119.918611003
 30
0.0
 10
68.764248225
 20
119.6988983506
 30
0.0
 10
68.7645091332
 20
119.434959488
 30
0.0
 10
68.7638370804
 20
119.0092352004
 30
0.0
 10
68.7609614399
 20
118.4049326053
 30
0.0
 10
68.7573190277
 20
117.6193789688
 30
0.0
 10
68.7547755859
 20
117.0695909946
 30
0.0
 10
68.7545944024
 20
116.7868437151
 30
0.0
  0
SPLINE
  5
57F
100
AcDbEntity
  8
0
100
AcDbSpline
 62
7
  6
CONTINUOUS
 70
0
 71
3
 72
19
 73
15
 74
0
 42
0.0000001
 43
0.0000001
 44
0.0000000001
 40
0.0
 40
0.0
 40
0.0
 40
0.0
 40
0.0003599351
 40
0.0024354907
 40
0.0080472107
 40
0.0195043071
 40
0.0400002355
 40
0.0729779161
 40
0.1209320945
 40
0.1828103951
 40
0.341814562
 40
0.539277891
 40
0.7629476508
 40
1.0
 40
1.0
 40
1.0
 40
1.0
 10
68.7493392046
 20
113.2048484652
 30
0.0
 10
68.7497681431
 20
113.2048204223
 30
0.0
 10
68.7509655326
 20
113.2085158612
 30
0.0
 10
68.7527093191
 20
113.2164177183
 30
0.0
 10
68.7546920652
 20
113.2407080556
 30
0.0
 10
68.7570818442
 20
113.2844344003
 30
0.0
 10
68.7602376364
 20
113.3625625239
 30
0.0
 10
68.7623051933
 20
113.4833475823
 30
0.0
 10
68.7637140783
 20
113.6540436733
 30
0.0
 10
68.7647714931
 20
113.9750244109
 30
0.0
 10
68.7644045072
 20
114.4746886983
 30
0.0
 10
68.7613170948
 20
115.1674932215
 30
0.0
 10
68.7562296711
 20
115.9535243196
 30
0.0
 10
68.7544129924
 20
116.503742864
 30
0.0
 10
68.7545944024
 20
116.7868437151
 30
0.0
  0
SPLINE
  5
580
100
AcDbEntity
  8
0
100
AcDbSpline
 62
7
  6
CONTINUOUS
 70
0
 71
3
 72
9
 73
5
 74
0
 42
0.0000001
 43
0.0000001
 44
0.0000000001
 40
0.0
 40
0.0
 40
0.0
 40
0.0
 40
0.516066004
 40
1.0
 40
1.0
 40
1.0
 40
1.0
 10
45.2970362689
 20
105.7388063353
 30
0.0
 10
45.1127512878
 20
107.6335626517
 30
0.0
 10
44.8187100553
 20
111.311942886
 30
0.0
 10
44.7119885216
 20
115.0013963334
 30
0.0
 10
44.7119882837
 20
116.7865627901
 30
0.0
  0
SPLINE
  5
581
100
AcDbEntity
  8
0
100
AcDbSpline
 62
7
  6
CONTINUOUS
 70
0
 71
3
 72
9
 73
5
 74
0
 42
0.0000001
 43
0.0000001
 44
0.0000000001
 40
0.0
 40
0.0
 40
0.0
 40
0.0
 40
0.5160718303
 40
1.0
 40
1.0
 40
1.0
 40
1.0
 10
45.2972655987
 20
127.8366835954
 30
0.0
 10
45.1129118654
 20
125.9415019033
 30
0.0
 10
44.8187552204
 20
122.2623362237
 30
0.0
 10
44.7119885216
 20
118.5720908494
 30
0.0
 10
44.7119882837
 20
116.7865627901
 30
0.0
  0
SPLINE
  5
582
100
AcDbEntity
  8
0
100
AcDbSpline
 62
7
  6
CONTINUOUS
 70
0
 71
3
 72
20
 73
16
 74
0
 42
0.0000001
 43
0.0000001
 44
0.0000000001
 40
0.0
 40
0.0
 40
0.0
 40
0.0
 40
0.2347193671
 40
0.4565747546
 40
0.6529884334
 40
0.7378958426
 40
0.8120844918
 40
0.8740995063
 40
0.9224730673
 40
0.9568264568
 40
0.9785990192
 40
0.9911916191
 40
0.9974286315
 40
0.999677389
 40
1.0
 40
1.0
 40
1.0
 40
1.0
 10
45.810734295
 20
116.7865534856
 30
0.0
 10
45.8116119968
 20
115.886798039
 30
0.0
 10
45.8149325511
 20
114.1365976779
 30
0.0
 10
45.8242185519
 20
111.633505961
 30
0.0
 10
45.8267765349
 20
109.7046412178
 30
0.0
 10
45.8253603648
 20
108.3418976293
 30
0.0
 10
45.8235588675
 20
107.494211573
 30
0.0
 10
45.8215253146
 20
106.7869473429
 30
0.0
 10
45.8189059049
 20
106.2313927194
 30
0.0
 10
45.8141344083
 20
105.8324649522
 30
0.0
 10
45.8103121266
 20
105.5658548932
 30
0.0
 10
45.8026047414
 20
105.4158765947
 30
0.0
 10
45.8017591991
 20
105.3272169682
 30
0.0
 10
45.7952597109
 20
105.3017820634
 30
0.0
 10
45.7959829953
 20
105.2872080359
 30
0.0
 10
45.7947463221
 20
105.2872081977
 30
0.0
  0
SPLINE
  5
583
100
AcDbEntity
  8
0
100
AcDbSpline
 62
7
  6
CONTINUOUS
 70
0
 71
3
 72
10
 73
6
 74
0
 42
0.0000001
 43
0.0000001
 44
0.0000000001
 40
0.0
 40
0.0
 40
0.0
 40
0.0
 40
0.3326524372
 40
0.6663090632
 40
1.0
 40
1.0
 40
1.0
 40
1.0
 10
323.9953423683
 20
252.3091489489
 30
0.0
 10
323.9953472057
 20
253.1556446899
 30
0.0
 10
323.9968166073
 20
254.850432225
 30
0.0
 10
325.4570332737
 20
256.6331173896
 30
0.0
 10
326.8708524585
 20
257.0515630978
 30
0.0
 10
327.5777864477
 20
257.0515178583
 30
0.0
  0
SPLINE
  5
584
100
AcDbEntity
  8
0
100
AcDbSpline
 62
7
  6
CONTINUOUS
 70
0
 71
3
 72
10
 73
6
 74
0
 42
0.0000001
 43
0.0000001
 44
0.0000000001
 40
0.0
 40
0.0
 40
0.0
 40
0.0
 40
0.3330221038
 40
0.6660099639
 40
1.0
 40
1.0
 40
1.0
 40
1.0
 10
327.5777568576
 20
247.5514305869
 30
0.0
 10
326.8708228648
 20
247.5513897506
 30
0.0
 10
325.4570056974
 20
247.9698442683
 30
0.0
 10
323.9938701325
 20
249.7561188581
 30
0.0
 10
323.9953375017
 20
251.4575425193
 30
0.0
 10
323.9953423683
 20
252.3091489489
 30
0.0
  0
SPLINE
  5
585
100
AcDbEntity
  8
0
100
AcDbSpline
 62
7
  6
CONTINUOUS
 70
0
 71
3
 72
10
 73
6
 74
0
 42
0.0000001
 43
0.0000001
 44
0.0000000001
 40
0.0
 40
0.0
 40
0.0
 40
0.0
 40
0.3662516363
 40
0.734387451
 40
1.0
 40
1.0
 40
1.0
 40
1.0
 10
327.5883922573
 20
247.5514469879
 30
0.0
 10
328.2916328726
 20
247.5535751941
 30
0.0
 10
329.7006172721
 20
247.9729365288
 30
0.0
 10
331.023889479
 20
249.588657395
 30
0.0
 10
331.1406685419
 20
250.9893582226
 30
0.0
 10
331.154300397
 20
251.5948412071
 30
0.0
  0
SPLINE
  5
586
100
AcDbEntity
  8
0
100
AcDbSpline
 62
7
  6
CONTINUOUS
 70
0
 71
3
 72
8
 73
4
 74
0
 42
0.0000001
 43
0.0000001
 44
0.0000000001
 40
0.0
 40
0.0
 40
0.0
 40
0.0
 40
1.0
 40
1.0
 40
1.0
 40
1.0
 10
331.154300397
 20
251.5948412071
 30
0.0
 10
331.1586726958
 20
251.7890446043
 30
0.0
 10
331.1594122903
 20
251.9851440118
 30
0.0
 10
331.1595378187
 20
252.1815639726
 30
0.0
  0
LINE
  5
587
100
AcDbEntity
  8
0
100
AcDbLine
 62
7
  6
CONTINUOUS
 10
331.1595378187
 20
252.1815639726
 11
331.1595636034
 21
252.3014614973
  0
SPLINE
  5
588
100
AcDbEntity
  8
0
100
AcDbSpline
 62
7
  6
CONTINUOUS
 70
0
 71
3
 72
8
 73
4
 74
0
 42
0.0000001
 43
0.0000001
 44
0.0000000001
 40
0.0
 40
0.0
 40
0.0
 40
0.0
 40
1.0
 40
1.0
 40
1.0
 40
1.0
 10
331.1595636034
 20
252.3014614973
 30
0.0
 10
331.1595644854
 20
252.5845373768
 30
0.0
 10
331.1595653577
 20
252.8676133888
 30
0.0
 10
331.1505394645
 20
253.1459783149
 30
0.0
  0
SPLINE
  5
589
100
AcDbEntity
  8
0
100
AcDbSpline
 62
7
  6
CONTINUOUS
 70
0
 71
3
 72
10
 73
6
 74
0
 42
0.0000001
 43
0.0000001
 44
0.0000000001
 40
0.0
 40
0.0
 40
0.0
 40
0.0
 40
0.3333104797
 40
0.6666552399
 40
1.0
 40
1.0
 40
1.0
 40
1.0
 10
327.5777568576
 20
247.5514305869
 30
0.0
 10
328.2845454665
 20
247.5514714144
 30
0.0
 10
329.6981740879
 20
247.9699533907
 30
0.0
 10
331.1595556671
 20
249.7543063746
 30
0.0
 10
331.1595609579
 20
251.4524083578
 30
0.0
 10
331.1595636034
 20
252.3014605871
 30
0.0
  0
SPLINE
  5
58A
100
AcDbEntity
  8
0
100
AcDbSpline
 62
7
  6
CONTINUOUS
 70
0
 71
3
 72
10
 73
6
 74
0
 42
0.0000001
 43
0.0000001
 44
0.0000000001
 40
0.0
 40
0.0
 40
0.0
 40
0.0
 40
0.3333447596
 40
0.6666895192
 40
1.0
 40
1.0
 40
1.0
 40
1.0
 10
331.1595636034
 20
252.3014605871
 30
0.0
 10
331.1595662489
 20
253.1505128165
 30
0.0
 10
331.1595715398
 20
254.8486197505
 30
0.0
 10
329.6982010776
 20
256.6329818438
 30
0.0
 10
328.2845750596
 20
257.0514726284
 30
0.0
 10
327.5777864477
 20
257.0515178583
 30
0.0
  0
SPLINE
  5
58B
100
AcDbEntity
  8
0
100
AcDbSpline
 62
7
  6
CONTINUOUS
 70
0
 71
3
 72
26
 73
22
 74
0
 42
0.0000001
 43
0.0000001
 44
0.0000000001
 40
0.0
 40
0.0
 40
0.0
 40
0.0
 40
0.0628122244
 40
0.1253813196
 40
0.1876516851
 40
0.2498856714
 40
0.3122442964
 40
0.3748635093
 40
0.4376439194
 40
0.4690590615
 40
0.5004743466
 40
0.5318884197
 40
0.5633012981
 40
0.6260520586
 40
0.6885839334
 40
0.750813523
 40
0.8128536831
 40
0.8749460983
 40
0.9372763449
 40
0.9686179215
 40
1.0
 40
1.0
 40
1.0
 40
1.0
 10
327.5783998334
 20
244.7015121338
 30
0.0
 10
327.1364601711
 20
244.6994633076
 30
0.0
 10
326.2494533364
 20
244.8266794751
 30
0.0
 10
325.0263521884
 20
245.3600273753
 30
0.0
 10
323.9775233028
 20
246.1760300345
 30
0.0
 10
323.1400613151
 20
247.2028241523
 30
0.0
 10
322.5365990373
 20
248.3844429708
 30
0.0
 10
322.182080662
 20
249.6654574706
 30
0.0
 10
322.0721633811
 20
250.7668367357
 30
0.0
 10
322.0487826641
 20
251.6502614163
 30
0.0
 10
322.0441528911
 20
252.3133919868
 30
0.0
 10
322.0490685284
 20
252.976511773
 30
0.0
 10
322.073562678
 20
253.8596583789
 30
0.0
 10
322.1857394658
 20
254.9601646985
 30
0.0
 10
322.5455461689
 20
256.2376810877
 30
0.0
 10
323.1486042871
 20
257.4164228353
 30
0.0
 10
323.9900929553
 20
258.4353824234
 30
0.0
 10
325.0341261788
 20
259.2490469072
 30
0.0
 10
326.052906569
 20
259.6895436751
 30
0.0
 10
326.9160737689
 20
259.8714004647
 30
0.0
 10
327.3581007226
 20
259.9011702835
 30
0.0
 10
327.5789034871
 20
259.9015583001
 30
0.0
  0
SPLINE
  5
58C
100
AcDbEntity
  8
0
100
AcDbSpline
 62
7
  6
CONTINUOUS
 70
0
 71
3
 72
21
 73
17
 74
0
 42
0.0000001
 43
0.0000001
 44
0.0000000001
 40
0.0
 40
0.0
 40
0.0
 40
0.0
 40
0.062698486
 40
0.1253648114
 40
0.188216543
 40
0.2508036966
 40
0.3131077062
 40
0.3755345439
 40
0.4999986464
 40
0.6244602657
 40
0.6868917782
 40
0.7491892549
 40
0.8117807616
 40
0.8747099169
 40
0.9371935294
 40
1.0
 40
1.0
 40
1.0
 40
1.0
 10
324.2252107346
 20
252.3014821933
 30
0.0
 10
324.2251716929
 20
252.0341419211
 30
0.0
 10
324.2259980872
 20
251.4994715446
 30
0.0
 10
324.2746998248
 20
250.6977889227
 30
0.0
 10
324.4388125312
 20
249.9059902987
 30
0.0
 10
324.8107140702
 20
249.1855711751
 30
0.0
 10
325.3491741255
 20
248.5846676244
 30
0.0
 10
326.2351243726
 20
247.9820916827
 30
0.0
 10
327.577641961
 20
247.6549037627
 30
0.0
 10
328.9202773192
 20
247.9819408029
 30
0.0
 10
329.8061280747
 20
248.5846225551
 30
0.0
 10
330.3446877618
 20
249.18543236
 30
0.0
 10
330.7167198972
 20
249.906197009
 30
0.0
 10
330.8802800137
 20
250.6976550645
 30
0.0
 10
330.9295896109
 20
251.4992944976
 30
0.0
 10
330.9300423275
 20
252.0336605913
 30
0.0
 10
330.9300436143
 20
252.3014613023
 30
0.0
  0
SPLINE
  5
58D
100
AcDbEntity
  8
0
100
AcDbSpline
 62
7
  6
CONTINUOUS
 70
0
 71
3
 72
21
 73
17
 74
0
 42
0.0000001
 43
0.0000001
 44
0.0000000001
 40
0.0
 40
0.0
 40
0.0
 40
0.0
 40
0.0627280424
 40
0.1251398715
 40
0.1879908362
 40
0.2505111834
 40
0.3127337341
 40
0.3750869506
 40
0.4994188414
 40
0.6240125215
 40
0.6865170398
 40
0.7488921705
 40
0.8115525545
 40
0.8744854061
 40
0.9372137061
 40
1.0
 40
1.0
 40
1.0
 40
1.0
 10
330.9300436143
 20
252.3014613023
 30
0.0
 10
330.9300448995
 20
252.5689278405
 30
0.0
 10
330.9295918141
 20
253.1026534564
 30
0.0
 10
330.8804576179
 20
253.9033234686
 30
0.0
 10
330.7175877927
 20
254.6939134879
 30
0.0
 10
330.3468852996
 20
255.4142497755
 30
0.0
 10
329.8097484003
 20
256.0150201477
 30
0.0
 10
328.9259351113
 20
256.6184873548
 30
0.0
 10
327.584387736
 20
256.9480575007
 30
0.0
 10
326.2407781853
 20
256.6234063107
 30
0.0
 10
325.3528446816
 20
256.0215813444
 30
0.0
 10
324.8129274484
 20
255.4206828792
 30
0.0
 10
324.4397342189
 20
254.6998045796
 30
0.0
 10
324.2749161234
 20
253.907170677
 30
0.0
 10
324.2259409991
 20
253.1045074736
 30
0.0
 10
324.2252395501
 20
252.5691971089
 30
0.0
 10
324.22521107
 20
252.3014821932
 30
0.0
  0
LINE
  5
58E
100
AcDbEntity
  8
0
100
AcDbLine
 62
7
  6
CONTINUOUS
 10
310.5433033991
 20
267.8458682192
 11
344.6121533289
 21
267.8457627167
  0
SPLINE
  5
58F
100
AcDbEntity
  8
0
100
AcDbSpline
 62
7
  6
CONTINUOUS
 70
0
 71
3
 72
26
 73
22
 74
0
 42
0.0000001
 43
0.0000001
 44
0.0000000001
 40
0.0
 40
0.0
 40
0.0
 40
0.0
 40
0.057649474
 40
0.1159893796
 40
0.175627403
 40
0.2370848987
 40
0.3006503161
 40
0.3661545789
 40
0.3994510091
 40
0.4329189751
 40
0.4664457661
 40
0.499985251
 40
0.5670489367
 40
0.6337615572
 40
0.6992650006
 40
0.7628223335
 40
0.8242781418
 40
0.8839110637
 40
0.9132510553
 40
0.9423479164
 40
1.0
 40
1.0
 40
1.0
 40
1.0
 10
327.5789035353
 20
259.9015280767
 30
0.0
 10
327.9845495871
 20
259.90217434
 30
0.0
 10
328.8043071103
 20
259.7959169272
 30
0.0
 10
329.9636004892
 20
259.3343877858
 30
0.0
 10
330.9996949571
 20
258.5928373933
 30
0.0
 10
331.8715648773
 20
257.6162025977
 30
0.0
 10
332.5357921245
 20
256.4389281671
 30
0.0
 10
332.8688015102
 20
255.3379232744
 30
0.0
 10
333.027587832
 20
254.4202035248
 30
0.0
 10
333.0882696226
 20
253.71636991
 30
0.0
 10
333.108720856
 20
253.0090932628
 30
0.0
 10
333.1109431468
 20
252.0654142531
 30
0.0
 10
333.1127541752
 20
250.8870810773
 30
0.0
 10
332.9376544173
 20
249.490681703
 30
0.0
 10
332.5363273994
 20
248.1632140663
 30
0.0
 10
331.8701372942
 20
246.9870486102
 30
0.0
 10
330.9994901141
 20
246.0100072623
 30
0.0
 10
330.1298147884
 20
245.3881032999
 30
0.0
 10
329.3749564933
 20
245.0366443734
 30
0.0
 10
328.5985866149
 20
244.7786522112
 30
0.0
 10
327.9840580232
 20
244.6991733721
 30
0.0
 10
327.5783995682
 20
244.7014652162
 30
0.0
  0
LINE
  5
590
100
AcDbEntity
  8
_CURVE
100
AcDbLine
 62
40
  6
CONTINUOUS
 10
335.5792905146
 20
268.3018372704
 11
335.5793140144
 21
268.3048228905
  0
LINE
  5
591
100
AcDbEntity
  8
_CURVE
100
AcDbLine
 62
40
  6
CONTINUOUS
 10
319.579318541
 20
268.3049576909
 11
319.5792905193
 21
268.3019899073
  0
SPLINE
  5
592
100
AcDbEntity
  8
0
100
AcDbSpline
 62
7
  6
CONTINUOUS
 70
0
 71
3
 72
11
 73
7
 74
0
 42
0.0000001
 43
0.0000001
 44
0.0000000001
 40
0.0
 40
0.0
 40
0.0
 40
0.0
 40
0.068168886
 40
0.2648233598
 40
0.5789937556
 40
1.0
 40
1.0
 40
1.0
 40
1.0
 10
318.9277565595
 20
193.5546897448
 30
0.0
 10
318.929991548
 20
193.5491471046
 30
0.0
 10
318.9488362881
 20
193.533740064
 30
0.0
 10
318.9784968704
 20
193.4932241566
 30
0.0
 10
319.0345649295
 20
193.4331897842
 30
0.0
 10
319.077183452
 20
193.3850200066
 30
0.0
 10
319.1020999458
 20
193.3577903695
 30
0.0
  0
LINE
  5
593
100
AcDbEntity
  8
0
100
AcDbLine
 62
7
  6
CONTINUOUS
 10
318.9409336741
 20
193.53945169
 11
318.9277621629
 21
193.5546838491
  0
SPLINE
  5
594
100
AcDbEntity
  8
0
100
AcDbSpline
 62
7
  6
CONTINUOUS
 70
0
 71
3
 72
9
 73
5
 74
0
 42
0.0000001
 43
0.0000001
 44
0.0000000001
 40
0.0
 40
0.0
 40
0.0
 40
0.0
 40
0.5110353096
 40
1.0
 40
1.0
 40
1.0
 40
1.0
 10
327.4775787955
 20
220.1532852621
 30
0.0
 10
326.2938556556
 20
220.1423414066
 30
0.0
 10
323.9684136582
 20
219.7894149648
 30
0.0
 10
321.8314051126
 20
218.8233098958
 30
0.0
 10
320.8656481929
 20
218.2315270096
 30
0.0
  0
SPLINE
  5
595
100
AcDbEntity
  8
0
100
AcDbSpline
 62
7
  6
CONTINUOUS
 70
0
 71
3
 72
9
 73
5
 74
0
 42
0.0000001
 43
0.0000001
 44
0.0000000001
 40
0.0
 40
0.0
 40
0.0
 40
0.0
 40
0.2598762784
 40
1.0
 40
1.0
 40
1.0
 40
1.0
 10
320.8656481929
 20
218.2315270096
 30
0.0
 10
320.5609683308
 20
218.0448295866
 30
0.0
 10
319.4170590795
 20
217.2802962525
 30
0.0
 10
318.3914112701
 20
216.3434973965
 30
0.0
 10
317.7120235262
 20
215.5858076903
 30
0.0
  0
SPLINE
  5
596
100
AcDbEntity
  8
0
100
AcDbSpline
 62
7
  6
CONTINUOUS
 70
0
 71
3
 72
9
 73
5
 74
0
 42
0.0000001
 43
0.0000001
 44
0.0000000001
 40
0.0
 40
0.0
 40
0.0
 40
0.0
 40
0.5206598289
 40
1.0
 40
1.0
 40
1.0
 40
1.0
 10
317.236737816
 20
215.0300853569
 30
0.0
 10
316.6510109079
 20
214.3122551563
 30
0.0
 10
315.6441711481
 20
212.8333897144
 30
0.0
 10
314.8598579454
 20
211.2324338912
 30
0.0
 10
314.51411487
 20
210.4526997779
 30
0.0
  0
SPLINE
  5
597
100
AcDbEntity
  8
0
100
AcDbSpline
 62
7
  6
CONTINUOUS
 70
0
 71
3
 72
9
 73
5
 74
0
 42
0.0000001
 43
0.0000001
 44
0.0000000001
 40
0.0
 40
0.0
 40
0.0
 40
0.0
 40
0.2563748343
 40
1.0
 40
1.0
 40
1.0
 40
1.0
 10
314.51411487
 20
210.4526997779
 30
0.0
 10
314.453219773
 20
210.3153666311
 30
0.0
 10
314.2192567277
 20
209.7781136256
 30
0.0
 10
313.9960759096
 20
209.2362282127
 30
0.0
 10
313.8334338555
 20
208.8319757182
 30
0.0
  0
SPLINE
  5
598
100
AcDbEntity
  8
0
100
AcDbSpline
 62
7
  6
CONTINUOUS
 70
0
 71
3
 72
24
 73
20
 74
0
 42
0.0000001
 43
0.0000001
 44
0.0000000001
 40
0.0
 40
0.0
 40
0.0
 40
0.0
 40
0.227180487
 40
0.3305568438
 40
0.4251064366
 40
0.5106698125
 40
0.5870124256
 40
0.6529142988
 40
0.706711584
 40
0.7471756178
 40
0.762488813
 40
0.7747862587
 40
0.7924252062
 40
0.8103183132
 40
0.8229558001
 40
0.8387405568
 40
0.8800637146
 40
0.934095556
 40
1.0
 40
1.0
 40
1.0
 40
1.0
 10
313.8334338555
 20
208.8319757182
 30
0.0
 10
313.5391848503
 20
208.1006095593
 30
0.0
 10
313.1333713393
 20
207.0275965892
 30
0.0
 10
312.6079488006
 20
205.6491902337
 30
0.0
 10
312.2463572646
 20
204.7342844968
 30
0.0
 10
311.908198778
 20
203.9110703802
 30
0.0
 10
311.5955288381
 20
203.1849810198
 30
0.0
 10
311.3087933177
 20
202.5678370434
 30
0.0
 10
311.0476604219
 20
202.0768957309
 30
0.0
 10
310.8366824038
 20
201.758949891
 30
0.0
 10
310.6731249192
 20
201.5862790463
 30
0.0
 10
310.5520434861
 20
201.4892959148
 30
0.0
 10
310.3706440876
 20
201.4342453654
 30
0.0
 10
310.2379242069
 20
201.570908793
 30
0.0
 10
310.1731428607
 20
201.7154740629
 30
0.0
 10
310.1020448602
 20
201.9485367199
 30
0.0
 10
310.0465580602
 20
202.3310452942
 30
0.0
 10
310.0168837261
 20
202.8903748338
 30
0.0
 10
310.025556236
 20
203.3068499739
 30
0.0
 10
310.0364354187
 20
203.5352861734
 30
0.0
  0
SPLINE
  5
599
100
AcDbEntity
  8
0
100
AcDbSpline
 62
7
  6
CONTINUOUS
 70
0
 71
3
 72
10
 73
6
 74
0
 42
0.0000001
 43
0.0000001
 44
0.0000000001
 40
0.0
 40
0.0
 40
0.0
 40
0.0
 40
0.3333339538
 40
0.6666669769
 40
1.0
 40
1.0
 40
1.0
 40
1.0
 10
339.0774219651
 20
204.904994531
 30
0.0
 10
339.0774219651
 20
202.1792701605
 30
0.0
 10
339.0774263317
 20
196.7278188043
 30
0.0
 10
334.3857981506
 20
190.9992848799
 30
0.0
 10
329.8473171683
 20
189.6558740982
 30
0.0
 10
327.5780766772
 20
189.6558740982
 30
0.0
  0
SPLINE
  5
59A
100
AcDbEntity
  8
0
100
AcDbSpline
 62
7
  6
CONTINUOUS
 70
0
 71
3
 72
10
 73
6
 74
0
 42
0.0000001
 43
0.0000001
 44
0.0000000001
 40
0.0
 40
0.0
 40
0.0
 40
0.0
 40
0.3333336436
 40
0.6666672872
 40
1.0
 40
1.0
 40
1.0
 40
1.0
 10
327.5780766772
 20
220.154053406
 30
0.0
 10
329.8473171683
 20
220.154053406
 30
0.0
 10
334.3857981506
 20
218.8106426243
 30
0.0
 10
339.0774175985
 20
213.0821193633
 30
0.0
 10
339.0774219651
 20
207.6307036801
 30
0.0
 10
339.0774219651
 20
204.904994531
 30
0.0
  0
SPLINE
  5
59B
100
AcDbEntity
  8
0
100
AcDbSpline
 62
7
  6
CONTINUOUS
 70
0
 71
3
 72
13
 73
9
 74
0
 42
0.0000001
 43
0.0000001
 44
0.0000000001
 40
0.0
 40
0.0
 40
0.0
 40
0.0
 40
0.1666657138
 40
0.3333314276
 40
0.4999971414
 40
0.6666628552
 40
0.833328569
 40
1.0
 40
1.0
 40
1.0
 40
1.0
 10
327.5780766767
 20
189.6558740982
 30
0.0
 10
325.3088361858
 20
189.6558740984
 30
0.0
 10
320.7703552038
 20
190.9992848801
 30
0.0
 10
316.0780854043
 20
196.7278134726
 30
0.0
 10
316.0780854043
 20
204.9049756723
 30
0.0
 10
316.0780854043
 20
213.0821140316
 30
0.0
 10
320.770408857
 20
218.8107081264
 30
0.0
 10
325.3089918704
 20
220.1540994884
 30
0.0
 10
327.5783102031
 20
220.1540534036
 30
0.0
  0
SPLINE
  5
59C
100
AcDbEntity
  8
0
100
AcDbSpline
 62
7
  6
CONTINUOUS
 70
0
 71
3
 72
10
 73
6
 74
0
 42
0.0000001
 43
0.0000001
 44
0.0000000001
 40
0.0
 40
0.0
 40
0.0
 40
0.0
 40
0.1496196246
 40
0.3822544692
 40
1.0
 40
1.0
 40
1.0
 40
1.0
 10
327.5564949823
 20
187.751940368
 30
0.0
 10
327.5463471009
 20
187.8463112036
 30
0.0
 10
327.5335197447
 20
188.0886529236
 30
0.0
 10
327.5124575467
 20
188.7225729757
 30
0.0
 10
327.5082650608
 20
189.2621713738
 30
0.0
 10
327.5082650607
 20
189.6540534015
 30
0.0
  0
SPLINE
  5
59D
100
AcDbEntity
  8
0
100
AcDbSpline
 62
7
  6
CONTINUOUS
 70
0
 71
3
 72
15
 73
11
 74
0
 42
0.0000001
 43
0.0000001
 44
0.0000000001
 40
0.0
 40
0.0
 40
0.0
 40
0.0
 40
0.1250038234
 40
0.24996189
 40
0.3749582113
 40
0.4999203926
 40
0.6248706844
 40
0.7498736852
 40
0.8749348271
 40
1.0
 40
1.0
 40
1.0
 40
1.0
 10
327.5780767041
 20
190.1176368037
 30
0.0
 10
328.4538545447
 20
190.1048239371
 30
0.0
 10
330.2117692818
 20
190.3356641397
 30
0.0
 10
332.6989934959
 20
191.2442719055
 30
0.0
 10
334.897335824
 20
192.7319760597
 30
0.0
 10
336.6742679709
 20
194.7009279341
 30
0.0
 10
337.9044851117
 20
197.0596338442
 30
0.0
 10
338.4604065643
 20
199.6498633279
 30
0.0
 10
338.6231213869
 20
202.275745814
 30
0.0
 10
338.6302281152
 20
204.0287041738
 30
0.0
 10
338.625823828
 20
204.9049945301
 30
0.0
  0
SPLINE
  5
59E
100
AcDbEntity
  8
0
100
AcDbSpline
 62
7
  6
CONTINUOUS
 70
0
 71
3
 72
15
 73
11
 74
0
 42
0.0000001
 43
0.0000001
 44
0.0000000001
 40
0.0
 40
0.0
 40
0.0
 40
0.0
 40
0.1250662327
 40
0.250128673
 40
0.3751338143
 40
0.5000730191
 40
0.6250468212
 40
0.7500384086
 40
0.8749973742
 40
1.0
 40
1.0
 40
1.0
 40
1.0
 10
316.5279465674
 20
204.9049945301
 30
0.0
 10
316.5238465342
 20
204.0286861584
 30
0.0
 10
316.5324069425
 20
202.2756600177
 30
0.0
 10
316.698032459
 20
199.650000489
 30
0.0
 10
317.2515153633
 20
197.0596044996
 30
0.0
 10
318.4799382651
 20
194.6993071972
 30
0.0
 10
320.2602298672
 20
192.7334840944
 30
0.0
 10
322.4567773757
 20
191.2435425647
 30
0.0
 10
324.9443706342
 20
190.3350940413
 30
0.0
 10
326.7023007697
 20
190.1046458566
 30
0.0
 10
327.5780767041
 20
190.1176368037
 30
0.0
  0
SPLINE
  5
59F
100
AcDbEntity
  8
0
100
AcDbSpline
 62
7
  6
CONTINUOUS
 70
0
 71
3
 72
22
 73
18
 74
0
 42
0.0000001
 43
0.0000001
 44
0.0000000001
 40
0.0
 40
0.0
 40
0.0
 40
0.0
 40
0.0625862307
 40
0.1251714383
 40
0.1877279073
 40
0.2502542491
 40
0.3127921592
 40
0.3753361809
 40
0.4378818129
 40
0.500432782
 40
0.624664908
 40
0.6872020701
 40
0.7497515283
 40
0.8122673422
 40
0.8748269428
 40
0.9374142007
 40
1.0
 40
1.0
 40
1.0
 40
1.0
 10
338.6258238275
 20
204.9049945301
 30
0.0
 10
338.6302863855
 20
205.7812906005
 30
0.0
 10
338.6230864994
 20
207.5342090984
 30
0.0
 10
338.4621113973
 20
210.1604579816
 30
0.0
 10
337.9028196635
 20
212.7498092433
 30
0.0
 10
336.6757454982
 20
215.1098062201
 30
0.0
 10
334.897587989
 20
217.0787488379
 30
0.0
 10
332.6984378189
 20
218.5627194874
 30
0.0
 10
330.2085745593
 20
219.4766255494
 30
0.0
 10
326.7194428211
 20
219.9137721346
 30
0.0
 10
323.1725245645
 20
219.0492789274
 30
0.0
 10
320.2628520834
 20
217.0762069561
 30
0.0
 10
318.4748220549
 20
215.1133061345
 30
0.0
 10
317.2585466356
 20
212.747696933
 30
0.0
 10
316.6926397745
 20
210.1608981794
 30
0.0
 10
316.5309033958
 20
207.5341189344
 30
0.0
 10
316.5234024102
 20
205.7812841399
 30
0.0
 10
316.5279465674
 20
204.9049945301
 30
0.0
  0
SPLINE
  5
5A0
100
AcDbEntity
  8
0
100
AcDbSpline
 62
7
  6
CONTINUOUS
 70
0
 71
3
 72
12
 73
8
 74
0
 42
0.0000001
 43
0.0000001
 44
0.0000000001
 40
0.0
 40
0.0
 40
0.0
 40
0.0
 40
0.3714403084
 40
0.6899633175
 40
0.911976378
 40
0.9746813019
 40
1.0
 40
1.0
 40
1.0
 40
1.0
 10
327.5777564989
 20
231.9540205964
 30
0.0
 10
329.7858885977
 20
231.9529930584
 30
0.0
 10
333.8927775412
 20
231.6810817686
 30
0.0
 10
339.2300982335
 20
230.6732561257
 30
0.0
 10
342.6831305928
 20
229.6945147821
 30
0.0
 10
344.4344528213
 20
229.1197386811
 30
0.0
 10
344.928011564
 20
228.9458464695
 30
0.0
 10
345.0704022347
 20
228.8970671967
 30
0.0
  0
LINE
  5
5A1
100
AcDbEntity
  8
0
100
AcDbLine
 62
7
  6
CONTINUOUS
 10
345.0704022347
 20
228.8970671967
 11
345.0777564993
 21
228.8945556813
  0
SPLINE
  5
5A2
100
AcDbEntity
  8
0
100
AcDbSpline
 62
7
  6
CONTINUOUS
 70
0
 71
3
 72
11
 73
7
 74
0
 42
0.0000001
 43
0.0000001
 44
0.0000000001
 40
0.0
 40
0.0
 40
0.0
 40
0.0
 40
0.2674045639
 40
0.5251680942
 40
0.7698113325
 40
1.0
 40
1.0
 40
1.0
 40
1.0
 10
328.3709339858
 20
220.1289889092
 30
0.0
 10
329.3370239657
 20
220.0674094532
 30
0.0
 10
331.227032252
 20
219.7228412084
 30
0.0
 10
333.8099835129
 20
218.6227221189
 30
0.0
 10
335.9990521357
 20
217.0961097018
 30
0.0
 10
337.2145473627
 20
215.8676800887
 30
0.0
 10
337.7521409343
 20
215.2309543122
 30
0.0
  0
LINE
  5
5A3
100
AcDbEntity
  8
0
100
AcDbLine
 62
7
  6
CONTINUOUS
 10
337.8437057348
 20
215.121509708
 11
337.8617120247
 21
215.0997507705
  0
SPLINE
  5
5A4
100
AcDbEntity
  8
0
100
AcDbSpline
 62
7
  6
CONTINUOUS
 70
0
 71
3
 72
9
 73
5
 74
0
 42
0.0000001
 43
0.0000001
 44
0.0000000001
 40
0.0
 40
0.0
 40
0.0
 40
0.0
 40
0.5195428226
 40
1.0
 40
1.0
 40
1.0
 40
1.0
 10
337.9169131003
 20
215.0325534059
 30
0.0
 10
338.5028266823
 20
214.3153448945
 30
0.0
 10
339.5125305877
 20
212.8346282776
 30
0.0
 10
340.298873397
 20
211.2311932298
 30
0.0
 10
340.6469625113
 20
210.4486828118
 30
0.0
  0
SPLINE
  5
5A5
100
AcDbEntity
  8
0
100
AcDbSpline
 62
7
  6
CONTINUOUS
 70
0
 71
3
 72
26
 73
22
 74
0
 42
0.0000001
 43
0.0000001
 44
0.0000000001
 40
0.0
 40
0.0
 40
0.0
 40
0.0
 40
0.2249924431
 40
0.3280424633
 40
0.4238553411
 40
0.5115182977
 40
0.5898347543
 40
0.6576101697
 40
0.7137027929
 40
0.7571228358
 40
0.7874122993
 40
0.7979902156
 40
0.8062715721
 40
0.8137265674
 40
0.8222993797
 40
0.8333408385
 40
0.8474519073
 40
0.8648481265
 40
0.8855590541
 40
0.9366937286
 40
1.0
 40
1.0
 40
1.0
 40
1.0
 10
340.6469625113
 20
210.4486828118
 30
0.0
 10
341.0233132939
 20
209.6026396693
 30
0.0
 10
341.5251455542
 20
208.3484789778
 30
0.0
 10
342.1475256106
 20
206.7190033143
 30
0.0
 10
342.5659513265
 20
205.6164821423
 30
0.0
 10
342.9573631842
 20
204.6126698616
 30
0.0
 10
343.3208665132
 20
203.7218026889
 30
0.0
 10
343.6561183365
 20
202.9602783838
 30
0.0
 10
343.9613302623
 20
202.3421003435
 30
0.0
 10
344.2341163277
 20
201.8834521558
 30
0.0
 10
344.4539002753
 20
201.6088750709
 30
0.0
 10
344.6214321034
 20
201.4927505406
 30
0.0
 10
344.7292850751
 20
201.4622055725
 30
0.0
 10
344.8305885077
 20
201.4906897288
 30
0.0
 10
344.9104161068
 20
201.5731092133
 30
0.0
 10
344.9746268274
 20
201.6970184873
 30
0.0
 10
345.0281498907
 20
201.8643638451
 30
0.0
 10
345.0714206822
 20
202.0751130924
 30
0.0
 10
345.1181472651
 20
202.4396653949
 30
0.0
 10
345.1414483758
 20
202.9962810652
 30
0.0
 10
345.1260715494
 20
203.4673757638
 30
0.0
 10
345.1098043821
 20
203.7274095142
 30
0.0
  0
SPLINE
  5
5A6
100
AcDbEntity
  8
0
100
AcDbSpline
 62
7
  6
CONTINUOUS
 70
0
 71
3
 72
28
 73
24
 74
0
 42
0.0000001
 43
0.0000001
 44
0.0000000001
 40
0.0
 40
0.0
 40
0.0
 40
0.0
 40
0.000322706
 40
0.0012808557
 40
0.0028715702
 40
0.0050919404
 40
0.0079390557
 40
0.0114100068
 40
0.0202117881
 40
0.0314690728
 40
0.0451338094
 40
0.0611531522
 40
0.0794744747
 40
0.1227595381
 40
0.1743080746
 40
0.2334520343
 40
0.2996684059
 40
0.3723351533
 40
0.4507892092
 40
0.5342253747
 40
0.6219263051
 40
0.8071866691
 40
1.0
 40
1.0
 40
1.0
 40
1.0
 10
310.0777564957
 20
228.8945556657
 30
0.0
 10
310.0780987586
 20
228.8964449034
 30
0.0
 10
310.0887507836
 20
228.8961955272
 30
0.0
 10
310.1014998036
 20
228.9046560935
 30
0.0
 10
310.1301622929
 20
228.9125331499
 30
0.0
 10
310.1667175161
 20
228.9262985678
 30
0.0
 10
310.2150194859
 20
228.9427297719
 30
0.0
 10
310.2998726673
 20
228.9722886384
 30
0.0
 10
310.4323636174
 20
229.0177198924
 30
0.0
 10
310.6222354357
 20
229.0824916807
 30
0.0
 10
310.8531003842
 20
229.1602192111
 30
0.0
 10
311.124160574
 20
229.2502260865
 30
0.0
 10
311.5631465261
 20
229.3937387248
 30
0.0
 10
312.204753162
 20
229.5977230782
 30
0.0
 10
313.0826747734
 20
229.8597491119
 30
0.0
 10
314.0974577222
 20
230.139248878
 30
0.0
 10
315.2365195555
 20
230.4408482582
 30
0.0
 10
316.4971323585
 20
230.7295447711
 30
0.0
 10
317.8622907742
 20
231.0195509012
 30
0.0
 10
319.3239633884
 20
231.2832621842
 30
0.0
 10
321.4216014311
 20
231.5950799119
 30
0.0
 10
324.180389362
 20
231.8772690776
 30
0.0
 10
326.4305832761
 20
231.9535339271
 30
0.0
 10
327.5777564989
 20
231.9540205964
 30
0.0
  0
SPLINE
  5
5A7
100
AcDbEntity
  8
0
100
AcDbSpline
 62
2
  6
CONTINUOUS
 70
0
 71
3
 72
108
 73
104
 74
0
 42
0.0000001
 43
0.0000001
 44
0.0000000001
 40
0.0
 40
0.0
 40
0.0
 40
0.0
 40
0.03125
 40
0.0625
 40
0.09375
 40
0.109375
 40
0.125
 40
0.140625
 40
0.1484375
 40
0.15625
 40
0.16015625
 40
0.1640625
 40
0.166015625
 40
0.1669921875
 40
0.16796875
 40
0.169921875
 40
0.171875
 40
0.1796875
 40
0.1875
 40
0.1953125
 40
0.203125
 40
0.21875
 40
0.25
 40
0.28125
 40
0.296875
 40
0.3046875
 40
0.3125
 40
0.3203125
 40
0.328125
 40
0.330078125
 40
0.33203125
 40
0.3330078125
 40
0.333984375
 40
0.3359375
 40
0.33984375
 40
0.34375
 40
0.3515625
 40
0.359375
 40
0.375
 40
0.390625
 40
0.40625
 40
0.421875
 40
0.4375
 40
0.453125
 40
0.46875
 40
0.4765625
 40
0.484375
 40
0.48828125
 40
0.4921875
 40
0.49609375
 40
0.498046875
 40
0.4990234375
 40
0.5
 40
0.5009765625
 40
0.501953125
 40
0.50390625
 40
0.5078125
 40
0.51171875
 40
0.515625
 40
0.5234375
 40
0.53125
 40
0.546875
 40
0.5625
 40
0.578125
 40
0.59375
 40
0.609375
 40
0.625
 40
0.640625
 40
0.6484375
 40
0.65625
 40
0.66015625
 40
0.6640625
 40
0.666015625
 40
0.6669921875
 40
0.66796875
 40
0.669921875
 40
0.671875
 40
0.6796875
 40
0.6875
 40
0.6953125
 40
0.703125
 40
0.71875
 40
0.75
 40
0.78125
 40
0.796875
 40
0.8046875
 40
0.8125
 40
0.8203125
 40
0.828125
 40
0.830078125
 40
0.83203125
 40
0.8330078125
 40
0.833984375
 40
0.8359375
 40
0.83984375
 40
0.84375
 40
0.8515625
 40
0.859375
 40
0.875
 40
0.890625
 40
0.90625
 40
0.9375
 40
1.0
 40
1.0
 40
1.0
 40
1.0
 10
294.6030027515
 20
354.3765511273
 30
0.0
 10
294.6910473297
 20
354.4029536078
 30
0.0
 10
294.8671364962
 20
354.4557585366
 30
0.0
 10
295.1312701862
 20
354.5349661229
 30
0.0
 10
295.3513817685
 20
354.6009718818
 30
0.0
 10
295.5274706466
 20
354.6537777435
 30
0.0
 10
295.6595383641
 20
354.693378714
 30
0.0
 10
295.7695914273
 20
354.7263904194
 30
0.0
 10
295.8576414318
 20
354.7527753445
 30
0.0
 10
295.9126554837
 20
354.7693215724
 30
0.0
 10
295.9567061189
 20
354.7824311053
 30
0.0
 10
295.9841478821
 20
354.7909153619
 30
0.0
 10
296.003537255
 20
354.7962715442
 30
0.0
 10
296.0143350526
 20
354.8002440614
 30
0.0
 10
296.0240712875
 20
354.8076510214
 30
0.0
 10
296.0366044278
 20
354.8157358143
 30
0.0
 10
296.0663853249
 20
354.8361054968
 30
0.0
 10
296.1111821026
 20
354.8662542142
 30
0.0
 10
296.170839448
 20
354.9066844452
 30
0.0
 10
296.230515971
 20
354.9470526321
 30
0.0
 10
296.3100779763
 20
355.0008985284
 30
0.0
 10
296.4493146311
 20
355.0951187057
 30
0.0
 10
296.6482222717
 20
355.2297247075
 30
0.0
 10
296.8471313857
 20
355.3643270322
 30
0.0
 10
296.9863659777
 20
355.4585523575
 30
0.0
 10
297.0659312245
 20
355.5123901641
 30
0.0
 10
297.1255978021
 20
355.5527831719
 30
0.0
 10
297.1852924984
 20
355.5931201863
 30
0.0
 10
297.2299846825
 20
355.6235299379
 30
0.0
 10
297.2599020817
 20
355.6435589522
 30
0.0
 10
297.2721852144
 20
355.6522676886
 30
0.0
 10
297.2824373402
 20
355.65838714
 30
0.0
 10
297.2911329479
 20
355.667606091
 30
0.0
 10
297.3056270666
 20
355.6851793553
 30
0.0
 10
297.3267102769
 20
355.7095326471
 30
0.0
 10
297.3602325457
 20
355.7489178154
 30
0.0
 10
297.4022075832
 20
355.7980055008
 30
0.0
 10
297.4693272893
 20
355.8766261541
 30
0.0
 10
297.5532407696
 20
355.974874396
 30
0.0
 10
297.6539310081
 20
356.0927841097
 30
0.0
 10
297.754622842
 20
356.2106906495
 30
0.0
 10
297.8553142321
 20
356.3285980613
 30
0.0
 10
297.956005802
 20
356.446505159
 30
0.0
 10
298.0566970967
 20
356.5644126411
 30
0.0
 10
298.1406072763
 20
356.6626678567
 30
0.0
 10
298.2077337158
 20
356.7412742838
 30
0.0
 10
298.2496916175
 20
356.7903981738
 30
0.0
 10
298.28324906
 20
356.8297090268
 30
0.0
 10
298.3084414521
 20
356.8591600197
 30
0.0
 10
298.3293577779
 20
356.8838047781
 30
0.0
 10
298.3441509721
 20
356.9008554181
 30
0.0
 10
298.3523672557
 20
356.9109120032
 30
0.0
 10
298.3591970173
 20
356.9175716954
 30
0.0
 10
298.3634750685
 20
356.9276056928
 30
0.0
 10
298.3700692019
 20
356.9398073606
 30
0.0
 10
298.3811942375
 20
356.9617086632
 30
0.0
 10
298.3973039542
 20
356.992709537
 30
0.0
 10
298.4165428133
 20
357.0300333029
 30
0.0
 10
298.4422270388
 20
357.0797554614
 30
0.0
 10
298.4743212222
 20
357.1419228358
 30
0.0
 10
298.525678119
 20
357.241382432
 30
0.0
 10
298.5898721088
 20
357.3657097442
 30
0.0
 10
298.6669058215
 20
357.5149013014
 30
0.0
 10
298.7439392445
 20
357.6640932212
 30
0.0
 10
298.8209729013
 20
357.8132849082
 30
0.0
 10
298.8980059125
 20
357.9624771639
 30
0.0
 10
298.9750412724
 20
358.1116673777
 30
0.0
 10
299.0392301147
 20
358.2359988879
 30
0.0
 10
299.0905975125
 20
358.3354499202
 30
0.0
 10
299.1226649718
 20
358.3976390891
 30
0.0
 10
299.1484040525
 20
358.4473165113
 30
0.0
 10
299.1642967768
 20
358.4785335457
 30
0.0
 10
299.1758108877
 20
358.5000474826
 30
0.0
 10
299.1817814334
 20
358.5128699737
 30
0.0
 10
299.1854583881
 20
358.5276842337
 30
0.0
 10
299.1908385406
 20
358.5455212637
 30
0.0
 10
299.2031056722
 20
358.5888904612
 30
0.0
 10
299.2217773753
 20
358.6537089144
 30
0.0
 10
299.2465180845
 20
358.7402680304
 30
0.0
 10
299.2713002282
 20
358.8267911647
 30
0.0
 10
299.3043286291
 20
358.9421678971
 30
0.0
 10
299.3621351112
 20
359.1440713042
 30
0.0
 10
299.4447118973
 20
359.432508023
 30
0.0
 10
299.5272913786
 20
359.7209428109
 30
0.0
 10
299.5850940873
 20
359.9228489212
 30
0.0
 10
299.6181284179
 20
360.0382214057
 30
0.0
 10
299.6428923683
 20
360.1247575737
 30
0.0
 10
299.6677014032
 20
360.2112677408
 30
0.0
 10
299.6861817743
 20
360.2762232653
 30
0.0
 10
299.6986986078
 20
360.319413575
 30
0.0
 10
299.703621424
 20
360.3375782431
 30
0.0
 10
299.7082420931
 20
360.3517164212
 30
0.0
 10
299.7103671228
 20
360.3672938601
 30
0.0
 10
299.7129263921
 20
360.3952230924
 30
0.0
 10
299.7171874768
 20
360.4347730943
 30
0.0
 10
299.7236671182
 20
360.4982480796
 30
0.0
 10
299.7318824337
 20
360.5775250492
 30
0.0
 10
299.7449622381
 20
360.7044055138
 30
0.0
 10
299.7613341918
 20
360.8629932927
 30
0.0
 10
299.7809710354
 20
361.0533041066
 30
0.0
 10
299.8071568085
 20
361.3070499467
 30
0.0
 10
299.8529803575
 20
361.7511060631
 30
0.0
 10
299.892258218
 20
362.1317252841
 30
0.0
 10
299.91844334
 20
362.3854714997
 30
0.0
  0
SPLINE
  5
5A8
100
AcDbEntity
  8
0
100
AcDbSpline
 62
2
  6
CONTINUOUS
 70
0
 71
3
 72
30
 73
26
 74
0
 42
0.0000001
 43
0.0000001
 44
0.0000000001
 40
0.0
 40
0.0
 40
0.0
 40
0.0
 40
0.0625
 40
0.125
 40
0.15625
 40
0.1875
 40
0.25
 40
0.3125
 40
0.34375
 40
0.375
 40
0.4375
 40
0.46875
 40
0.5
 40
0.53125
 40
0.5625
 40
0.625
 40
0.65625
 40
0.6875
 40
0.75
 40
0.8125
 40
0.828125
 40
0.84375
 40
0.875
 40
0.9375
 40
1.0
 40
1.0
 40
1.0
 40
1.0
 10
293.4653184321
 20
372.8447119137
 30
0.0
 10
293.4305569613
 20
372.8502282495
 30
0.0
 10
293.3610329519
 20
372.8613672939
 30
0.0
 10
293.2741332791
 20
372.8747592354
 30
0.0
 10
293.2046023292
 20
372.8865897031
 30
0.0
 10
293.1351119548
 20
372.8943780039
 30
0.0
 10
293.0482684643
 20
372.9025851199
 30
0.0
 10
292.9613996043
 20
372.9118085282
 30
0.0
 10
292.8919498212
 20
372.9179707615
 30
0.0
 10
292.8226655106
 20
372.920041904
 30
0.0
 10
292.7533222507
 20
372.9234439924
 30
0.0
 10
292.6840317342
 20
372.9259215612
 30
0.0
 10
292.6319645658
 20
372.9292223508
 30
0.0
 10
292.5802681497
 20
372.9272149481
 30
0.0
 10
292.5112034628
 20
372.9264626598
 30
0.0
 10
292.4422140641
 20
372.924781264
 30
0.0
 10
292.3731008998
 20
372.9244440043
 30
0.0
 10
292.3043824135
 20
372.9199690104
 30
0.0
 10
292.2187232895
 20
372.9131652969
 30
0.0
 10
292.1412390317
 20
372.9068839599
 30
0.0
 10
292.0901151115
 20
372.9035647123
 30
0.0
 10
292.0547869587
 20
372.8991066061
 30
0.0
 10
291.9923618524
 20
372.8902155994
 30
0.0
 10
291.9034993601
 20
372.8780874879
 30
0.0
 10
291.8323129911
 20
372.8682102706
 30
0.0
 10
291.7967318535
 20
372.863293503
 30
0.0
  0
SPLINE
  5
5A9
100
AcDbEntity
  8
0
100
AcDbSpline
 62
2
  6
CONTINUOUS
 70
0
 71
3
 72
36
 73
32
 74
0
 42
0.0000001
 43
0.0000001
 44
0.0000000001
 40
0.0
 40
0.0
 40
0.0
 40
0.0
 40
0.125
 40
0.1875
 40
0.25
 40
0.28125
 40
0.3125
 40
0.328125
 40
0.34375
 40
0.375
 40
0.40625
 40
0.4375
 40
0.46875
 40
0.484375
 40
0.5
 40
0.515625
 40
0.53125
 40
0.5625
 40
0.59375
 40
0.625
 40
0.65625
 40
0.671875
 40
0.6875
 40
0.71875
 40
0.75
 40
0.78125
 40
0.8125
 40
0.84375
 40
0.875
 40
0.9375
 40
1.0
 40
1.0
 40
1.0
 40
1.0
 10
299.9184433438
 20
362.3854716895
 30
0.0
 10
299.9188338485
 20
362.4096063908
 30
0.0
 10
299.9194454298
 20
362.4458150949
 30
0.0
 10
299.9201575747
 20
362.4940667584
 30
0.0
 10
299.9203628683
 20
362.5243583211
 30
0.0
 10
299.9205824418
 20
362.5483705746
 30
0.0
 10
299.9207012274
 20
362.5638635882
 30
0.0
 10
299.920826696
 20
362.5751483957
 30
0.0
 10
299.9208451623
 20
362.5904833325
 30
0.0
 10
299.9208315433
 20
362.6110376131
 30
0.0
 10
299.9208314051
 20
362.6351264592
 30
0.0
 10
299.9208251718
 20
362.6593034922
 30
0.0
 10
299.9208267905
 20
362.6796373056
 30
0.0
 10
299.9208147814
 20
362.6954131767
 30
0.0
 10
299.9208415991
 20
362.7086068473
 30
0.0
 10
299.9207317708
 20
362.7165990385
 30
0.0
 10
299.9206331214
 20
362.7290709817
 30
0.0
 10
299.9204930126
 20
362.7440469477
 30
0.0
 10
299.9203338253
 20
362.7622415969
 30
0.0
 10
299.92016574
 20
362.7805246265
 30
0.0
 10
299.9200478763
 20
362.7952796418
 30
0.0
 10
299.9199047367
 20
362.8081934863
 30
0.0
 10
299.919584053
 20
362.8251640144
 30
0.0
 10
299.9192439431
 20
362.8449822764
 30
0.0
 10
299.9188105529
 20
362.8693746763
 30
0.0
 10
299.9183810047
 20
362.8935569713
 30
0.0
 10
299.9179613465
 20
362.9179692005
 30
0.0
 10
299.9174982864
 20
362.9416717978
 30
0.0
 10
299.9166723072
 20
362.9699653654
 30
0.0
 10
299.9157118708
 20
363.0064755453
 30
0.0
 10
299.9149215673
 20
363.0353352792
 30
0.0
 10
299.9145291599
 20
363.0498086974
 30
0.0
  0
LINE
  5
5AA
100
AcDbEntity
  8
0
100
AcDbLine
 62
2
  6
CONTINUOUS
 10
299.9145291607
 20
363.0498086732
 11
299.9110733613
 21
363.1476480062
  0
SPLINE
  5
5AB
100
AcDbEntity
  8
0
100
AcDbSpline
 62
2
  6
CONTINUOUS
 70
0
 71
3
 72
34
 73
30
 74
0
 42
0.0000001
 43
0.0000001
 44
0.0000000001
 40
0.0
 40
0.0
 40
0.0
 40
0.0
 40
0.0625
 40
0.125
 40
0.15625
 40
0.171875
 40
0.1875
 40
0.21875
 40
0.25
 40
0.3125
 40
0.375
 40
0.4375
 40
0.5
 40
0.5625
 40
0.625
 40
0.65625
 40
0.671875
 40
0.6875
 40
0.71875
 40
0.75
 40
0.78125
 40
0.8125
 40
0.828125
 40
0.8359375
 40
0.84375
 40
0.859375
 40
0.875
 40
0.9375
 40
1.0
 40
1.0
 40
1.0
 40
1.0
 10
299.9110733613
 20
363.1476480044
 30
0.0
 10
299.910736594
 20
363.155751029
 30
0.0
 10
299.9100676116
 20
363.1718813671
 30
0.0
 10
299.9092086224
 20
363.1924228462
 30
0.0
 10
299.9086491537
 20
363.2061062839
 30
0.0
 10
299.9082645879
 20
363.2150042774
 30
0.0
 10
299.9076354094
 20
363.2279640846
 30
0.0
 10
299.9069340286
 20
363.2427730175
 30
0.0
 10
299.9057564536
 20
363.2672449695
 30
0.0
 10
299.9043593583
 20
363.2975657687
 30
0.0
 10
299.9024065
 20
363.3340761147
 30
0.0
 10
299.9003499003
 20
363.3705685946
 30
0.0
 10
299.8984399502
 20
363.4070336805
 30
0.0
 10
299.8960471429
 20
363.4436262088
 30
0.0
 10
299.8941799082
 20
363.4737643152
 30
0.0
 10
299.892817874
 20
363.4955521346
 30
0.0
 10
299.8920957715
 20
363.5069241975
 30
0.0
 10
299.8915773164
 20
363.5142364132
 30
0.0
 10
299.89085983
 20
363.5247643139
 30
0.0
 10
299.8900265796
 20
363.5368269361
 30
0.0
 10
299.889193464
 20
363.548952783
 30
0.0
 10
299.8884756409
 20
363.5593226222
 30
0.0
 10
299.8880225818
 20
363.5659974185
 30
0.0
 10
299.887686044
 20
363.5707333969
 30
0.0
 10
299.8870569609
 20
363.5789434961
 30
0.0
 10
299.8863706025
 20
363.5880186252
 30
0.0
 10
299.8846410224
 20
363.6107765243
 30
0.0
 10
299.8820815053
 20
363.6444994741
 30
0.0
 10
299.8797922166
 20
363.674643617
 30
0.0
 10
299.8786493425
 20
363.689694665
 30
0.0
  0
SPLINE
  5
5AC
100
AcDbEntity
  8
0
100
AcDbSpline
 62
2
  6
CONTINUOUS
 70
0
 71
3
 72
33
 73
29
 74
0
 42
0.0000001
 43
0.0000001
 44
0.0000000001
 40
0.0
 40
0.0
 40
0.0
 40
0.0
 40
0.125
 40
0.1875
 40
0.25
 40
0.28125
 40
0.3125
 40
0.328125
 40
0.34375
 40
0.375
 40
0.40625
 40
0.4375
 40
0.46875
 40
0.484375
 40
0.5
 40
0.515625
 40
0.53125
 40
0.5625
 40
0.59375
 40
0.625
 40
0.65625
 40
0.671875
 40
0.6875
 40
0.71875
 40
0.75
 40
0.8125
 40
0.875
 40
1.0
 40
1.0
 40
1.0
 40
1.0
 10
299.8786493433
 20
363.6896946552
 30
0.0
 10
299.8779859797
 20
363.6978070427
 30
0.0
 10
299.8769927911
 20
363.7099868562
 30
0.0
 10
299.875661113
 20
363.7261816784
 30
0.0
 10
299.8747940654
 20
363.7363963605
 30
0.0
 10
299.8741254163
 20
363.7443555137
 30
0.0
 10
299.8736624126
 20
363.7498150066
 30
0.0
 10
299.8733939977
 20
363.7530716957
 30
0.0
 10
299.8727537087
 20
363.7603839882
 30
0.0
 10
299.8718261069
 20
363.770911825
 30
0.0
 10
299.8707660264
 20
363.7829683082
 30
0.0
 10
299.869697364
 20
363.7951125213
 30
0.0
 10
299.8687912167
 20
363.8054210334
 30
0.0
 10
299.8681080188
 20
363.8131719753
 30
0.0
 10
299.8674798176
 20
363.8203597843
 30
0.0
 10
299.8672939674
 20
363.8222971169
 30
0.0
 10
299.866891773
 20
363.8267130301
 30
0.0
 10
299.8664411089
 20
363.8316130892
 30
0.0
 10
299.8658819242
 20
363.8377191514
 30
0.0
 10
299.8653129646
 20
363.84391298
 30
0.0
 10
299.8648867377
 20
363.8485936232
 30
0.0
 10
299.8644356691
 20
363.8534483682
 30
0.0
 10
299.863582807
 20
363.8623554896
 30
0.0
 10
299.8626534769
 20
363.8721160064
 30
0.0
 10
299.8610949512
 20
363.8884177446
 30
0.0
 10
299.8591367862
 20
363.909151622
 30
0.0
 10
299.8562109671
 20
363.9386730939
 30
0.0
 10
299.8540657452
 20
363.9599961361
 30
0.0
 10
299.8526246768
 20
363.9743932891
 30
0.0
  0
SPLINE
  5
5AD
100
AcDbEntity
  8
0
100
AcDbSpline
 62
2
  6
CONTINUOUS
 70
0
 71
3
 72
41
 73
37
 74
0
 42
0.0000001
 43
0.0000001
 44
0.0000000001
 40
0.0
 40
0.0
 40
0.0
 40
0.0
 40
0.0625
 40
0.125
 40
0.15625
 40
0.171875
 40
0.1875
 40
0.21875
 40
0.25
 40
0.28125
 40
0.3125
 40
0.328125
 40
0.34375
 40
0.375
 40
0.40625
 40
0.4375
 40
0.46875
 40
0.484375
 40
0.5
 40
0.515625
 40
0.53125
 40
0.5625
 40
0.59375
 40
0.625
 40
0.65625
 40
0.671875
 40
0.6875
 40
0.71875
 40
0.75
 40
0.78125
 40
0.8125
 40
0.828125
 40
0.84375
 40
0.875
 40
0.9375
 40
1.0
 40
1.0
 40
1.0
 40
1.0
 10
299.8526246766
 20
363.9743932909
 30
0.0
 10
299.8522050024
 20
363.9784465978
 30
0.0
 10
299.8513740491
 20
363.9864775701
 30
0.0
 10
299.8502933815
 20
363.9968944927
 30
0.0
 10
299.8496140452
 20
364.0034913827
 30
0.0
 10
299.8491062212
 20
364.0083389248
 30
0.0
 10
299.848148183
 20
364.0172427418
 30
0.0
 10
299.8471041861
 20
364.026989684
 30
0.0
 10
299.8457896675
 20
364.0392391818
 30
0.0
 10
299.844476357
 20
364.0514885374
 30
0.0
 10
299.8434293397
 20
364.0612358351
 30
0.0
 10
299.8424773423
 20
364.0701389411
 30
0.0
 10
299.8419449528
 20
364.0749893745
 30
0.0
 10
299.8414230219
 20
364.0796653344
 30
0.0
 10
299.8407372789
 20
364.0858532709
 30
0.0
 10
299.8400595499
 20
364.0919533998
 30
0.0
 10
299.8395175842
 20
364.0968488789
 30
0.0
 10
299.8390252642
 20
364.1012602739
 30
0.0
 10
299.8388185815
 20
364.1031965619
 30
0.0
 10
299.8379910436
 20
364.1103743769
 30
0.0
 10
299.8371043933
 20
364.1181151187
 30
0.0
 10
299.8359227167
 20
364.1284098148
 30
0.0
 10
299.8345317504
 20
364.1405378771
 30
0.0
 10
299.8331499837
 20
364.152578201
 30
0.0
 10
299.8319453081
 20
364.1630922432
 30
0.0
 10
299.8311046558
 20
364.1703942927
 30
0.0
 10
299.8307135733
 20
364.173645636
 30
0.0
 10
299.8300716861
 20
364.1790899959
 30
0.0
 10
299.8293616308
 20
364.1850744189
 30
0.0
 10
299.8286555925
 20
364.1910457882
 30
0.0
 10
299.828003663
 20
364.1965227825
 30
0.0
 10
299.827632665
 20
364.1997088571
 30
0.0
 10
299.8267103363
 20
364.2072763325
 30
0.0
 10
299.8248399042
 20
364.2225568176
 30
0.0
 10
299.8223027831
 20
364.2433137645
 30
0.0
 10
299.8202319663
 20
364.2602461236
 30
0.0
 10
299.8192016979
 20
364.2686714529
 30
0.0
  0
SPLINE
  5
5AE
100
AcDbEntity
  8
0
100
AcDbSpline
 62
2
  6
CONTINUOUS
 70
0
 71
3
 72
34
 73
30
 74
0
 42
0.0000001
 43
0.0000001
 44
0.0000000001
 40
0.0
 40
0.0
 40
0.0
 40
0.0
 40
0.0625
 40
0.125
 40
0.15625
 40
0.171875
 40
0.1875
 40
0.21875
 40
0.25
 40
0.28125
 40
0.3125
 40
0.328125
 40
0.34375
 40
0.375
 40
0.40625
 40
0.4375
 40
0.46875
 40
0.484375
 40
0.5
 40
0.515625
 40
0.53125
 40
0.5625
 40
0.625
 40
0.6875
 40
0.75
 40
0.8125
 40
0.84375
 40
0.875
 40
1.0
 40
1.0
 40
1.0
 40
1.0
 10
299.8192016972
 20
364.2686714582
 30
0.0
 10
299.8181711112
 20
364.2767630699
 30
0.0
 10
299.8161209511
 20
364.2928709108
 30
0.0
 10
299.8135031909
 20
364.3133826246
 30
0.0
 10
299.8117719318
 20
364.3270482474
 30
0.0
 10
299.8106257195
 20
364.3359313755
 30
0.0
 10
299.8088889213
 20
364.3488568868
 30
0.0
 10
299.8069194844
 20
364.3636357042
 30
0.0
 10
299.8044745473
 20
364.3819214549
 30
0.0
 10
299.8020335644
 20
364.4002074414
 30
0.0
 10
299.800054242
 20
364.414985669
 30
0.0
 10
299.7983372148
 20
364.42791236
 30
0.0
 10
299.7971106009
 20
364.436790691
 30
0.0
 10
299.7957450399
 20
364.4465029843
 30
0.0
 10
299.7940372937
 20
364.4587339801
 30
0.0
 10
299.7923375093
 20
364.4708769934
 30
0.0
 10
299.7909520441
 20
364.4808092431
 30
0.0
 10
299.7897652387
 20
364.4892476614
 30
0.0
 10
299.7890918211
 20
364.4942107761
 30
0.0
 10
299.7875908743
 20
364.5043903778
 30
0.0
 10
299.7858784593
 20
364.5161435586
 30
0.0
 10
299.7827451885
 20
364.5375599463
 30
0.0
 10
299.7783562907
 20
364.5677070416
 30
0.0
 10
299.7729831394
 20
364.6040937081
 30
0.0
 10
299.7673623025
 20
364.6402772278
 30
0.0
 10
299.7627025258
 20
364.6708006424
 30
0.0
 10
299.7590403377
 20
364.6944317917
 30
0.0
 10
299.7539631497
 20
364.7257322485
 30
0.0
 10
299.7496238019
 20
364.7528957196
 30
0.0
 10
299.7461869982
 20
364.7742809742
 30
0.0
  0
SPLINE
  5
5AF
100
AcDbEntity
  8
0
100
AcDbSpline
 62
2
  6
CONTINUOUS
 70
0
 71
3
 72
14
 73
10
 74
0
 42
0.0000001
 43
0.0000001
 44
0.0000000001
 40
0.0
 40
0.0
 40
0.0
 40
0.0
 40
0.375
 40
0.5625
 40
0.65625
 40
0.75
 40
0.8125
 40
0.875
 40
1.0
 40
1.0
 40
1.0
 40
1.0
 10
299.7461869994
 20
364.7742809667
 30
0.0
 10
299.7435257471
 20
364.7903798616
 30
0.0
 10
299.7395036467
 20
364.8146553536
 30
0.0
 10
299.7348136708
 20
364.8425129595
 30
0.0
 10
299.731982624
 20
364.859067045
 30
0.0
 10
299.7303926048
 20
364.868506751
 30
0.0
 10
299.7281830356
 20
364.8812165835
 30
0.0
 10
299.7258546985
 20
364.8946714082
 30
0.0
 10
299.7240641466
 20
364.9050034338
 30
0.0
 10
299.7228802895
 20
364.9118379159
 30
0.0
  0
SPLINE
  5
5B0
100
AcDbEntity
  8
0
100
AcDbSpline
 62
2
  6
CONTINUOUS
 70
0
 71
3
 72
18
 73
14
 74
0
 42
0.0000001
 43
0.0000001
 44
0.0000000001
 40
0.0
 40
0.0
 40
0.0
 40
0.0
 40
0.25
 40
0.5
 40
0.625
 40
0.75
 40
0.78125
 40
0.8125
 40
0.828125
 40
0.84375
 40
0.875
 40
0.9375
 40
1.0
 40
1.0
 40
1.0
 40
1.0
 10
299.722880289
 20
364.9118379192
 30
0.0
 10
299.7171825373
 20
364.9439638043
 30
0.0
 10
299.7057440292
 20
365.0081996778
 30
0.0
 10
299.6908774349
 20
365.0884102672
 30
0.0
 10
299.6785343217
 20
365.1524024368
 30
0.0
 10
299.6714535384
 20
365.1885132746
 30
0.0
 10
299.6667407821
 20
365.2123524529
 30
0.0
 10
299.6647050772
 20
365.2226212246
 30
0.0
 10
299.6632486722
 20
365.2300538395
 30
0.0
 10
299.6611612765
 20
365.2403474394
 30
0.0
 10
299.6572149134
 20
365.2596913334
 30
0.0
 10
299.6517316838
 20
365.2866254181
 30
0.0
 10
299.6472980351
 20
365.3083860344
 30
0.0
 10
299.6450870939
 20
365.3192396739
 30
0.0
  0
SPLINE
  5
5B1
100
AcDbEntity
  8
0
100
AcDbSpline
 62
2
  6
CONTINUOUS
 70
0
 71
3
 72
24
 73
20
 74
0
 42
0.0000001
 43
0.0000001
 44
0.0000000001
 40
0.0
 40
0.0
 40
0.0
 40
0.0
 40
0.0625
 40
0.125
 40
0.15625
 40
0.171875
 40
0.1875
 40
0.21875
 40
0.25
 40
0.3125
 40
0.375
 40
0.5
 40
0.625
 40
0.75
 40
0.8125
 40
0.84375
 40
0.875
 40
0.9375
 40
1.0
 40
1.0
 40
1.0
 40
1.0
 10
299.6450870958
 20
365.3192396644
 30
0.0
 10
299.6442557896
 20
365.3232273514
 30
0.0
 10
299.6426092344
 20
365.3311284394
 30
0.0
 10
299.6404707546
 20
365.3413762294
 30
0.0
 10
299.6391213437
 20
365.3478671798
 30
0.0
 10
299.6381214375
 20
365.3526348696
 30
0.0
 10
299.6362599028
 20
365.3613878286
 30
0.0
 10
299.6342286448
 20
365.370964674
 30
0.0
 10
299.6308096619
 20
365.3870489494
 30
0.0
 10
299.6266205678
 20
365.4069017858
 30
0.0
 10
299.6197142966
 20
365.4387597292
 30
0.0
 10
299.6111114244
 20
365.4785658483
 30
0.0
 10
299.6004859579
 20
365.5261410508
 30
0.0
 10
299.5914413099
 20
365.5661118314
 30
0.0
 10
299.5852373852
 20
365.5933712355
 30
0.0
 10
299.5814156066
 20
365.6100502287
 30
0.0
 10
299.5765298474
 20
365.6308784106
 30
0.0
 10
299.5707901417
 20
365.6554805301
 30
0.0
 10
299.5660863792
 20
365.6755989823
 30
0.0
 10
299.5637484977
 20
365.6856036139
 30
0.0
  0
SPLINE
  5
5B2
100
AcDbEntity
  8
0
100
AcDbSpline
 62
2
  6
CONTINUOUS
 70
0
 71
3
 72
26
 73
22
 74
0
 42
0.0000001
 43
0.0000001
 44
0.0000000001
 40
0.0
 40
0.0
 40
0.0
 40
0.0
 40
0.0625
 40
0.125
 40
0.15625
 40
0.171875
 40
0.1875
 40
0.21875
 40
0.25
 40
0.3125
 40
0.375
 40
0.5
 40
0.625
 40
0.75
 40
0.78125
 40
0.8125
 40
0.828125
 40
0.84375
 40
0.875
 40
0.9375
 40
1.0
 40
1.0
 40
1.0
 40
1.0
 10
299.5637484986
 20
365.6856036103
 30
0.0
 10
299.5628062346
 20
365.6895581825
 30
0.0
 10
299.5609398278
 20
365.6973936903
 30
0.0
 10
299.5585162132
 20
365.7075562587
 30
0.0
 10
299.5569861718
 20
365.713993519
 30
0.0
 10
299.5558536349
 20
365.718721277
 30
0.0
 10
299.5537487365
 20
365.7273994644
 30
0.0
 10
299.5514511821
 20
365.7368948044
 30
0.0
 10
299.5475849791
 20
365.7528418126
 30
0.0
 10
299.5428438209
 20
365.772526669
 30
0.0
 10
299.5350519884
 20
365.8041064956
 30
0.0
 10
299.525346613
 20
365.8435538557
 30
0.0
 10
299.5133863194
 20
365.8907391881
 30
0.0
 10
299.5042892553
 20
365.9262518627
 30
0.0
 10
299.498249457
 20
365.9496642828
 30
0.0
 10
299.4956317332
 20
365.9597882925
 30
0.0
 10
299.4937778019
 20
365.9670285666
 30
0.0
 10
299.4910437924
 20
365.9774095079
 30
0.0
 10
299.4858500474
 20
365.997036268
 30
0.0
 10
299.4786457951
 20
366.0243060163
 30
0.0
 10
299.4728167526
 20
366.0463560185
 30
0.0
 10
299.4699104364
 20
366.0573517441
 30
0.0
  0
LINE
  5
5B3
100
AcDbEntity
  8
0
100
AcDbLine
 62
2
  6
CONTINUOUS
 10
299.4619478409
 20
366.0869201223
 11
299.4426138024
 21
366.157594054
  0
SPLINE
  5
5B4
100
AcDbEntity
  8
0
100
AcDbSpline
 62
2
  6
CONTINUOUS
 70
0
 71
3
 72
94
 73
90
 74
0
 42
0.0000001
 43
0.0000001
 44
0.0000000001
 40
0.0
 40
0.0
 40
0.0
 40
0.0
 40
0.0625
 40
0.09375
 40
0.109375
 40
0.125
 40
0.140625
 40
0.1484375
 40
0.15625
 40
0.16015625
 40
0.1640625
 40
0.166015625
 40
0.16796875
 40
0.171875
 40
0.1796875
 40
0.1875
 40
0.203125
 40
0.21875
 40
0.25
 40
0.28125
 40
0.296875
 40
0.3125
 40
0.3203125
 40
0.328125
 40
0.33203125
 40
0.333984375
 40
0.3359375
 40
0.33984375
 40
0.34375
 40
0.3515625
 40
0.359375
 40
0.375
 40
0.390625
 40
0.40625
 40
0.421875
 40
0.4375
 40
0.453125
 40
0.46875
 40
0.4765625
 40
0.484375
 40
0.4921875
 40
0.49609375
 40
0.498046875
 40
0.5
 40
0.501953125
 40
0.50390625
 40
0.5078125
 40
0.515625
 40
0.5234375
 40
0.53125
 40
0.546875
 40
0.5625
 40
0.578125
 40
0.59375
 40
0.609375
 40
0.625
 40
0.640625
 40
0.6484375
 40
0.65625
 40
0.66015625
 40
0.6640625
 40
0.666015625
 40
0.66796875
 40
0.669921875
 40
0.671875
 40
0.6796875
 40
0.6875
 40
0.703125
 40
0.71875
 40
0.75
 40
0.78125
 40
0.796875
 40
0.8046875
 40
0.8125
 40
0.8203125
 40
0.828125
 40
0.830078125
 40
0.83203125
 40
0.833984375
 40
0.8359375
 40
0.83984375
 40
0.84375
 40
0.8515625
 40
0.859375
 40
0.875
 40
0.890625
 40
0.90625
 40
0.9375
 40
1.0
 40
1.0
 40
1.0
 40
1.0
 10
299.4426138035
 20
366.1575940499
 30
0.0
 10
299.3694421192
 20
366.3651867868
 30
0.0
 10
299.2596842705
 20
366.6765756502
 30
0.0
 10
299.1316345748
 20
367.0398635041
 30
0.0
 10
299.058461709
 20
367.247455354
 30
0.0
 10
299.0035865707
 20
367.403152628
 30
0.0
 10
298.9578429234
 20
367.5328895716
 30
0.0
 10
298.9212802269
 20
367.6367033166
 30
0.0
 10
298.8983551708
 20
367.7015318243
 30
0.0
 10
298.8801831605
 20
367.7535207819
 30
0.0
 10
298.8684422531
 20
367.7857260434
 30
0.0
 10
298.8599276808
 20
367.8121495234
 30
0.0
 10
298.8482072148
 20
367.83616619
 30
0.0
 10
298.8262071253
 20
367.8770772891
 30
0.0
 10
298.7955554554
 20
367.936105069
 30
0.0
 10
298.7460785348
 20
368.0302235041
 30
0.0
 10
298.6843811321
 20
368.1479832334
 30
0.0
 10
298.5855817979
 20
368.3363360393
 30
0.0
 10
298.462113812
 20
368.5718010113
 30
0.0
 10
298.3386254611
 20
368.8072485762
 30
0.0
 10
298.2398587109
 20
368.9956292336
 30
0.0
 10
298.1780798484
 20
369.1133193344
 30
0.0
 10
298.1287699204
 20
369.2075805077
 30
0.0
 10
298.0976931322
 20
369.2662449144
 30
0.0
 10
298.076456601
 20
369.307808671
 30
0.0
 10
298.0635122015
 20
369.3307791709
 30
0.0
 10
298.0475192809
 20
369.3508104742
 30
0.0
 10
298.0285719381
 20
369.3768559788
 30
0.0
 10
297.997672861
 20
369.4179663767
 30
0.0
 10
297.9592487473
 20
369.4695469439
 30
0.0
 10
297.8976585336
 20
369.5519682227
 30
0.0
 10
297.8207090741
 20
369.655031757
 30
0.0
 10
297.7283532935
 20
369.7786921495
 30
0.0
 10
297.6360019375
 20
369.9023568398
 30
0.0
 10
297.5436493126
 20
370.0260201873
 30
0.0
 10
297.4512973389
 20
370.1496846081
 30
0.0
 10
297.358944029
 20
370.2733460783
 30
0.0
 10
297.2819868485
 20
370.3764062446
 30
0.0
 10
297.2204123857
 20
370.4588343941
 30
0.0
 10
297.1742553473
 20
370.5207100923
 30
0.0
 10
297.135715419
 20
370.5720995472
 30
0.0
 10
297.108886085
 20
370.6084129007
 30
0.0
 10
297.093322986
 20
370.6286313592
 30
0.0
 10
297.0823043529
 20
370.6452939377
 30
0.0
 10
297.0687869808
 20
370.6562275925
 30
0.0
 10
297.051635406
 20
370.6728041116
 30
0.0
 10
297.0212140612
 20
370.7008819691
 30
0.0
 10
296.9779673052
 20
370.7414799584
 30
0.0
 10
296.9259803227
 20
370.7899891932
 30
0.0
 10
296.8566960906
 20
370.8547409547
 30
0.0
 10
296.7700799044
 20
370.9356556747
 30
0.0
 10
296.6661451651
 20
371.032764079
 30
0.0
 10
296.5622091229
 20
371.1298694933
 30
0.0
 10
296.4582736082
 20
371.2269761271
 30
0.0
 10
296.3543372867
 20
371.3240808726
 30
0.0
 10
296.2504036646
 20
371.4211919523
 30
0.0
 10
296.1637839871
 20
371.5020983114
 30
0.0
 10
296.0945068774
 20
371.5668671291
 30
0.0
 10
296.0511662659
 20
371.6072480846
 30
0.0
 10
296.0165909216
 20
371.6397808497
 30
0.0
 10
295.9947596781
 20
371.6595936038
 30
0.0
 10
295.977802365
 20
371.6766353448
 30
0.0
 10
295.9636943272
 20
371.686154172
 30
0.0
 10
295.9491967723
 20
371.6947587962
 30
0.0
 10
295.9204020162
 20
371.7124382779
 30
0.0
 10
295.8771259553
 20
371.7387605231
 30
0.0
 10
295.800253272
 20
371.7857023983
 30
0.0
 10
295.7041410062
 20
371.8443294932
 30
0.0
 10
295.5503733439
 20
371.9381608941
 30
0.0
 10
295.3581596904
 20
372.0554407738
 30
0.0
 10
295.1659473855
 20
372.1727230779
 30
0.0
 10
295.0313987929
 20
372.2548221596
 30
0.0
 10
294.9545134426
 20
372.3017326751
 30
0.0
 10
294.8968507447
 20
372.3369248784
 30
0.0
 10
294.8391830074
 20
372.3720814379
 30
0.0
 10
294.7959463366
 20
372.3985488015
 30
0.0
 10
294.7670999107
 20
372.416038276
 30
0.0
 10
294.7527159443
 20
372.4250605678
 30
0.0
 10
294.7381793874
 20
372.433003728
 30
0.0
 10
294.7180712577
 20
372.4384599027
 30
0.0
 10
294.6931846951
 20
372.4470382346
 30
0.0
 10
294.653227266
 20
372.4597810499
 30
0.0
 10
294.603328049
 20
372.4760459836
 30
0.0
 10
294.5234627153
 20
372.5018818553
 30
0.0
 10
294.4236401698
 20
372.5342412039
 30
0.0
 10
294.3038492111
 20
372.5730448124
 30
0.0
 10
294.144129295
 20
372.6247925903
 30
0.0
 10
293.8646188034
 20
372.7153466861
 30
0.0
 10
293.6250386009
 20
372.7929660307
 30
0.0
 10
293.4653184173
 20
372.8447119164
 30
0.0
  0
SPLINE
  5
5B5
100
AcDbEntity
  8
0
100
AcDbSpline
 62
7
  6
CONTINUOUS
 70
0
 71
3
 72
9
 73
5
 74
0
 42
0.0000001
 43
0.0000001
 44
0.0000000001
 40
0.0
 40
0.0
 40
0.0
 40
0.0
 40
0.2485363787
 40
1.0
 40
1.0
 40
1.0
 40
1.0
 10
272.6203836678
 20
330.2640885371
 30
0.0
 10
272.3336777324
 20
330.2560565055
 30
0.0
 10
271.17938281
 20
330.255149277
 30
0.0
 10
270.0254036446
 20
330.3804624722
 30
0.0
 10
269.1731009315
 20
330.5405746152
 30
0.0
  0
SPLINE
  5
5B6
100
AcDbEntity
  8
0
100
AcDbSpline
 62
7
  6
CONTINUOUS
 70
0
 71
3
 72
14
 73
10
 74
0
 42
0.0000001
 43
0.0000001
 44
0.0000000001
 40
0.0
 40
0.0
 40
0.0
 40
0.0
 40
0.10762691
 40
0.2167414495
 40
0.3301286
 40
0.4498351749
 40
0.5769606414
 40
0.7116685661
 40
1.0
 40
1.0
 40
1.0
 40
1.0
 10
275.8523957207
 20
330.3546327151
 30
0.0
 10
277.0434247828
 20
330.3880152404
 30
0.0
 10
279.4440255809
 20
330.7433639367
 30
0.0
 10
282.8577648881
 20
332.1358758977
 30
0.0
 10
285.9795302307
 20
334.3347025678
 30
0.0
 10
288.7212455494
 20
337.2641312063
 30
0.0
 10
291.0151667614
 20
340.836134346
 30
0.0
 10
293.4527941529
 20
346.4382235201
 30
0.0
 10
294.3596582802
 20
351.1084354367
 30
0.0
 10
294.5974651089
 20
354.2915729314
 30
0.0
  0
SPLINE
  5
5B7
100
AcDbEntity
  8
0
100
AcDbSpline
 62
7
  6
CONTINUOUS
 70
0
 71
3
 72
10
 73
6
 74
0
 42
0.0000001
 43
0.0000001
 44
0.0000000001
 40
0.0
 40
0.0
 40
0.0
 40
0.0
 40
0.2485833121
 40
0.6260258795
 40
1.0
 40
1.0
 40
1.0
 40
1.0
 10
294.6049239907
 20
354.3931448083
 30
0.0
 10
294.717043299
 20
355.9468697527
 30
0.0
 10
294.7724755694
 20
359.8786156265
 30
0.0
 10
293.9963112247
 20
366.1245207094
 30
0.0
 10
292.6575260129
 20
370.6658345342
 30
0.0
 10
291.8025867424
 20
372.847860525
 30
0.0
  0
LINE
  5
5B8
100
AcDbEntity
  8
0
100
AcDbLine
 62
7
  6
CONTINUOUS
 10
291.8025867424
 20
372.847860525
 11
291.7947702636
 21
372.8677945823
  0
SPLINE
  5
5B9
100
AcDbEntity
  8
0
100
AcDbSpline
 62
7
  6
CONTINUOUS
 70
0
 71
3
 72
13
 73
9
 74
0
 42
0.0000001
 43
0.0000001
 44
0.0000000001
 40
0.0
 40
0.0
 40
0.0
 40
0.0
 40
0.2794319136
 40
0.540466284
 40
0.6630567434
 40
0.7801610486
 40
0.8921985387
 40
1.0
 40
1.0
 40
1.0
 40
1.0
 10
291.7947702636
 20
372.8677945823
 30
0.0
 10
290.9002030467
 20
375.1473889742
 30
0.0
 10
288.764656292
 20
379.4121318438
 30
0.0
 10
285.1192217109
 20
384.0056049373
 30
0.0
 10
281.7944689354
 20
386.8865306621
 30
0.0
 10
279.2072847115
 20
388.5813744487
 30
0.0
 10
276.5171817622
 20
389.8251989915
 30
0.0
 10
274.6516388123
 20
390.3470311082
 30
0.0
 10
273.7231486644
 20
390.5214556935
 30
0.0
  0
SPLINE
  5
5BA
100
AcDbEntity
  8
0
100
AcDbSpline
 62
7
  6
CONTINUOUS
 70
0
 71
3
 72
11
 73
7
 74
0
 42
0.0000001
 43
0.0000001
 44
0.0000000001
 40
0.0
 40
0.0
 40
0.0
 40
0.0
 40
0.2319320338
 40
0.4746257343
 40
0.7304490503
 40
1.0
 40
1.0
 40
1.0
 40
1.0
 10
269.1731009315
 20
330.5405746152
 30
0.0
 10
267.8632623602
 20
330.7866386689
 30
0.0
 10
265.2356356011
 20
331.6133843613
 30
0.0
 10
261.5664007545
 20
333.7059304771
 30
0.0
 10
258.1917826811
 20
336.5854710447
 30
0.0
 10
256.2427047809
 20
338.909829338
 30
0.0
 10
255.3362253025
 20
340.1657947186
 30
0.0
  0
SPLINE
  5
5BB
100
AcDbEntity
  8
0
100
AcDbSpline
 62
7
  6
CONTINUOUS
 70
0
 71
3
 72
11
 73
7
 74
0
 42
0.0000001
 43
0.0000001
 44
0.0000000001
 40
0.0
 40
0.0
 40
0.0
 40
0.0
 40
0.2679580446
 40
0.52216966
 40
0.7648943663
 40
1.0
 40
1.0
 40
1.0
 40
1.0
 10
251.7080094124
 20
378.6948786784
 30
0.0
 10
252.3697083917
 20
380.0071452603
 30
0.0
 10
253.8673676851
 20
382.4679470763
 30
0.0
 10
256.6896172296
 20
385.6078750963
 30
0.0
 10
259.9602835574
 20
387.9901309461
 30
0.0
 10
262.4046575567
 20
389.0149043316
 30
0.0
 10
263.6462406024
 20
389.3630565248
 30
0.0
  0
SPLINE
  5
5BC
100
AcDbEntity
  8
0
100
AcDbSpline
 62
7
  6
CONTINUOUS
 70
0
 71
3
 72
9
 73
5
 74
0
 42
0.0000001
 43
0.0000001
 44
0.0000000001
 40
0.0
 40
0.0
 40
0.0
 40
0.0
 40
0.4968194209
 40
1.0
 40
1.0
 40
1.0
 40
1.0
 10
266.7590574464
 20
390.2359174518
 30
0.0
 10
267.8779119148
 20
390.5496631291
 30
0.0
 10
270.211801667
 20
390.9205884804
 30
0.0
 10
272.5664913218
 20
390.7387433813
 30
0.0
 10
273.7231486644
 20
390.5214556935
 30
0.0
  0
SPLINE
  5
5BD
100
AcDbEntity
  8
0
100
AcDbSpline
 62
7
  6
CONTINUOUS
 70
0
 71
3
 72
25
 73
21
 74
0
 42
0.0000001
 43
0.0000001
 44
0.0000000001
 40
0.0
 40
0.0
 40
0.0
 40
0.0
 40
0.0254013612
 40
0.050820051
 40
0.0764798556
 40
0.1025906081
 40
0.1567750481
 40
0.2145222424
 40
0.2762524732
 40
0.3418117397
 40
0.4105849551
 40
0.4816225085
 40
0.5537621245
 40
0.6257439262
 40
0.696321793
 40
0.764375257
 40
0.8290260599
 40
0.8897617446
 40
0.9465615907
 40
1.0
 40
1.0
 40
1.0
 40
1.0
 10
272.6203836895
 20
330.264088296
 30
0.0
 10
273.2757538789
 20
330.2824472964
 30
0.0
 10
274.5862278843
 20
330.4059136216
 30
0.0
 10
276.5147780429
 20
330.8522487265
 30
0.0
 10
278.3851883063
 20
331.5552909824
 30
0.0
 10
280.8066886828
 20
332.8400717308
 30
0.0
 10
283.6163310293
 20
335.0892471819
 30
0.0
 10
286.4401289482
 20
338.6089115653
 30
0.0
 10
288.6813120537
 20
342.8552378035
 30
0.0
 10
290.271374688
 20
347.6815213199
 30
0.0
 10
291.1626581776
 20
352.9252764718
 30
0.0
 10
291.3274844943
 20
358.4099149662
 30
0.0
 10
290.7614206581
 20
363.9502697487
 30
0.0
 10
289.4838539178
 20
369.3588667504
 30
0.0
 10
287.5376155359
 20
374.4526328675
 30
0.0
 10
284.9869833547
 20
379.0593197933
 30
0.0
 10
281.9152067532
 20
383.0229713607
 30
0.0
 10
278.4189102326
 20
386.2079100178
 30
0.0
 10
274.6113472144
 20
388.4992029491
 30
0.0
 10
271.8747534121
 20
389.3901598182
 30
0.0
 10
270.5191820484
 20
389.6448151568
 30
0.0
  0
SPLINE
  5
5BE
100
AcDbEntity
  8
0
100
AcDbSpline
 62
7
  6
CONTINUOUS
 70
0
 71
3
 72
9
 73
5
 74
0
 42
0.0000001
 43
0.0000001
 44
0.0000000001
 40
0.0
 40
0.0
 40
0.0
 40
0.0
 40
0.4968193354
 40
1.0
 40
1.0
 40
1.0
 40
1.0
 10
263.6462413559
 20
389.3630530136
 30
0.0
 10
264.7504542045
 20
389.6726795355
 30
0.0
 10
267.0537972052
 20
390.0387296743
 30
0.0
 10
269.3776642344
 20
389.8592587584
 30
0.0
 10
270.5191820484
 20
389.6448151568
 30
0.0
  0
SPLINE
  5
5BF
100
AcDbEntity
  8
0
100
AcDbSpline
 62
7
  6
CONTINUOUS
 70
0
 71
3
 72
23
 73
19
 74
0
 42
0.0000001
 43
0.0000001
 44
0.0000000001
 40
0.0
 40
0.0
 40
0.0
 40
0.0
 40
0.0516936779
 40
0.1029349168
 40
0.1556886689
 40
0.2115473363
 40
0.2714307008
 40
0.335536241
 40
0.4034405956
 40
0.4742510082
 40
0.5467595495
 40
0.6195886054
 40
0.6913296124
 40
0.7606804504
 40
0.8265872948
 40
0.8883951446
 40
0.9460036106
 40
1.0
 40
1.0
 40
1.0
 40
1.0
 10
268.3419720969
 20
331.9420043311
 30
0.0
 10
269.6358850707
 20
331.6989320331
 30
0.0
 10
272.2926343567
 20
331.5524588913
 30
0.0
 10
276.2040381676
 20
332.4642684643
 30
0.0
 10
279.807601529
 20
334.4608242664
 30
0.0
 10
282.9548734912
 20
337.4355536406
 30
0.0
 10
285.5399759236
 20
341.2547864208
 30
0.0
 10
287.4799576542
 20
345.7681083963
 30
0.0
 10
288.7117831645
 20
350.80653088
 30
0.0
 10
289.1941997589
 20
356.1832499682
 30
0.0
 10
288.9112356909
 20
361.6984599813
 30
0.0
 10
287.8740853064
 20
367.1465568967
 30
0.0
 10
286.121247854
 20
372.3241985389
 30
0.0
 10
283.7166501878
 20
377.0383030791
 30
0.0
 10
280.7468892106
 20
381.1130464113
 30
0.0
 10
277.3146533666
 20
384.3950773041
 30
0.0
 10
273.541697363
 20
386.7544289401
 30
0.0
 10
270.8110294477
 20
387.6643031927
 30
0.0
 10
269.4594787028
 20
387.9182032246
 30
0.0
  0
SPLINE
  5
5C0
100
AcDbEntity
  8
0
100
AcDbSpline
 62
7
  6
CONTINUOUS
 70
0
 71
3
 72
11
 73
7
 74
0
 42
0.0000001
 43
0.0000001
 44
0.0000000001
 40
0.0
 40
0.0
 40
0.0
 40
0.0
 40
0.2293365902
 40
0.471215965
 40
0.7279555046
 40
1.0
 40
1.0
 40
1.0
 40
1.0
 10
268.3419720969
 20
331.9420043311
 30
0.0
 10
267.1998047168
 20
332.156569959
 30
0.0
 10
264.8978912393
 20
332.8697393001
 30
0.0
 10
261.6515643277
 20
334.6667715177
 30
0.0
 10
258.6175334789
 20
337.1551588933
 30
0.0
 10
256.836804007
 20
339.1734530397
 30
0.0
 10
255.9993493133
 20
340.2684933971
 30
0.0
  0
SPLINE
  5
5C1
100
AcDbEntity
  8
0
100
AcDbSpline
 62
7
  6
CONTINUOUS
 70
0
 71
3
 72
15
 73
11
 74
0
 42
0.0000001
 43
0.0000001
 44
0.0000000001
 40
0.0
 40
0.0
 40
0.0
 40
0.0
 40
0.1412678972
 40
0.2760981011
 40
0.4048106789
 40
0.5282165108
 40
0.6476157372
 40
0.7647239138
 40
0.8815135367
 40
1.0
 40
1.0
 40
1.0
 40
1.0
 10
251.7487314678
 20
377.2700891226
 30
0.0
 10
252.2001084066
 20
378.217977638
 30
0.0
 10
253.1932397809
 20
380.0208467163
 30
0.0
 10
254.9858538867
 20
382.4485137523
 30
0.0
 10
257.0198455696
 20
384.4973090287
 30
0.0
 10
259.2624720499
 20
386.1296759107
 30
0.0
 10
261.6763543908
 20
387.3144692303
 30
0.0
 10
264.2191945329
 20
388.0274971176
 30
0.0
 10
266.8428937444
 20
388.2543191484
 30
0.0
 10
268.5940506901
 20
388.0807810641
 30
0.0
 10
269.4594787028
 20
387.9182032246
 30
0.0
  0
SPLINE
  5
5C2
100
AcDbEntity
  8
0
100
AcDbSpline
 62
7
  6
CONTINUOUS
 70
0
 71
3
 72
17
 73
13
 74
0
 42
0.0000001
 43
0.0000001
 44
0.0000000001
 40
0.0
 40
0.0
 40
0.0
 40
0.0
 40
0.1852391256
 40
0.3518081354
 40
0.4985402778
 40
0.6254810967
 40
0.7336822775
 40
0.8266304264
 40
0.8701025777
 40
0.9126982829
 40
0.9556856561
 40
1.0
 40
1.0
 40
1.0
 40
1.0
 10
246.5323094784
 20
386.571272453
 30
0.0
 10
246.9105719685
 20
386.6287082669
 30
0.0
 10
247.6273638065
 20
386.748969633
 30
0.0
 10
248.6356888562
 20
386.9593078518
 30
0.0
 10
249.5157743073
 20
387.189797876
 30
0.0
 10
250.2643034214
 20
387.4412188868
 30
0.0
 10
250.8845451361
 20
387.7169989786
 30
0.0
 10
251.313461473
 20
387.9911183066
 30
0.0
 10
251.5830959582
 20
388.2457199713
 30
0.0
 10
251.7454742827
 20
388.4594859513
 30
0.0
 10
251.8531575362
 20
388.7083387596
 30
0.0
 10
251.8805907834
 20
388.8888376221
 30
0.0
 10
251.8834209865
 20
388.980321971
 30
0.0
  0
SPLINE
  5
5C3
100
AcDbEntity
  8
0
100
AcDbSpline
 62
7
  6
CONTINUOUS
 70
0
 71
3
 72
20
 73
16
 74
0
 42
0.0000001
 43
0.0000001
 44
0.0000000001
 40
0.0
 40
0.0
 40
0.0
 40
0.0
 40
0.0403204359
 40
0.0798185307
 40
0.1195851487
 40
0.1601569807
 40
0.2033721974
 40
0.250622337
 40
0.3593830756
 40
0.3898014173
 40
0.4215371835
 40
0.4889715349
 40
0.6396175452
 40
0.8104787591
 40
1.0
 40
1.0
 40
1.0
 40
1.0
 10
216.8968816211
 20
389.6849732419
 30
0.0
 10
216.8936550745
 20
389.5806805192
 30
0.0
 10
216.9178226376
 20
389.3712123732
 30
0.0
 10
217.0519080627
 20
389.0878511691
 30
0.0
 10
217.2453439867
 20
388.8431716556
 30
0.0
 10
217.4839413156
 20
388.6284889963
 30
0.0
 10
217.7648270139
 20
388.4372949504
 30
0.0
 10
218.2150721158
 20
388.1852346339
 30
0.0
 10
218.6604844829
 20
387.9962099154
 30
0.0
 10
219.075872325
 20
387.8444535394
 30
0.0
 10
219.3932630519
 20
387.7360495943
 30
0.0
 10
220.0109696929
 20
387.5448932736
 30
0.0
 10
220.9863001393
 20
387.294001522
 30
0.0
 10
222.281180201
 20
387.0238044382
 30
0.0
 10
223.2007460404
 20
386.8670981062
 30
0.0
 10
223.6853729558
 20
386.7917482802
 30
0.0
  0
SPLINE
  5
5C4
100
AcDbEntity
  8
0
100
AcDbSpline
 62
7
  6
CONTINUOUS
 70
0
 71
3
 72
13
 73
9
 74
0
 42
0.0000001
 43
0.0000001
 44
0.0000000001
 40
0.0
 40
0.0
 40
0.0
 40
0.0
 40
0.1134926528
 40
0.2370176542
 40
0.501114242
 40
0.7646314776
 40
0.887446974
 40
1.0
 40
1.0
 40
1.0
 40
1.0
 10
223.8689479059
 20
386.7635533382
 30
0.0
 10
224.6607132418
 20
386.6434298238
 30
0.0
 10
226.3200735856
 20
386.43041993
 30
0.0
 10
229.8415196772
 20
386.1046828019
 30
0.0
 10
234.4339655375
 20
385.894869817
 30
0.0
 10
239.0260848784
 20
385.9314952567
 30
0.0
 10
242.5415234373
 20
386.1250530922
 30
0.0
 10
244.1960166308
 20
386.2758989445
 30
0.0
 10
244.985026192
 20
386.3665114703
 30
0.0
  0
SPLINE
  5
5C5
100
AcDbEntity
  8
0
100
AcDbSpline
 62
7
  6
CONTINUOUS
 70
0
 71
3
 72
9
 73
5
 74
0
 42
0.0000001
 43
0.0000001
 44
0.0000000001
 40
0.0
 40
0.0
 40
0.0
 40
0.0
 40
0.2662215466
 40
1.0
 40
1.0
 40
1.0
 40
1.0
 10
220.4391690642
 20
406.0055290061
 30
0.0
 10
220.3892597861
 20
406.0150008282
 30
0.0
 10
220.2006941955
 20
406.0438701626
 30
0.0
 10
220.0069474049
 20
406.0446799183
 30
0.0
 10
219.8684581034
 20
406.0240405202
 30
0.0
  0
SPLINE
  5
5C6
100
AcDbEntity
  8
0
100
AcDbSpline
 62
7
  6
CONTINUOUS
 70
0
 71
3
 72
27
 73
23
 74
0
 42
0.0000001
 43
0.0000001
 44
0.0000000001
 40
0.0
 40
0.0
 40
0.0
 40
0.0
 40
0.0482745493
 40
0.1031289631
 40
0.1640971995
 40
0.2299982854
 40
0.2995167134
 40
0.371154719
 40
0.4073378262
 40
0.443513809
 40
0.4796005131
 40
0.5156236701
 40
0.5875021587
 40
0.6583026916
 40
0.7265773892
 40
0.7908561258
 40
0.8503021511
 40
0.90451068
 40
0.9297571528
 40
0.9539101938
 40
0.9772046487
 40
1.0
 40
1.0
 40
1.0
 40
1.0
 10
222.5019344811
 20
409.1182968265
 30
0.0
 10
222.8085308531
 20
409.0613757816
 30
0.0
 10
223.4431712126
 20
408.8259835032
 30
0.0
 10
224.3259980023
 20
408.2264896993
 30
0.0
 10
225.1538808792
 20
407.3848442682
 30
0.0
 10
225.8822036464
 20
406.3394107881
 30
0.0
 10
226.4546489375
 20
405.1223663139
 30
0.0
 10
226.7429226478
 20
404.0074387773
 30
0.0
 10
226.8743039168
 20
403.0859724132
 30
0.0
 10
226.91783441
 20
402.3861596172
 30
0.0
 10
226.9232856987
 20
401.6865330918
 30
0.0
 10
226.906798064
 20
400.7566758469
 30
0.0
 10
226.8856817008
 20
399.6015846472
 30
0.0
 10
226.6949458569
 20
398.2476429947
 30
0.0
 10
226.3003018874
 20
396.9860429587
 30
0.0
 10
225.6812394524
 20
395.9000369006
 30
0.0
 10
224.9137209144
 20
395.0339664418
 30
0.0
 10
224.1736645906
 20
394.507298785
 30
0.0
 10
223.5556869107
 20
394.2449210403
 30
0.0
 10
223.0997701151
 20
394.1247196609
 30
0.0
 10
222.6454895399
 20
394.0844112562
 30
0.0
 10
222.3470984486
 20
394.1136843466
 30
0.0
 10
222.2025907273
 20
394.141966919
 30
0.0
  0
SPLINE
  5
5C7
100
AcDbEntity
  8
0
100
AcDbSpline
 62
7
  6
CONTINUOUS
 70
0
 71
3
 72
15
 73
11
 74
0
 42
0.0000001
 43
0.0000001
 44
0.0000000001
 40
0.0
 40
0.0
 40
0.0
 40
0.0
 40
0.128447601
 40
0.2598226
 40
0.3972484223
 40
0.534189149
 40
0.6639878211
 40
0.7852793088
 40
0.8969929075
 40
1.0
 40
1.0
 40
1.0
 40
1.0
 10
191.7284825138
 20
396.1163418965
 30
0.0
 10
191.7338058706
 20
396.3824059116
 30
0.0
 10
191.7462343833
 20
396.9206180895
 30
0.0
 10
191.7303980311
 20
397.7438073673
 30
0.0
 10
191.6297607286
 20
398.5817510915
 30
0.0
 10
191.3711424659
 20
399.384128092
 30
0.0
 10
190.9813889969
 20
400.0928979168
 30
0.0
 10
190.4879486491
 20
400.6682391387
 30
0.0
 10
189.9177289536
 20
401.0795376906
 30
0.0
 10
189.4926943803
 20
401.2352856965
 30
0.0
 10
189.2829605444
 20
401.2747245543
 30
0.0
  0
SPLINE
  5
5C8
100
AcDbEntity
  8
0
100
AcDbSpline
 62
7
  6
CONTINUOUS
 70
0
 71
3
 72
12
 73
8
 74
0
 42
0.0000001
 43
0.0000001
 44
0.0000000001
 40
0.0
 40
0.0
 40
0.0
 40
0.0
 40
0.2009620418
 40
0.3213640713
 40
0.4532363267
 40
0.7333447294
 40
1.0
 40
1.0
 40
1.0
 40
1.0
 10
220.439220466
 20
406.0055194504
 30
0.0
 10
220.7043082846
 20
406.045778119
 30
0.0
 10
221.1129559882
 20
406.2295019516
 30
0.0
 10
221.5679388298
 20
406.630313401
 30
0.0
 10
222.0090571229
 20
407.1921448038
 30
0.0
 10
222.38234554
 20
408.0328589768
 30
0.0
 10
222.4947394364
 20
408.7626076105
 30
0.0
 10
222.5018462355
 20
409.1183132082
 30
0.0
  0
SPLINE
  5
5C9
100
AcDbEntity
  8
0
100
AcDbSpline
 62
7
  6
CONTINUOUS
 70
0
 71
3
 72
11
 73
7
 74
0
 42
0.0000001
 43
0.0000001
 44
0.0000000001
 40
0.0
 40
0.0
 40
0.0
 40
0.0
 40
0.2694939462
 40
0.5377421531
 40
0.7836284233
 40
1.0
 40
1.0
 40
1.0
 40
1.0
 10
222.2025845318
 20
394.1419681316
 30
0.0
 10
222.2079018435
 20
394.407977105
 30
0.0
 10
222.1651516684
 20
394.9418329015
 30
0.0
 10
221.9216734247
 20
395.6856685463
 30
0.0
 10
221.4944669327
 20
396.2846892956
 30
0.0
 10
221.090550741
 20
396.5313365614
 30
0.0
 10
220.8871018254
 20
396.5964551399
 30
0.0
  0
SPLINE
  5
5CA
100
AcDbEntity
  8
0
100
AcDbSpline
 62
7
  6
CONTINUOUS
 70
0
 71
3
 72
23
 73
19
 74
0
 42
0.0000001
 43
0.0000001
 44
0.0000000001
 40
0.0
 40
0.0
 40
0.0
 40
0.0
 40
0.0700607228
 40
0.1405185902
 40
0.2117086568
 40
0.2816638599
 40
0.3481875023
 40
0.4102676649
 40
0.4673871098
 40
0.5202335733
 40
0.5706569449
 40
0.6210469628
 40
0.6738676121
 40
0.7309916845
 40
0.7936228158
 40
0.8610467198
 40
0.9300028368
 40
1.0
 40
1.0
 40
1.0
 40
1.0
 10
186.6305507125
 20
397.0144439661
 30
0.0
 10
186.6252598255
 20
396.7507791382
 30
0.0
 10
186.6163492861
 20
396.2218466947
 30
0.0
 10
186.6394429944
 20
395.4248876519
 30
0.0
 10
186.7434726673
 20
394.6321276352
 30
0.0
 10
186.9886697507
 20
393.8846814541
 30
0.0
 10
187.3510079837
 20
393.2259619653
 30
0.0
 10
187.8067018734
 20
392.6886149024
 30
0.0
 10
188.3344155724
 20
392.3014325143
 30
0.0
 10
188.9094600785
 20
392.0883445947
 30
0.0
 10
189.4988793855
 20
392.0741353104
 30
0.0
 10
190.0589115151
 20
392.2578222776
 30
0.0
 10
190.548125043
 20
392.6277318793
 30
0.0
 10
190.9384874862
 20
393.1563380342
 30
0.0
 10
191.2067479512
 20
393.8154584814
 30
0.0
 10
191.3286362114
 20
394.5582776628
 30
0.0
 10
191.3750623684
 20
395.3338751662
 30
0.0
 10
191.3847060667
 20
395.8569117788
 30
0.0
 10
191.3899658723
 20
396.120337934
 30
0.0
  0
SPLINE
  5
5CB
100
AcDbEntity
  8
0
100
AcDbSpline
 62
7
  6
CONTINUOUS
 70
0
 71
3
 72
23
 73
19
 74
0
 42
0.0000001
 43
0.0000001
 44
0.0000000001
 40
0.0
 40
0.0
 40
0.0
 40
0.0
 40
0.0701349058
 40
0.1403784728
 40
0.2115799454
 40
0.2814461654
 40
0.3479626985
 40
0.4102623421
 40
0.4678313042
 40
0.5210223624
 40
0.5712468561
 40
0.6211189173
 40
0.6735537008
 40
0.730534075
 40
0.7931664825
 40
0.860659016
 40
0.9299960201
 40
1.0
 40
1.0
 40
1.0
 40
1.0
 10
191.3899658723
 20
396.120337934
 30
0.0
 10
191.3952206016
 20
396.3835098517
 30
0.0
 10
191.4064641068
 20
396.910303482
 30
0.0
 10
191.3911140705
 20
397.7045143983
 30
0.0
 10
191.2971393936
 20
398.4951638929
 30
0.0
 10
191.0577025737
 20
399.2420036931
 30
0.0
 10
190.6982994489
 20
399.9004921942
 30
0.0
 10
190.2422188881
 20
400.4383632882
 30
0.0
 10
189.7123701205
 20
400.8256234629
 30
0.0
 10
189.1389345989
 20
401.0424798421
 30
0.0
 10
188.5530200139
 20
401.0652844729
 30
0.0
 10
187.9965643922
 20
400.8887649243
 30
0.0
 10
187.5092904597
 20
400.5259742624
 30
0.0
 10
187.1163152342
 20
400.0044511257
 30
0.0
 10
186.8401553267
 20
399.351464941
 30
0.0
 10
186.7052468678
 20
398.6114189023
 30
0.0
 10
186.6491675199
 20
397.8368558334
 30
0.0
 10
186.6366444156
 20
397.3139332173
 30
0.0
 10
186.6312943756
 20
397.0512547016
 30
0.0
  0
LINE
  5
5CC
100
AcDbEntity
  8
0
100
AcDbLine
 62
7
  6
CONTINUOUS
 10
186.6312943756
 20
397.0512547016
 11
186.6305509426
 21
397.0144439201
  0
SPLINE
  5
5CD
100
AcDbEntity
  8
0
100
AcDbSpline
 62
7
  6
CONTINUOUS
 70
0
 71
3
 72
9
 73
5
 74
0
 42
0.0000001
 43
0.0000001
 44
0.0000000001
 40
0.0
 40
0.0
 40
0.0
 40
0.0
 40
0.2674780799
 40
1.0
 40
1.0
 40
1.0
 40
1.0
 10
191.389965857
 20
396.1203379369
 30
0.0
 10
191.1681510893
 20
396.1563845784
 30
0.0
 10
190.3391713216
 20
396.2929780339
 30
0.0
 10
189.5116004568
 20
396.4383057285
 30
0.0
 10
188.9067459108
 20
396.5519400014
 30
0.0
  0
SPLINE
  5
5CE
100
AcDbEntity
  8
0
100
AcDbSpline
 62
7
  6
CONTINUOUS
 70
0
 71
3
 72
14
 73
10
 74
0
 42
0.0000001
 43
0.0000001
 44
0.0000000001
 40
0.0
 40
0.0
 40
0.0
 40
0.0
 40
0.0667350948
 40
0.1427061625
 40
0.2343054749
 40
0.3449712272
 40
0.4764183072
 40
0.6294291972
 40
1.0
 40
1.0
 40
1.0
 40
1.0
 10
216.893747759
 20
389.682034486
 30
0.0
 10
216.89238462
 20
389.6137413493
 30
0.0
 10
216.920970895
 20
389.466103966
 30
0.0
 10
217.0476215088
 20
389.2585422789
 30
0.0
 10
217.250857431
 20
389.0565269864
 30
0.0
 10
217.5295673745
 20
388.8573549261
 30
0.0
 10
217.8835434005
 20
388.6604719477
 30
0.0
 10
218.4949409946
 20
388.3840809694
 30
0.0
 10
219.0035335451
 20
388.211130318
 30
0.0
 10
219.3664336548
 20
388.1008106471
 30
0.0
  0
SPLINE
  5
5CF
100
AcDbEntity
  8
0
100
AcDbSpline
 62
7
  6
CONTINUOUS
 70
0
 71
3
 72
16
 73
12
 74
0
 42
0.0000001
 43
0.0000001
 44
0.0000000001
 40
0.0
 40
0.0
 40
0.0
 40
0.0
 40
0.0431049237
 40
0.0921446376
 40
0.2058144788
 40
0.3357664264
 40
0.4757683394
 40
0.6190254199
 40
0.7585643995
 40
0.8876158851
 40
1.0
 40
1.0
 40
1.0
 40
1.0
 10
219.6137686559
 20
388.0277371131
 30
0.0
 10
219.9915095144
 20
387.9192298543
 30
0.0
 10
220.8065095954
 20
387.7132726008
 30
0.0
 10
222.645092028
 20
387.3356749727
 30
0.0
 10
225.2864553576
 20
386.9435869615
 30
0.0
 10
228.76844351
 20
386.6018463488
 30
0.0
 10
232.5309967606
 20
386.389364343
 30
0.0
 10
236.3861125073
 20
386.317155685
 30
0.0
 10
240.1415615711
 20
386.3888659085
 30
0.0
 10
243.6096842372
 20
386.6001530275
 30
0.0
 10
245.7990730487
 20
386.845099478
 30
0.0
 10
246.8121422577
 20
386.9989264359
 30
0.0
  0
SPLINE
  5
5D0
100
AcDbEntity
  8
0
100
AcDbSpline
 62
7
  6
CONTINUOUS
 70
0
 71
3
 72
16
 73
12
 74
0
 42
0.0000001
 43
0.0000001
 44
0.0000000001
 40
0.0
 40
0.0
 40
0.0
 40
0.0
 40
0.0531078254
 40
0.0844457074
 40
0.1203784789
 40
0.2082819529
 40
0.3196616186
 40
0.4551562661
 40
0.6144847936
 40
0.7966731441
 40
1.0
 40
1.0
 40
1.0
 40
1.0
 10
252.4652324131
 20
417.9675673285
 30
0.0
 10
252.4617864511
 20
417.867564007
 30
0.0
 10
252.4044022123
 20
417.709470095
 30
0.0
 10
252.2636105386
 20
417.5313486931
 30
0.0
 10
252.0475365324
 20
417.3325328112
 30
0.0
 10
251.6676081278
 20
417.0985017582
 30
0.0
 10
251.0891993505
 20
416.8446828028
 30
0.0
 10
250.3619295765
 20
416.6034380884
 30
0.0
 10
249.4917099639
 20
416.3770683647
 30
0.0
 10
248.486292642
 20
416.1681537154
 30
0.0
 10
247.769751385
 20
416.0480699594
 30
0.0
 10
247.3909954696
 20
415.9905635518
 30
0.0
  0
SPLINE
  5
5D1
100
AcDbEntity
  8
0
100
AcDbSpline
 62
7
  6
CONTINUOUS
 70
0
 71
3
 72
9
 73
5
 74
0
 42
0.0000001
 43
0.0000001
 44
0.0000000001
 40
0.0
 40
0.0
 40
0.0
 40
0.0
 40
0.4863736233
 40
1.0
 40
1.0
 40
1.0
 40
1.0
 10
191.7284825138
 20
396.1163418965
 30
0.0
 10
191.6739611913
 20
396.1080632989
 30
0.0
 10
191.5604941171
 20
396.0940952187
 30
0.0
 10
191.4474480443
 20
396.1109966298
 30
0.0
 10
191.3899658723
 20
396.120337934
 30
0.0
  0
SPLINE
  5
5D2
100
AcDbEntity
  8
0
100
AcDbSpline
 62
7
  6
CONTINUOUS
 70
0
 71
3
 72
11
 73
7
 74
0
 42
0.0000001
 43
0.0000001
 44
0.0000000001
 40
0.0
 40
0.0
 40
0.0
 40
0.0
 40
0.2140976637
 40
0.4482469091
 40
0.7125147407
 40
1.0
 40
1.0
 40
1.0
 40
1.0
 10
246.5322764203
 20
386.5714894145
 30
0.0
 10
246.5711350868
 20
386.5774368799
 30
0.0
 10
246.6503641532
 20
386.6103084013
 30
0.0
 10
246.7402345727
 20
386.7097891195
 30
0.0
 10
246.7970062023
 20
386.8446177312
 30
0.0
 10
246.811109555
 20
386.9461534961
 30
0.0
 10
246.8121632706
 20
386.9989290873
 30
0.0
  0
SPLINE
  5
5D3
100
AcDbEntity
  8
0
100
AcDbSpline
 62
7
  6
CONTINUOUS
 70
0
 71
3
 72
11
 73
7
 74
0
 42
0.0000001
 43
0.0000001
 44
0.0000000001
 40
0.0
 40
0.0
 40
0.0
 40
0.0
 40
0.228846558
 40
0.468067758
 40
0.7243596802
 40
1.0
 40
1.0
 40
1.0
 40
1.0
 10
222.2025896436
 20
394.1420127777
 30
0.0
 10
221.9421791391
 20
394.1892476632
 30
0.0
 10
221.4238282538
 20
394.3829433543
 30
0.0
 10
220.7589850343
 20
394.9094242673
 30
0.0
 10
220.2130624291
 20
395.6234036565
 30
0.0
 10
219.9358287212
 20
396.1759377601
 30
0.0
 10
219.8123193739
 20
396.4698150361
 30
0.0
  0
SPLINE
  5
5D4
100
AcDbEntity
  8
0
100
AcDbSpline
 62
7
  6
CONTINUOUS
 70
0
 71
3
 72
14
 73
10
 74
0
 42
0.0000001
 43
0.0000001
 44
0.0000000001
 40
0.0
 40
0.0
 40
0.0
 40
0.0
 40
0.2910292517
 40
0.4215479123
 40
0.5428162162
 40
0.6569463092
 40
0.7675412501
 40
0.8801039691
 40
1.0
 40
1.0
 40
1.0
 40
1.0
 10
219.3340066757
 20
405.9436210563
 30
0.0
 10
219.4296980529
 20
406.4218590304
 30
0.0
 10
219.6189844162
 20
407.1099913855
 30
0.0
 10
220.0319104835
 20
407.9239113158
 30
0.0
 10
220.3963268199
 20
408.4211802537
 30
0.0
 10
220.8304042035
 20
408.8135012166
 30
0.0
 10
221.3398867424
 20
409.074547037
 30
0.0
 10
221.9113705959
 20
409.1859727244
 30
0.0
 10
222.3043751031
 20
409.154951727
 30
0.0
 10
222.5019350507
 20
409.118326613
 30
0.0
  0
SPLINE
  5
5D5
100
AcDbEntity
  8
0
100
AcDbSpline
 62
7
  6
CONTINUOUS
 70
0
 71
3
 72
14
 73
10
 74
0
 42
0.0000001
 43
0.0000001
 44
0.0000000001
 40
0.0
 40
0.0
 40
0.0
 40
0.0
 40
0.1040110314
 40
0.2122762628
 40
0.3277312263
 40
0.453266736
 40
0.5883534253
 40
0.727060873
 40
1.0
 40
1.0
 40
1.0
 40
1.0
 10
189.7128872099
 20
391.9028216654
 30
0.0
 10
189.8877551112
 20
391.929387682
 30
0.0
 10
190.2386645056
 20
392.0374054084
 30
0.0
 10
190.7074010585
 20
392.3513069172
 30
0.0
 10
191.1037756939
 20
392.8014786753
 30
0.0
 10
191.4078063113
 20
393.3701093433
 30
0.0
 10
191.5968558079
 20
394.0267188988
 30
0.0
 10
191.7095256875
 20
394.951579469
 30
0.0
 10
191.7192119005
 20
395.6522920775
 30
0.0
 10
191.7284825138
 20
396.1163418965
 30
0.0
  0
SPLINE
  5
5D6
100
AcDbEntity
  8
0
100
AcDbSpline
 62
7
  6
CONTINUOUS
 70
0
 71
3
 72
24
 73
20
 74
0
 42
0.0000001
 43
0.0000001
 44
0.0000000001
 40
0.0
 40
0.0
 40
0.0
 40
0.0
 40
0.1031384246
 40
0.1593833263
 40
0.2162757327
 40
0.2728724893
 40
0.3374974277
 40
0.3763129839
 40
0.4205025637
 40
0.4711390417
 40
0.519434914
 40
0.5991932672
 40
0.66266233
 40
0.7215018956
 40
0.7818353209
 40
0.8419194216
 40
0.8995229555
 40
0.9528881698
 40
1.0
 40
1.0
 40
1.0
 40
1.0
 10
220.9100348852
 20
396.6397520579
 30
0.0
 10
221.3232347707
 20
396.702754477
 30
0.0
 10
221.9391429955
 20
396.9726393695
 30
0.0
 10
222.6182579795
 20
397.5301067721
 30
0.0
 10
223.0579084158
 20
398.0655204609
 30
0.0
 10
223.3948232222
 20
398.7118588388
 30
0.0
 10
223.5310292229
 20
399.3521308324
 30
0.0
 10
223.59273637
 20
399.9470118319
 30
0.0
 10
223.6145483567
 20
400.4885170771
 30
0.0
 10
223.6256483887
 20
401.0683608542
 30
0.0
 10
223.6398562371
 20
401.7923148486
 30
0.0
 10
223.6098253171
 20
402.5695319162
 30
0.0
 10
223.437793148
 20
403.3775065524
 30
0.0
 10
223.1013186185
 20
404.043798722
 30
0.0
 10
222.6654672208
 20
404.6283505063
 30
0.0
 10
222.1484680879
 20
405.1354255758
 30
0.0
 10
221.5873127568
 20
405.5466515936
 30
0.0
 10
221.0177938175
 20
405.8449438611
 30
0.0
 10
220.6268395244
 20
405.9704336221
 30
0.0
 10
220.4391689827
 20
406.0055290787
 30
0.0
  0
SPLINE
  5
5D7
100
AcDbEntity
  8
0
100
AcDbSpline
 62
7
  6
CONTINUOUS
 70
0
 71
3
 72
9
 73
5
 74
0
 42
0.0000001
 43
0.0000001
 44
0.0000000001
 40
0.0
 40
0.0
 40
0.0
 40
0.0
 40
0.2741080628
 40
1.0
 40
1.0
 40
1.0
 40
1.0
 10
246.8121422577
 20
386.9989264359
 30
0.0
 10
247.0353489759
 20
387.0328184105
 30
0.0
 10
247.8483868489
 20
387.1640955613
 30
0.0
 10
248.6571600628
 20
387.3257075693
 30
0.0
 10
249.236779371
 20
387.4723039825
 30
0.0
  0
SPLINE
  5
5D8
100
AcDbEntity
  8
0
100
AcDbSpline
 62
7
  6
CONTINUOUS
 70
0
 71
3
 72
14
 73
10
 74
0
 42
0.0000001
 43
0.0000001
 44
0.0000000001
 40
0.0
 40
0.0
 40
0.0
 40
0.0
 40
0.3704619899
 40
0.5234197791
 40
0.6548748964
 40
0.765588234
 40
0.8572617923
 40
0.9332898516
 40
1.0
 40
1.0
 40
1.0
 40
1.0
 10
249.348970471
 20
387.5011015494
 30
0.0
 10
249.7161097656
 20
387.5967495668
 30
0.0
 10
250.2313655127
 20
387.7491468714
 30
0.0
 10
250.8536155285
 20
388.0007024237
 30
0.0
 10
251.2155060033
 20
388.1831172372
 30
0.0
 10
251.5024183341
 20
388.3708581648
 30
0.0
 10
251.7141471458
 20
388.5644237044
 30
0.0
 10
251.8497808483
 20
388.766487752
 30
0.0
 10
251.8848786074
 20
388.9128212881
 30
0.0
 10
251.8865328572
 20
388.9811198178
 30
0.0
  0
SPLINE
  5
5D9
100
AcDbEntity
  8
0
100
AcDbSpline
 62
7
  6
CONTINUOUS
 70
0
 71
3
 72
10
 73
6
 74
0
 42
0.0000001
 43
0.0000001
 44
0.0000000001
 40
0.0
 40
0.0
 40
0.0
 40
0.0
 40
0.2762435738
 40
0.5460900469
 40
1.0
 40
1.0
 40
1.0
 40
1.0
 10
247.3910103103
 20
415.9913137168
 30
0.0
 10
247.3922496921
 20
416.053386769
 30
0.0
 10
247.3773759888
 20
416.1773569843
 30
0.0
 10
247.2976045497
 20
416.3868821371
 30
0.0
 10
247.1684535012
 20
416.5170001646
 30
0.0
 10
247.070321578
 20
416.5448809171
 30
0.0
  0
SPLINE
  5
5DA
100
AcDbEntity
  8
0
100
AcDbSpline
 62
7
  6
CONTINUOUS
 70
0
 71
3
 72
34
 73
30
 74
0
 42
0.0000001
 43
0.0000001
 44
0.0000000001
 40
0.0
 40
0.0
 40
0.0
 40
0.0
 40
0.0320091719
 40
0.0606417177
 40
0.0856212578
 40
0.1067950191
 40
0.1241221203
 40
0.1377193484
 40
0.1432552338
 40
0.1480804133
 40
0.15237755
 40
0.156409482
 40
0.1648518961
 40
0.1698761632
 40
0.1756516604
 40
0.1897955051
 40
0.2077074201
 40
0.2294660635
 40
0.2549971115
 40
0.2841448758
 40
0.3166777401
 40
0.3907801325
 40
0.4746912018
 40
0.5653381438
 40
0.6593561478
 40
0.7532428368
 40
0.8434877672
 40
0.9267647028
 40
1.0
 40
1.0
 40
1.0
 40
1.0
 10
247.0703451078
 20
416.5452148387
 30
0.0
 10
247.4435227831
 20
416.6018780514
 30
0.0
 10
248.1489229494
 20
416.7202465882
 30
0.0
 10
249.1376247116
 20
416.9265319658
 30
0.0
 10
249.9911264177
 20
417.1501277916
 30
0.0
 10
250.7017342125
 20
417.388477109
 30
0.0
 10
251.2635659016
 20
417.6390665509
 30
0.0
 10
251.6297042845
 20
417.8709071612
 30
0.0
 10
251.8342089876
 20
418.0673055686
 30
0.0
 10
251.9370230808
 20
418.2076823627
 30
0.0
 10
251.9985970345
 20
418.3518435893
 30
0.0
 10
252.0238612708
 20
418.5509536482
 30
0.0
 10
251.9513311006
 20
418.7559093074
 30
0.0
 10
251.8132111198
 20
418.9362500057
 30
0.0
 10
251.5998080156
 20
419.1403949545
 30
0.0
 10
251.2235191254
 20
419.385362076
 30
0.0
 10
250.6493041208
 20
419.6574598083
 30
0.0
 10
249.926714475
 20
419.9226533717
 30
0.0
 10
249.0619986391
 20
420.1784587617
 30
0.0
 10
248.0625060516
 20
420.4220134158
 30
0.0
 10
246.4931758413
 20
420.7412022736
 30
0.0
 10
244.2709694891
 20
421.0820776555
 30
0.0
 10
241.354785241
 20
421.3950780958
 30
0.0
 10
238.1945654683
 20
421.6136730295
 30
0.0
 10
234.9112948372
 20
421.7291288757
 30
0.0
 10
231.6307455906
 20
421.7366593709
 30
0.0
 10
228.4783174267
 20
421.6364212445
 30
0.0
 10
225.5749870109
 20
421.4325420978
 30
0.0
 10
223.7407276853
 20
421.2180943661
 30
0.0
 10
222.8869210187
 20
421.0884244419
 30
0.0
  0
SPLINE
  5
5DB
100
AcDbEntity
  8
0
100
AcDbSpline
 62
7
  6
CONTINUOUS
 70
0
 71
3
 72
9
 73
5
 74
0
 42
0.0000001
 43
0.0000001
 44
0.0000000001
 40
0.0
 40
0.0
 40
0.0
 40
0.0
 40
0.2479568816
 40
1.0
 40
1.0
 40
1.0
 40
1.0
 10
188.6704986072
 20
401.2870271145
 30
0.0
 10
188.7206926605
 20
401.2946378888
 30
0.0
 10
188.9243729867
 20
401.3166865265
 30
0.0
 10
189.1316361249
 20
401.3031799641
 30
0.0
 10
189.2829605444
 20
401.2747245543
 30
0.0
  0
LINE
  5
5DC
100
AcDbEntity
  8
0
100
AcDbLine
 62
7
  6
CONTINUOUS
 10
222.8869210187
 20
421.0884244419
 11
222.8258890911
 21
421.079101368
  0
SPLINE
  5
5DD
100
AcDbEntity
  8
0
100
AcDbSpline
 62
7
  6
CONTINUOUS
 70
0
 71
3
 72
34
 73
30
 74
0
 42
0.0000001
 43
0.0000001
 44
0.0000000001
 40
0.0
 40
0.0
 40
0.0
 40
0.0
 40
0.0318446296
 40
0.0603039172
 40
0.0851047837
 40
0.1061020975
 40
0.123260067
 40
0.1367060181
 40
0.142178792
 40
0.1469543595
 40
0.151221467
 40
0.1552478519
 40
0.1637511962
 40
0.1688288269
 40
0.1746652096
 40
0.1889402834
 40
0.2069839363
 40
0.2288672059
 40
0.2545132045
 40
0.2837639297
 40
0.3163874411
 40
0.3906334176
 40
0.4746401852
 40
0.5653408419
 40
0.6593796321
 40
0.7532653477
 40
0.8434984791
 40
0.9267649634
 40
1.0
 40
1.0
 40
1.0
 40
1.0
 10
222.8258890911
 20
421.079101368
 30
0.0
 10
222.4553780178
 20
421.0221737319
 30
0.0
 10
221.7553511467
 20
420.903357989
 30
0.0
 10
220.7747865995
 20
420.6964557426
 30
0.0
 10
219.9294344039
 20
420.4723633168
 30
0.0
 10
219.2268125686
 20
420.233669112
 30
0.0
 10
218.672659047
 20
419.9828401687
 30
0.0
 10
218.3128120136
 20
419.7507376418
 30
0.0
 10
218.1134054088
 20
419.5542106307
 30
0.0
 10
218.0141125896
 20
419.4136993952
 30
0.0
 10
217.956062219
 20
419.2694126998
 30
0.0
 10
217.935598969
 20
419.0697866325
 30
0.0
 10
218.0127235245
 20
418.8657797268
 30
0.0
 10
218.1541296771
 20
418.6859716552
 30
0.0
 10
218.3711864532
 20
418.4822580126
 30
0.0
 10
218.7512924585
 20
418.2378020658
 30
0.0
 10
219.3295623519
 20
417.9662145793
 30
0.0
 10
220.0555682593
 20
417.7016103736
 30
0.0
 10
220.9230444552
 20
417.4464884575
 30
0.0
 10
221.9245994668
 20
417.2036674877
 30
0.0
 10
223.4953656563
 20
416.8856723423
 30
0.0
 10
225.7177351809
 20
416.5462102186
 30
0.0
 10
228.6324047465
 20
416.2347993745
 30
0.0
 10
231.7891838452
 20
416.0176441659
 30
0.0
 10
235.0676230698
 20
415.9034623865
 30
0.0
 10
238.3425367078
 20
415.8968668443
 30
0.0
 10
241.4891630366
 20
415.9975903689
 30
0.0
 10
244.387120774
 20
416.2015924213
 30
0.0
 10
246.2180343207
 20
416.4157603818
 30
0.0
 10
247.0703451078
 20
416.5452148387
 30
0.0
  0
SPLINE
  5
5DE
100
AcDbEntity
  8
0
100
AcDbSpline
 62
7
  6
CONTINUOUS
 70
0
 71
3
 72
25
 73
21
 74
0
 42
0.0000001
 43
0.0000001
 44
0.0000000001
 40
0.0
 40
0.0
 40
0.0
 40
0.0
 40
0.063969347
 40
0.1351684325
 40
0.2930586926
 40
0.4605973111
 40
0.543593907
 40
0.6237312984
 40
0.6993290148
 40
0.7688065163
 40
0.8307497844
 40
0.8839438469
 40
0.9069580415
 40
0.9274636134
 40
0.9454096543
 40
0.9607779311
 40
0.973628975
 40
0.9841350557
 40
0.9926723408
 40
1.0
 40
1.0
 40
1.0
 40
1.0
 10
247.3910104479
 20
415.9913137377
 30
0.0
 10
246.7443492055
 20
415.893118252
 30
0.0
 10
245.3725446057
 20
415.7207155638
 30
0.0
 10
242.3870177663
 20
415.4592942409
 30
0.0
 10
238.33226128
 20
415.3007619126
 30
0.0
 10
234.1547349847
 20
415.3459570145
 30
0.0
 10
230.7772798398
 20
415.5090146157
 30
0.0
 10
228.3427641975
 20
415.6909045794
 30
0.0
 10
226.0519398406
 20
415.9283875561
 30
0.0
 10
223.9543545201
 20
416.215996534
 30
0.0
 10
222.0953896644
 20
416.5467996827
 30
0.0
 10
220.7180115475
 20
416.8648981381
 30
0.0
 10
219.7685581694
 20
417.1423102789
 30
0.0
 10
219.17382254
 20
417.3463140598
 30
0.0
 10
218.664218625
 20
417.5550694541
 30
0.0
 10
218.2421049658
 20
417.7677407341
 30
0.0
 10
217.9087641546
 20
417.9834157795
 30
0.0
 10
217.6645288896
 20
418.2023501843
 30
0.0
 10
217.5097123919
 20
418.4278320387
 30
0.0
 10
217.4720248513
 20
418.5912769189
 30
0.0
 10
217.4724860835
 20
418.6661994019
 30
0.0
  0
SPLINE
  5
5DF
100
AcDbEntity
  8
_CURVE
100
AcDbSpline
 62
40
  6
CONTINUOUS
 70
0
 71
3
 72
24
 73
20
 74
0
 42
0.0000001
 43
0.0000001
 44
0.0000000001
 40
0.0
 40
0.0
 40
0.0
 40
0.0
 40
0.25
 40
0.375
 40
0.4375
 40
0.5
 40
0.5625
 40
0.59375
 40
0.625
 40
0.640625
 40
0.65625
 40
0.6640625
 40
0.671875
 40
0.6875
 40
0.71875
 40
0.75
 40
0.8125
 40
0.875
 40
1.0
 40
1.0
 40
1.0
 40
1.0
 10
239.8226391625
 20
418.070836047
 30
0.0
 10
239.9739532444
 20
418.0944797311
 30
0.0
 10
240.2009253361
 20
418.1300171895
 30
0.0
 10
240.4657227182
 20
418.1712257948
 30
0.0
 10
240.617019343
 20
418.1940248185
 30
0.0
 10
240.7304992554
 20
418.2112254467
 30
0.0
 10
240.825047772
 20
418.2255334148
 30
0.0
 10
240.9007262482
 20
418.2369912421
 30
0.0
 10
240.9479351771
 20
418.2441366963
 30
0.0
 10
240.9859086895
 20
418.2498878474
 30
0.0
 10
241.0091712709
 20
418.2534031914
 30
0.0
 10
241.0288598168
 20
418.2563966708
 30
0.0
 10
241.0446111308
 20
418.2587286337
 30
0.0
 10
241.0703469183
 20
418.2625022664
 30
0.0
 10
241.1080666171
 20
418.2680535055
 30
0.0
 10
241.1678848235
 20
418.2768458835
 30
0.0
 10
241.2428402665
 20
418.2878670498
 30
0.0
 10
241.3626664152
 20
418.3054836842
 30
0.0
 10
241.4525591028
 20
418.3187000372
 30
0.0
 10
241.5124824332
 20
418.3275100775
 30
0.0
  0
SPLINE
  5
5E0
100
AcDbEntity
  8
_CURVE
100
AcDbSpline
 62
40
  6
CONTINUOUS
 70
0
 71
3
 72
10
 73
6
 74
0
 42
0.0000001
 43
0.0000001
 44
0.0000000001
 40
0.0
 40
0.0
 40
0.0
 40
0.0
 40
0.3333333333
 40
0.6666666667
 40
1.0
 40
1.0
 40
1.0
 40
1.0
 10
228.46539948
 20
420.2046274697
 30
0.0
 10
229.7282038029
 20
420.0244071176
 30
0.0
 10
232.2532330942
 20
419.6260403696
 30
0.0
 10
236.0401006777
 20
418.9145659449
 30
0.0
 10
238.5621043828
 20
418.3646991415
 30
0.0
 10
239.8226391625
 20
418.070836047
 30
0.0
  0
SPLINE
  5
5E1
100
AcDbEntity
  8
_CURVE
100
AcDbSpline
 62
40
  6
CONTINUOUS
 70
0
 71
3
 72
24
 73
20
 74
0
 42
0.0000001
 43
0.0000001
 44
0.0000000001
 40
0.0
 40
0.0
 40
0.0
 40
0.0
 40
0.25
 40
0.375
 40
0.4375
 40
0.5
 40
0.5625
 40
0.59375
 40
0.625
 40
0.640625
 40
0.65625
 40
0.6640625
 40
0.671875
 40
0.6875
 40
0.71875
 40
0.75
 40
0.8125
 40
0.875
 40
1.0
 40
1.0
 40
1.0
 40
1.0
 10
230.1552428255
 20
420.4613015111
 30
0.0
 10
230.0039550918
 20
420.4389823364
 30
0.0
 10
229.7770253938
 20
420.4055756484
 30
0.0
 10
229.5122674207
 20
420.3663489198
 30
0.0
 10
229.3609634622
 20
420.3431852713
 30
0.0
 10
229.2474820589
 20
420.3259122433
 30
0.0
 10
229.1529313742
 20
420.3114975153
 30
0.0
 10
229.0772513804
 20
420.2999651698
 30
0.0
 10
229.0300414236
 20
420.2927691306
 30
0.0
 10
228.9920672254
 20
420.286984416
 30
0.0
 10
228.9688039137
 20
420.2834328391
 30
0.0
 10
228.9491154733
 20
420.2804452609
 30
0.0
 10
228.9333617473
 20
420.2779918536
 30
0.0
 10
228.9076205693
 20
420.2739465364
 30
0.0
 10
228.86989378
 20
420.2680380418
 30
0.0
 10
228.8100638876
 20
420.2586568058
 30
0.0
 10
228.7350939542
 20
420.2469054756
 30
0.0
 10
228.615244555
 20
420.2281172617
 30
0.0
 10
228.5253344443
 20
420.2140229705
 30
0.0
 10
228.4653994953
 20
420.2046274721
 30
0.0
  0
SPLINE
  5
5E2
100
AcDbEntity
  8
_CURVE
100
AcDbSpline
 62
40
  6
CONTINUOUS
 70
0
 71
3
 72
10
 73
6
 74
0
 42
0.0000001
 43
0.0000001
 44
0.0000000001
 40
0.0
 40
0.0
 40
0.0
 40
0.0
 40
0.3333333333
 40
0.6666666667
 40
1.0
 40
1.0
 40
1.0
 40
1.0
 10
241.5124825081
 20
418.3275100884
 30
0.0
 10
240.2519477278
 20
418.6213731629
 30
0.0
 10
237.7299440219
 20
419.1712399395
 30
0.0
 10
233.9430764392
 20
419.882714364
 30
0.0
 10
231.4180471482
 20
420.2810811388
 30
0.0
 10
230.1552428255
 20
420.4613015111
 30
0.0
  0
SPLINE
  5
5E3
100
AcDbEntity
  8
0
100
AcDbSpline
 62
7
  6
CONTINUOUS
 70
0
 71
3
 72
11
 73
7
 74
0
 42
0.0000001
 43
0.0000001
 44
0.0000000001
 40
0.0
 40
0.0
 40
0.0
 40
0.0
 40
0.2808854253
 40
0.5441961297
 40
0.7836157718
 40
1.0
 40
1.0
 40
1.0
 40
1.0
 10
299.3916945123
 20
366.3415552129
 30
0.0
 10
299.128957854
 20
367.2914312379
 30
0.0
 10
298.4328901001
 20
369.0873923058
 30
0.0
 10
296.8831090124
 20
371.3895579059
 30
0.0
 10
294.9577284053
 20
373.0713700395
 30
0.0
 10
293.4398168138
 20
373.6948994061
 30
0.0
 10
292.6936416094
 20
373.8350746067
 30
0.0
  0
SPLINE
  5
5E4
100
AcDbEntity
  8
0
100
AcDbSpline
 62
7
  6
CONTINUOUS
 70
0
 71
3
 72
9
 73
5
 74
0
 42
0.0000001
 43
0.0000001
 44
0.0000000001
 40
0.0
 40
0.0
 40
0.0
 40
0.0
 40
0.4978019119
 40
1.0
 40
1.0
 40
1.0
 40
1.0
 10
176.4720652933
 20
332.7920428769
 30
0.0
 10
177.7368805665
 20
332.9973561934
 30
0.0
 10
180.2099903506
 20
333.7888987508
 30
0.0
 10
182.558697153
 20
334.8331278147
 30
0.0
 10
183.7481462959
 20
335.3393392681
 30
0.0
  0
SPLINE
  5
5E5
100
AcDbEntity
  8
0
100
AcDbSpline
 62
7
  6
CONTINUOUS
 70
0
 71
3
 72
9
 73
5
 74
0
 42
0.0000001
 43
0.0000001
 44
0.0000000001
 40
0.0
 40
0.0
 40
0.0
 40
0.0
 40
0.5249395249
 40
1.0
 40
1.0
 40
1.0
 40
1.0
 10
184.3991015057
 20
335.6125252575
 30
0.0
 10
184.8215624317
 20
335.7865937902
 30
0.0
 10
185.6312453318
 20
336.1060792371
 30
0.0
 10
186.4666280046
 20
336.3602033504
 30
0.0
 10
186.8710946008
 20
336.4461690421
 30
0.0
  0
SPLINE
  5
5E6
100
AcDbEntity
  8
0
100
AcDbSpline
 62
7
  6
CONTINUOUS
 70
0
 71
3
 72
9
 73
5
 74
0
 42
0.0000001
 43
0.0000001
 44
0.0000000001
 40
0.0
 40
0.0
 40
0.0
 40
0.0
 40
0.2556916455
 40
1.0
 40
1.0
 40
1.0
 40
1.0
 10
186.8710946008
 20
336.4461690421
 30
0.0
 10
186.9004625236
 20
336.4524109267
 30
0.0
 10
187.0154782079
 20
336.4760615161
 30
0.0
 10
187.1311581348
 20
336.4965415837
 30
0.0
 10
187.2175777602
 20
336.5095853612
 30
0.0
  0
SPLINE
  5
5E7
100
AcDbEntity
  8
0
100
AcDbSpline
 62
7
  6
CONTINUOUS
 70
0
 71
3
 72
9
 73
5
 74
0
 42
0.0000001
 43
0.0000001
 44
0.0000000001
 40
0.0
 40
0.0
 40
0.0
 40
0.0
 40
0.2183689068
 40
1.0
 40
1.0
 40
1.0
 40
1.0
 10
188.1030506024
 20
334.5602322077
 30
0.0
 10
187.990978139
 20
334.5492953831
 30
0.0
 10
187.4753179782
 20
334.5243262165
 30
0.0
 10
186.958283189
 20
334.5845348657
 30
0.0
 10
186.562153913
 20
334.6589510401
 30
0.0
  0
SPLINE
  5
5E8
100
AcDbEntity
  8
0
100
AcDbSpline
 62
7
  6
CONTINUOUS
 70
0
 71
3
 72
12
 73
8
 74
0
 42
0.0000001
 43
0.0000001
 44
0.0000000001
 40
0.0
 40
0.0
 40
0.0
 40
0.0
 40
0.1055260433
 40
0.2147072926
 40
0.4501597475
 40
0.7137179256
 40
1.0
 40
1.0
 40
1.0
 40
1.0
 10
294.5051053261
 20
353.2405950758
 30
0.0
 10
294.8941788696
 20
353.3351232366
 30
0.0
 10
295.6658747941
 20
353.6211521243
 30
0.0
 10
297.1081814331
 20
354.5576593079
 30
0.0
 10
298.6047684254
 20
356.3885621349
 30
0.0
 10
299.6890327674
 20
359.2020374688
 30
0.0
 10
299.9265064308
 20
361.2988039796
 30
0.0
 10
299.9277504431
 20
362.3850286546
 30
0.0
  0
SPLINE
  5
5E9
100
AcDbEntity
  8
0
100
AcDbSpline
 62
7
  6
CONTINUOUS
 70
0
 71
3
 72
9
 73
5
 74
0
 42
0.0000001
 43
0.0000001
 44
0.0000000001
 40
0.0
 40
0.0
 40
0.0
 40
0.0
 40
0.5005479069
 40
1.0
 40
1.0
 40
1.0
 40
1.0
 10
251.2493388954
 20
387.9641662047
 30
0.0
 10
251.4134434526
 20
387.8387093686
 30
0.0
 10
251.7110536545
 20
387.540035445
 30
0.0
 10
251.8474151106
 20
387.1228766818
 30
0.0
 10
251.8453445953
 20
386.9167727921
 30
0.0
  0
SPLINE
  5
5EA
100
AcDbEntity
  8
0
100
AcDbSpline
 62
7
  6
CONTINUOUS
 70
0
 71
3
 72
9
 73
5
 74
0
 42
0.0000001
 43
0.0000001
 44
0.0000000001
 40
0.0
 40
0.0
 40
0.0
 40
0.0
 40
0.49680767
 40
1.0
 40
1.0
 40
1.0
 40
1.0
 10
216.8524961606
 20
387.6098309352
 30
0.0
 10
216.8545664116
 20
387.8160795409
 30
0.0
 10
217.0123605417
 20
388.2301354034
 30
0.0
 10
217.3209091704
 20
388.519532268
 30
0.0
 10
217.4915197355
 20
388.6400947025
 30
0.0
  0
SPLINE
  5
5EB
100
AcDbEntity
  8
0
100
AcDbSpline
 62
7
  6
CONTINUOUS
 70
0
 71
3
 72
19
 73
15
 74
0
 42
0.0000001
 43
0.0000001
 44
0.0000000001
 40
0.0
 40
0.0
 40
0.0
 40
0.0
 40
0.0517143283
 40
0.1048652058
 40
0.1606224943
 40
0.2197221402
 40
0.3480142717
 40
0.4870190515
 40
0.6290080498
 40
0.765150547
 40
0.8289876704
 40
0.8892776949
 40
0.9460921203
 40
1.0
 40
1.0
 40
1.0
 40
1.0
 10
271.1791185845
 20
342.5754252004
 30
0.0
 10
271.9320465821
 20
342.6900711272
 30
0.0
 10
273.4351386828
 20
343.123710201
 30
0.0
 10
275.4918102809
 20
344.3359424917
 30
0.0
 10
277.2972088332
 20
346.0564801207
 30
0.0
 10
279.3518334677
 20
349.0137219038
 30
0.0
 10
280.9730708692
 20
353.6344359074
 30
0.0
 10
281.3256102333
 20
359.7163186296
 30
0.0
 10
280.1442061378
 20
365.8078945244
 30
0.0
 10
277.9318420868
 20
370.4127120413
 30
0.0
 10
275.5206189022
 20
373.4114351972
 30
0.0
 10
273.512257115
 20
375.1856773614
 30
0.0
 10
271.3255478568
 20
376.46856658
 30
0.0
 10
269.7558882769
 20
376.9713029239
 30
0.0
 10
268.9756258437
 20
377.1178823456
 30
0.0
  0
SPLINE
  5
5EC
100
AcDbEntity
  8
0
100
AcDbSpline
 62
7
  6
CONTINUOUS
 70
0
 71
3
 72
9
 73
5
 74
0
 42
0.0000001
 43
0.0000001
 44
0.0000000001
 40
0.0
 40
0.0
 40
0.0
 40
0.0
 40
0.2529377086
 40
1.0
 40
1.0
 40
1.0
 40
1.0
 10
268.8947552029
 20
377.1327126744
 30
0.0
 10
268.6471000437
 20
377.1770363144
 30
0.0
 10
267.6615518055
 20
377.3138317635
 30
0.0
 10
266.6532015798
 20
377.2896526268
 30
0.0
 10
265.9185874965
 20
377.1777873003
 30
0.0
  0
SPLINE
  5
5ED
100
AcDbEntity
  8
0
100
AcDbSpline
 62
7
  6
CONTINUOUS
 70
0
 71
3
 72
9
 73
5
 74
0
 42
0.0000001
 43
0.0000001
 44
0.0000000001
 40
0.0
 40
0.0
 40
0.0
 40
0.0
 40
0.2526964026
 40
1.0
 40
1.0
 40
1.0
 40
1.0
 10
292.6936416094
 20
373.8350746067
 30
0.0
 10
292.5832600883
 20
373.8558106934
 30
0.0
 10
292.1440952943
 20
373.9247188833
 30
0.0
 10
291.6963159012
 20
373.9396439066
 30
0.0
 10
291.3648295893
 20
373.9187626648
 30
0.0
  0
SPLINE
  5
5EE
100
AcDbEntity
  8
0
100
AcDbSpline
 62
7
  6
CONTINUOUS
 70
0
 71
3
 72
9
 73
5
 74
0
 42
0.0000001
 43
0.0000001
 44
0.0000000001
 40
0.0
 40
0.0
 40
0.0
 40
0.0
 40
0.2916181396
 40
1.0
 40
1.0
 40
1.0
 40
1.0
 10
187.4826211852
 20
336.5421159492
 30
0.0
 10
187.6083385326
 20
336.5538517565
 30
0.0
 10
188.0395998448
 20
336.5757863354
 30
0.0
 10
188.4843593978
 20
336.513752173
 30
0.0
 10
188.7657076271
 20
336.3916208974
 30
0.0
  0
SPLINE
  5
5EF
100
AcDbEntity
  8
0
100
AcDbSpline
 62
7
  6
CONTINUOUS
 70
0
 71
3
 72
9
 73
5
 74
0
 42
0.0000001
 43
0.0000001
 44
0.0000000001
 40
0.0
 40
0.0
 40
0.0
 40
0.0
 40
0.2904868401
 40
1.0
 40
1.0
 40
1.0
 40
1.0
 10
188.7657076271
 20
336.3916208974
 30
0.0
 10
188.8383484685
 20
336.3600880221
 30
0.0
 10
189.0797608629
 20
336.2347725809
 30
0.0
 10
189.2870536509
 20
336.0298963866
 30
0.0
 10
189.3707307557
 20
335.8555126225
 30
0.0
  0
SPLINE
  5
5F0
100
AcDbEntity
  8
0
100
AcDbSpline
 62
7
  6
CONTINUOUS
 70
0
 71
3
 72
9
 73
5
 74
0
 42
0.0000001
 43
0.0000001
 44
0.0000000001
 40
0.0
 40
0.0
 40
0.0
 40
0.0
 40
0.2583948748
 40
1.0
 40
1.0
 40
1.0
 40
1.0
 10
189.4076227127
 20
335.7652232268
 30
0.0
 10
189.4183390456
 20
335.733643769
 30
0.0
 10
189.4521699586
 20
335.6089711473
 30
0.0
 10
189.4524007031
 20
335.4751659664
 30
0.0
 10
189.4328515403
 20
335.3814728765
 30
0.0
  0
SPLINE
  5
5F1
100
AcDbEntity
  8
0
100
AcDbSpline
 62
7
  6
CONTINUOUS
 70
0
 71
3
 72
9
 73
5
 74
0
 42
0.0000001
 43
0.0000001
 44
0.0000000001
 40
0.0
 40
0.0
 40
0.0
 40
0.0
 40
0.2261147179
 40
1.0
 40
1.0
 40
1.0
 40
1.0
 10
186.5621539129
 20
334.6589510399
 30
0.0
 10
186.3636479701
 20
334.6962420299
 30
0.0
 10
185.4917267617
 20
334.8930787386
 30
0.0
 10
184.6454361638
 20
335.1905959455
 30
0.0
 10
184.0036783631
 20
335.4475230461
 30
0.0
  0
SPLINE
  5
5F2
100
AcDbEntity
  8
0
100
AcDbSpline
 62
7
  6
CONTINUOUS
 70
0
 71
3
 72
8
 73
4
 74
0
 42
0.0000001
 43
0.0000001
 44
0.0000000001
 40
0.0
 40
0.0
 40
0.0
 40
0.0
 40
1.0
 40
1.0
 40
1.0
 40
1.0
 10
252.4564878404
 20
374.8136097382
 30
0.0
 10
253.1040078408
 20
374.786173608
 30
0.0
 10
253.752678242
 20
374.8872664179
 30
0.0
 10
254.3930231702
 20
374.9872327377
 30
0.0
  0
SPLINE
  5
5F3
100
AcDbEntity
  8
0
100
AcDbSpline
 62
7
  6
CONTINUOUS
 70
0
 71
3
 72
9
 73
5
 74
0
 42
0.0000001
 43
0.0000001
 44
0.0000000001
 40
0.0
 40
0.0
 40
0.0
 40
0.0
 40
0.2595408969
 40
1.0
 40
1.0
 40
1.0
 40
1.0
 10
252.23382624
 20
375.0659295137
 30
0.0
 10
252.4204666295
 20
375.0798310317
 30
0.0
 10
253.1406477535
 20
375.1149088195
 30
0.0
 10
253.8660533687
 20
375.0733183668
 30
0.0
 10
254.3930202771
 20
374.9872332103
 30
0.0
  0
SPLINE
  5
5F4
100
AcDbEntity
  8
0
100
AcDbSpline
 62
7
  6
CONTINUOUS
 70
0
 71
3
 72
14
 73
10
 74
0
 42
0.0000001
 43
0.0000001
 44
0.0000000001
 40
0.0
 40
0.0
 40
0.0
 40
0.0
 40
0.0524404837
 40
0.1189319534
 40
0.2066124992
 40
0.3180510066
 40
0.4538057831
 40
0.6134816809
 40
1.0
 40
1.0
 40
1.0
 40
1.0
 10
216.8524158839
 20
387.6106127869
 30
0.0
 10
216.8507539944
 20
387.5085770785
 30
0.0
 10
216.9251870618
 20
387.2758080681
 30
0.0
 10
217.2058480102
 20
386.9790508663
 30
0.0
 10
217.6376243195
 20
386.6910463458
 30
0.0
 10
218.2269016432
 20
386.4092814285
 30
0.0
 10
218.9701066198
 20
386.1342652895
 30
0.0
 10
220.2429412904
 20
385.7563991471
 30
0.0
 10
221.2835241114
 20
385.5320981179
 30
0.0
 10
222.0227496556
 20
385.3931811672
 30
0.0
  0
SPLINE
  5
5F5
100
AcDbEntity
  8
0
100
AcDbSpline
 62
7
  6
CONTINUOUS
 70
0
 71
3
 72
22
 73
18
 74
0
 42
0.0000001
 43
0.0000001
 44
0.0000000001
 40
0.0
 40
0.0
 40
0.0
 40
0.0
 40
0.001023423
 40
0.0040451116
 40
0.009078222
 40
0.0161225024
 40
0.0251768443
 40
0.0362378482
 40
0.0643626049
 40
0.1004695769
 40
0.1445112049
 40
0.1964280048
 40
0.256160603
 40
0.3987271193
 40
0.5711717336
 40
0.7722845899
 40
1.0
 40
1.0
 40
1.0
 40
1.0
 10
216.7458254214
 20
382.2739196851
 30
0.0
 10
216.7458823482
 20
382.2757119701
 30
0.0
 10
216.7570160362
 20
382.273298963
 30
0.0
 10
216.7690465128
 20
382.2755880626
 30
0.0
 10
216.7976962141
 20
382.2733969231
 30
0.0
 10
216.8337341254
 20
382.2730155163
 30
0.0
 10
216.8816885048
 20
382.2717581391
 30
0.0
 10
216.9660119001
 20
382.2700187757
 30
0.0
 10
217.0979910118
 20
382.265581517
 30
0.0
 10
217.2873586243
 20
382.2547978164
 30
0.0
 10
217.5181293564
 20
382.2373852867
 30
0.0
 10
217.7898081306
 20
382.2127128497
 30
0.0
 10
218.2328327679
 20
382.1663905498
 30
0.0
 10
218.8845125463
 20
382.0857606332
 30
0.0
 10
219.7801713902
 20
381.9603665335
 30
0.0
 10
220.8195135638
 20
381.7876399461
 30
0.0
 10
221.5592113342
 20
381.655613211
 30
0.0
 10
221.9513873199
 20
381.5821834233
 30
0.0
  0
SPLINE
  5
5F6
100
AcDbEntity
  8
0
100
AcDbSpline
 62
7
  6
CONTINUOUS
 70
0
 71
3
 72
21
 73
17
 74
0
 42
0.0000001
 43
0.0000001
 44
0.0000000001
 40
0.0
 40
0.0
 40
0.0
 40
0.0
 40
0.0073101051
 40
0.0157881733
 40
0.0262019603
 40
0.0389388125
 40
0.0719511688
 40
0.1151479083
 40
0.1680090894
 40
0.2296168268
 40
0.2987829003
 40
0.3741141279
 40
0.5369576528
 40
0.7046971817
 40
0.8633998242
 40
1.0
 40
1.0
 40
1.0
 40
1.0
 10
251.8454042509
 20
386.9143503266
 30
0.0
 10
251.8439510398
 20
386.8400632663
 30
0.0
 10
251.802740932
 20
386.6793099996
 30
0.0
 10
251.6437731063
 20
386.4607651085
 30
0.0
 10
251.3965511735
 20
386.2522634896
 30
0.0
 10
250.9056602277
 20
385.9577853059
 30
0.0
 10
250.0586707962
 20
385.6283025276
 30
0.0
 10
248.7911342388
 20
385.2873668354
 30
0.0
 10
247.2160671586
 20
384.9848742842
 30
0.0
 10
245.3668678919
 20
384.7276947145
 30
0.0
 10
243.2815368609
 20
384.5225983295
 30
0.0
 10
240.1638071422
 20
384.3200650253
 30
0.0
 10
236.0368607753
 20
384.2320263255
 30
0.0
 10
231.0634960783
 20
384.366567716
 30
0.0
 10
226.3693144216
 20
384.7288284961
 30
0.0
 10
223.3920126214
 20
385.1359537409
 30
0.0
 10
222.0274522844
 20
385.3922974393
 30
0.0
  0
SPLINE
  5
5F7
100
AcDbEntity
  8
0
100
AcDbSpline
 62
7
  6
CONTINUOUS
 70
0
 71
3
 72
19
 73
15
 74
0
 42
0.0000001
 43
0.0000001
 44
0.0000000001
 40
0.0
 40
0.0
 40
0.0
 40
0.0
 40
0.0506914269
 40
0.1030102422
 40
0.158233994
 40
0.2171173364
 40
0.3457371164
 40
0.4856706905
 40
0.6287826923
 40
0.7658639422
 40
0.8299482903
 40
0.8902404914
 40
0.9467422293
 40
1.0
 40
1.0
 40
1.0
 40
1.0
 10
271.179131892
 20
342.5753858131
 30
0.0
 10
271.913501745
 20
342.6871828142
 30
0.0
 10
273.3825020554
 20
343.1120803846
 30
0.0
 10
275.3968689285
 20
344.3032868949
 30
0.0
 10
277.1735453068
 20
346.0021023005
 30
0.0
 10
279.2103384799
 20
348.94227323
 30
0.0
 10
280.8244395574
 20
353.5555110049
 30
0.0
 10
281.1816351705
 20
359.641272884
 30
0.0
 10
280.0109345744
 20
365.74783284
 30
0.0
 10
277.8134727234
 20
370.3685540824
 30
0.0
 10
275.4200844825
 20
373.3791522133
 30
0.0
 10
273.4345517162
 20
375.1573059192
 30
0.0
 10
271.2813301174
 20
376.4438530405
 30
0.0
 10
269.7375515289
 20
376.9533233157
 30
0.0
 10
268.9717912787
 20
377.1039708022
 30
0.0
  0
SPLINE
  5
5F8
100
AcDbEntity
  8
0
100
AcDbSpline
 62
7
  6
CONTINUOUS
 70
0
 71
3
 72
26
 73
22
 74
0
 42
0.0000001
 43
0.0000001
 44
0.0000000001
 40
0.0
 40
0.0
 40
0.0
 40
0.0
 40
0.0464000491
 40
0.0952138842
 40
0.1483056321
 40
0.2067736489
 40
0.2383644596
 40
0.27165648
 40
0.3430153973
 40
0.4189454052
 40
0.45765777
 40
0.4963380678
 40
0.5725079042
 40
0.6457027886
 40
0.6809636549
 40
0.7153310174
 40
0.7811598208
 40
0.842663353
 40
0.8993320252
 40
0.9514784716
 40
1.0
 40
1.0
 40
1.0
 40
1.0
 10
197.3931724466
 20
335.9655341626
 30
0.0
 10
197.94858494
 20
336.0498695619
 30
0.0
 10
199.0690645555
 20
336.3946710753
 30
0.0
 10
200.5796683757
 20
337.4059777773
 30
0.0
 10
201.8700958723
 20
338.8831474849
 30
0.0
 10
202.6850908221
 20
340.429787386
 30
0.0
 10
203.1682819367
 20
341.8451482495
 30
0.0
 10
203.5384972512
 20
343.455202991
 30
0.0
 10
203.7751060477
 20
345.6343150271
 30
0.0
 10
203.8518428938
 20
347.8850120139
 30
0.0
 10
203.8882561087
 20
349.7410007892
 30
0.0
 10
203.9234861189
 20
351.5998899193
 30
0.0
 10
203.9156857074
 20
353.8770833285
 30
0.0
 10
203.7216964248
 20
356.1101928217
 30
0.0
 10
203.3715423686
 20
357.8058577749
 30
0.0
 10
202.8974288453
 20
359.3776407356
 30
0.0
 10
202.0965856793
 20
361.1753937725
 30
0.0
 10
200.8451190436
 20
363.0326715832
 30
0.0
 10
199.3801065661
 20
364.5041210487
 30
0.0
 10
197.7670538661
 20
365.5460538653
 30
0.0
 10
196.597785807
 20
365.9449536648
 30
0.0
 10
196.0204210618
 20
366.0534164574
 30
0.0
  0
SPLINE
  5
5F9
100
AcDbEntity
  8
0
100
AcDbSpline
 62
7
  6
CONTINUOUS
 70
0
 71
3
 72
10
 73
6
 74
0
 42
0.0000001
 43
0.0000001
 44
0.0000000001
 40
0.0
 40
0.0
 40
0.0
 40
0.0
 40
0.2456733074
 40
0.5001300928
 40
1.0
 40
1.0
 40
1.0
 40
1.0
 10
176.5111604779
 20
332.7992816295
 30
0.0
 10
177.1681192607
 20
332.9101783686
 30
0.0
 10
178.4878040608
 20
333.2420367894
 30
0.0
 10
181.0428081562
 20
334.1571422548
 30
0.0
 10
182.9062960374
 20
335.0049642232
 30
0.0
 10
184.1556782904
 20
335.5310354855
 30
0.0
  0
SPLINE
  5
5FA
100
AcDbEntity
  8
0
100
AcDbSpline
 62
7
  6
CONTINUOUS
 70
0
 71
3
 72
9
 73
5
 74
0
 42
0.0000001
 43
0.0000001
 44
0.0000000001
 40
0.0
 40
0.0
 40
0.0
 40
0.0
 40
0.2484802476
 40
1.0
 40
1.0
 40
1.0
 40
1.0
 10
170.4337208287
 20
362.5061223468
 30
0.0
 10
170.5957380633
 20
362.5307243149
 30
0.0
 10
171.2517751366
 20
362.6020104151
 30
0.0
 10
171.9194520636
 20
362.5591309334
 30
0.0
 10
172.4065613702
 20
362.4676096227
 30
0.0
  0
SPLINE
  5
5FB
100
AcDbEntity
  8
0
100
AcDbSpline
 62
7
  6
CONTINUOUS
 70
0
 71
3
 72
9
 73
5
 74
0
 42
0.0000001
 43
0.0000001
 44
0.0000000001
 40
0.0
 40
0.0
 40
0.0
 40
0.0
 40
0.4458077024
 40
1.0
 40
1.0
 40
1.0
 40
1.0
 10
189.4328515403
 20
335.3814728765
 30
0.0
 10
189.4018085216
 20
335.2326932912
 30
0.0
 10
189.2121267004
 20
334.9217974702
 30
0.0
 10
188.900017437
 20
334.7574543698
 30
0.0
 10
188.7225574058
 20
334.6926165289
 30
0.0
  0
SPLINE
  5
5FC
100
AcDbEntity
  8
0
100
AcDbSpline
 62
7
  6
CONTINUOUS
 70
0
 71
3
 72
9
 73
5
 74
0
 42
0.0000001
 43
0.0000001
 44
0.0000000001
 40
0.0
 40
0.0
 40
0.0
 40
0.0
 40
0.2338691931
 40
1.0
 40
1.0
 40
1.0
 40
1.0
 10
188.7225574058
 20
334.6926165289
 30
0.0
 10
188.6890805591
 20
334.6803852313
 30
0.0
 10
188.5444367137
 20
334.6321979966
 30
0.0
 10
188.3947193251
 20
334.6000381245
 30
0.0
 10
188.2793235117
 20
334.5822602351
 30
0.0
  0
SPLINE
  5
5FD
100
AcDbEntity
  8
0
100
AcDbSpline
 62
7
  6
CONTINUOUS
 70
0
 71
3
 72
15
 73
11
 74
0
 42
0.0000001
 43
0.0000001
 44
0.0000000001
 40
0.0
 40
0.0
 40
0.0
 40
0.0
 40
0.1425420849
 40
0.2840304032
 40
0.4225910505
 40
0.554553562
 40
0.6773450606
 40
0.7910717367
 40
0.8975440276
 40
1.0
 40
1.0
 40
1.0
 40
1.0
 10
180.2545082876
 20
345.9073009722
 30
0.0
 10
180.2392026048
 20
345.1294603314
 30
0.0
 10
180.2098051064
 20
343.5793947243
 30
0.0
 10
180.0861476132
 20
341.2755871453
 30
0.0
 10
179.7897842019
 20
339.041147155
 30
0.0
 10
179.1623039852
 20
336.9741717134
 30
0.0
 10
178.1851775792
 20
335.1985227706
 30
0.0
 10
176.9284607798
 20
333.786506033
 30
0.0
 10
175.4417577753
 20
332.8034216556
 30
0.0
 10
174.3333159864
 20
332.4639640954
 30
0.0
 10
173.7804642853
 20
332.3799278698
 30
0.0
  0
SPLINE
  5
5FE
100
AcDbEntity
  8
0
100
AcDbSpline
 62
7
  6
CONTINUOUS
 70
0
 71
3
 72
16
 73
12
 74
0
 42
0.0000001
 43
0.0000001
 44
0.0000000001
 40
0.0
 40
0.0
 40
0.0
 40
0.0
 40
0.1016876061
 40
0.2118077744
 40
0.3313400409
 40
0.3945083313
 40
0.4595614561
 40
0.5936600339
 40
0.7299062067
 40
0.8654172177
 40
1.0
 40
1.0
 40
1.0
 40
1.0
 10
172.4029761357
 20
362.4671215216
 30
0.0
 10
173.067546725
 20
362.3424946453
 30
0.0
 10
174.4139224658
 20
361.8520845986
 30
0.0
 10
176.2219753467
 20
360.5560628444
 30
0.0
 10
177.508140872
 20
359.0716211963
 30
0.0
 10
178.3878100875
 20
357.6763823471
 30
0.0
 10
179.1720228284
 20
356.1157929055
 30
0.0
 10
179.8833390129
 20
353.9855896245
 30
0.0
 10
180.2460238941
 20
351.3006501585
 30
0.0
 10
180.3096156835
 20
348.5976362756
 30
0.0
 10
180.2726198326
 20
346.8020040696
 30
0.0
 10
180.2545082876
 20
345.9073009722
 30
0.0
  0
SPLINE
  5
5FF
100
AcDbEntity
  8
0
100
AcDbSpline
 62
7
  6
CONTINUOUS
 70
0
 71
3
 72
15
 73
11
 74
0
 42
0.0000001
 43
0.0000001
 44
0.0000000001
 40
0.0
 40
0.0
 40
0.0
 40
0.0
 40
0.1048967751
 40
0.2097602913
 40
0.3199862811
 40
0.4395185368
 40
0.5700821026
 40
0.7099890724
 40
0.8542753005
 40
1.0
 40
1.0
 40
1.0
 40
1.0
 10
171.4613384445
 20
332.8194127241
 30
0.0
 10
172.0690540046
 20
332.6930993855
 30
0.0
 10
173.3403091528
 20
332.6793050839
 30
0.0
 10
175.1728794977
 20
333.2680366676
 30
0.0
 10
176.7810736171
 20
334.4807873548
 30
0.0
 10
178.0665566642
 20
336.2116020298
 30
0.0
 10
178.9549666434
 20
338.3660076426
 30
0.0
 10
179.3738704614
 20
340.796345506
 30
0.0
 10
179.5319205086
 20
343.3362060111
 30
0.0
 10
179.5697335077
 20
345.0521249982
 30
0.0
 10
179.5835143241
 20
345.9143090746
 30
0.0
  0
SPLINE
  5
600
100
AcDbEntity
  8
0
100
AcDbSpline
 62
7
  6
CONTINUOUS
 70
0
 71
3
 72
15
 73
11
 74
0
 42
0.0000001
 43
0.0000001
 44
0.0000000001
 40
0.0
 40
0.0
 40
0.0
 40
0.0
 40
0.1345614247
 40
0.2699892894
 40
0.4062977404
 40
0.5406533499
 40
0.6690201299
 40
0.7887189832
 40
0.8985600868
 40
1.0
 40
1.0
 40
1.0
 40
1.0
 10
163.8976305996
 20
348.861087454
 30
0.0
 10
163.8777275656
 20
347.9966864447
 30
0.0
 10
163.850346787
 20
346.261837516
 30
0.0
 10
163.9246718212
 20
343.6507869137
 30
0.0
 10
164.2711394756
 20
341.0545159184
 30
0.0
 10
165.0791384691
 20
338.6034890186
 30
0.0
 10
166.2821171603
 20
336.4448987071
 30
0.0
 10
167.7866569086
 20
334.6793398892
 30
0.0
 10
169.5252570727
 20
333.4243261376
 30
0.0
 10
170.8184939273
 20
332.9271279412
 30
0.0
 10
171.4613384445
 20
332.8194127241
 30
0.0
  0
SPLINE
  5
601
100
AcDbEntity
  8
0
100
AcDbSpline
 62
7
  6
CONTINUOUS
 70
0
 71
3
 72
23
 73
19
 74
0
 42
0.0000001
 43
0.0000001
 44
0.0000000001
 40
0.0
 40
0.0
 40
0.0
 40
0.0
 40
0.070045834
 40
0.1405637956
 40
0.211507842
 40
0.2814030621
 40
0.3481768334
 40
0.4104965047
 40
0.4678856478
 40
0.5208751274
 40
0.5709537855
 40
0.6209438173
 40
0.6736754813
 40
0.7310209018
 40
0.7937437193
 40
0.8609015316
 40
0.9301333165
 40
1.0
 40
1.0
 40
1.0
 40
1.0
 10
179.5835143237
 20
345.9143090746
 30
0.0
 10
179.604265339
 20
346.7788612643
 30
0.0
 10
179.6350459698
 20
348.5141613712
 30
0.0
 10
179.5786663204
 20
351.1261989798
 30
0.0
 10
179.2433943676
 20
353.7245544046
 30
0.0
 10
178.4418487222
 20
356.1765945017
 30
0.0
 10
177.2461233692
 20
358.3397922107
 30
0.0
 10
175.7336606366
 20
360.1012583357
 30
0.0
 10
173.9841879214
 20
361.3570533507
 30
0.0
 10
172.1003201139
 20
362.0615407065
 30
0.0
 10
170.1740481899
 20
362.1074158703
 30
0.0
 10
168.3471199308
 20
361.5081205833
 30
0.0
 10
166.7465248554
 20
360.2971466781
 30
0.0
 10
165.4492217691
 20
358.572355945
 30
0.0
 10
164.565583485
 20
356.4119997257
 30
0.0
 10
164.1241191412
 20
353.9828818383
 30
0.0
 10
163.9525968508
 20
351.4405961376
 30
0.0
 10
163.9119268234
 20
349.7235583321
 30
0.0
 10
163.8976305996
 20
348.861087454
 30
0.0
  0
SPLINE
  5
602
100
AcDbEntity
  8
0
100
AcDbSpline
 62
7
  6
CONTINUOUS
 70
0
 71
3
 72
9
 73
5
 74
0
 42
0.0000001
 43
0.0000001
 44
0.0000000001
 40
0.0
 40
0.0
 40
0.0
 40
0.0
 40
0.2716411273
 40
1.0
 40
1.0
 40
1.0
 40
1.0
 10
179.5835143237
 20
345.9143090746
 30
0.0
 10
178.8345662029
 20
346.0326201451
 30
0.0
 10
176.0785122561
 20
346.4747555577
 30
0.0
 10
173.3275332187
 20
346.9496137311
 30
0.0
 10
171.3294078271
 20
347.3249780905
 30
0.0
  0
SPLINE
  5
603
100
AcDbEntity
  8
0
100
AcDbSpline
 62
7
  6
CONTINUOUS
 70
0
 71
3
 72
9
 73
5
 74
0
 42
0.0000001
 43
0.0000001
 44
0.0000000001
 40
0.0
 40
0.0
 40
0.0
 40
0.0
 40
0.489468322
 40
1.0
 40
1.0
 40
1.0
 40
1.0
 10
180.2544672902
 20
345.9072947458
 30
0.0
 10
180.1459981654
 20
345.8908237738
 30
0.0
 10
179.9209746287
 20
345.8838149627
 30
0.0
 10
179.696546519
 20
345.8964534186
 30
0.0
 10
179.583514328
 20
345.9143090739
 30
0.0
  0
SPLINE
  5
604
100
AcDbEntity
  8
0
100
AcDbSpline
 62
7
  6
CONTINUOUS
 70
0
 71
3
 72
9
 73
5
 74
0
 42
0.0000001
 43
0.0000001
 44
0.0000000001
 40
0.0
 40
0.0
 40
0.0
 40
0.0
 40
0.5546951284
 40
1.0
 40
1.0
 40
1.0
 40
1.0
 10
171.4613384657
 20
332.8194127155
 30
0.0
 10
171.464615326
 20
332.7261549953
 30
0.0
 10
171.5006780184
 20
332.5530620486
 30
0.0
 10
171.6473762048
 20
332.4327197183
 30
0.0
 10
171.7210238768
 20
332.4190104972
 30
0.0
  0
SPLINE
  5
605
100
AcDbEntity
  8
0
100
AcDbSpline
 62
7
  6
CONTINUOUS
 70
0
 71
3
 72
9
 73
5
 74
0
 42
0.0000001
 43
0.0000001
 44
0.0000000001
 40
0.0
 40
0.0
 40
0.0
 40
0.0
 40
0.2527975484
 40
1.0
 40
1.0
 40
1.0
 40
1.0
 10
268.8884264784
 20
377.1199792765
 30
0.0
 10
268.7005178583
 20
377.1552301431
 30
0.0
 10
267.9531282504
 20
377.2718227859
 30
0.0
 10
267.1908421853
 20
377.2945579674
 30
0.0
 10
266.6270709662
 20
377.2558787952
 30
0.0
  0
SPLINE
  5
606
100
AcDbEntity
  8
0
100
AcDbSpline
 62
7
  6
CONTINUOUS
 70
0
 71
3
 72
9
 73
5
 74
0
 42
0.0000001
 43
0.0000001
 44
0.0000000001
 40
0.0
 40
0.0
 40
0.0
 40
0.0
 40
0.2398782983
 40
1.0
 40
1.0
 40
1.0
 40
1.0
 10
221.9513873199
 20
381.5821834233
 30
0.0
 10
222.0777489013
 20
381.5583615655
 30
0.0
 10
222.6042584202
 20
381.45765133
 30
0.0
 10
223.1299346551
 20
381.3526339471
 30
0.0
 10
223.5292733016
 20
381.271660547
 30
0.0
  0
LINE
  5
607
100
AcDbEntity
  8
0
100
AcDbLine
 62
7
  6
CONTINUOUS
 10
223.5292733016
 20
381.271660547
 11
223.8152137998
 21
381.2134018922
  0
LINE
  5
608
100
AcDbEntity
  8
0
100
AcDbLine
 62
7
  6
CONTINUOUS
 10
225.0738834766
 20
380.949286461
 11
225.2737522256
 21
380.9062400605
  0
SPLINE
  5
609
100
AcDbEntity
  8
0
100
AcDbSpline
 62
7
  6
CONTINUOUS
 70
0
 71
3
 72
17
 73
13
 74
0
 42
0.0000001
 43
0.0000001
 44
0.0000000001
 40
0.0
 40
0.0
 40
0.0
 40
0.0
 40
0.1523056667
 40
0.3152826537
 40
0.4774995611
 40
0.6287564689
 40
0.7597654819
 40
0.863956176
 40
0.9057376684
 40
0.9412912553
 40
0.9720619916
 40
1.0
 40
1.0
 40
1.0
 40
1.0
 10
225.2737522256
 20
380.9062400605
 30
0.0
 10
226.6767560075
 20
380.6033382964
 30
0.0
 10
229.5759210332
 20
379.9530595858
 30
0.0
 10
233.9760569153
 20
379.0087233245
 30
0.0
 10
238.4008560156
 20
378.2355508722
 30
0.0
 10
242.5783161371
 20
377.8320869808
 30
0.0
 10
246.2286545452
 20
377.9376705102
 30
0.0
 10
248.8083612299
 20
378.5306759708
 30
0.0
 10
250.3293138965
 20
379.3348185492
 30
0.0
 10
251.1152955413
 20
379.9999584709
 30
0.0
 10
251.6091790186
 20
380.7561453471
 30
0.0
 10
251.7335715009
 20
381.3111108368
 30
0.0
 10
251.7388589556
 20
381.5743455874
 30
0.0
  0
SPLINE
  5
60A
100
AcDbEntity
  8
0
100
AcDbSpline
 62
7
  6
CONTINUOUS
 70
0
 71
3
 72
14
 73
10
 74
0
 42
0.0000001
 43
0.0000001
 44
0.0000000001
 40
0.0
 40
0.0
 40
0.0
 40
0.0
 40
0.1109107554
 40
0.2381850374
 40
0.3727116295
 40
0.5071680548
 40
0.6376121496
 40
0.7627429883
 40
1.0
 40
1.0
 40
1.0
 40
1.0
 10
213.6728963705
 20
368.6496175807
 30
0.0
 10
214.5650547074
 20
368.4562909038
 30
0.0
 10
216.4177360869
 20
367.7599521983
 30
0.0
 10
219.0901686002
 20
366.2436729146
 30
0.0
 10
221.7494959885
 20
364.3478819819
 30
0.0
 10
224.3016627997
 20
362.2744323944
 30
0.0
 10
226.7282096144
 20
360.1719666838
 30
0.0
 10
229.7852902263
 20
357.5082624506
 30
0.0
 10
232.1397431155
 20
355.6609455901
 30
0.0
 10
233.7761664295
 20
354.5953749794
 30
0.0
  0
SPLINE
  5
60B
100
AcDbEntity
  8
0
100
AcDbSpline
 62
7
  6
CONTINUOUS
 70
0
 71
3
 72
15
 73
11
 74
0
 42
0.0000001
 43
0.0000001
 44
0.0000000001
 40
0.0
 40
0.0
 40
0.0
 40
0.0
 40
0.1309318551
 40
0.2573854214
 40
0.380162473
 40
0.5009882934
 40
0.6220588456
 40
0.7457599197
 40
0.8722217206
 40
1.0
 40
1.0
 40
1.0
 40
1.0
 10
233.7761664295
 20
354.5953749794
 30
0.0
 10
234.7386201812
 20
353.968665238
 30
0.0
 10
236.6972377398
 20
352.8325163951
 30
0.0
 10
239.8061055681
 20
351.5861807346
 30
0.0
 10
243.0137902508
 20
350.9533210418
 30
0.0
 10
246.2417258881
 20
351.055074855
 30
0.0
 10
249.3579293276
 20
351.9299411125
 30
0.0
 10
252.2434544978
 20
353.4885604069
 30
0.0
 10
254.8213565741
 20
355.6000840792
 30
0.0
 10
256.2870301346
 20
357.2974676496
 30
0.0
 10
256.9463552324
 20
358.2038870413
 30
0.0
  0
SPLINE
  5
60C
100
AcDbEntity
  8
0
100
AcDbSpline
 62
7
  6
CONTINUOUS
 70
0
 71
3
 72
15
 73
11
 74
0
 42
0.0000001
 43
0.0000001
 44
0.0000000001
 40
0.0
 40
0.0
 40
0.0
 40
0.0
 40
0.2764781276
 40
0.4090586609
 40
0.473172199
 40
0.5356303516
 40
0.6549700502
 40
0.7686000884
 40
0.8812497514
 40
1.0
 40
1.0
 40
1.0
 40
1.0
 10
256.9463552324
 20
358.2038870413
 30
0.0
 10
258.0393041355
 20
359.706438792
 30
0.0
 10
259.3635657018
 20
362.1806780635
 30
0.0
 10
260.1152482798
 20
365.2869314883
 30
0.0
 10
260.2658278088
 20
367.0255496939
 30
0.0
 10
260.2267872857
 20
368.6800313716
 30
0.0
 10
259.8260927986
 20
370.6501139879
 30
0.0
 10
258.6890757663
 20
372.7241840351
 30
0.0
 10
256.8944389891
 20
374.2737558215
 30
0.0
 10
255.3919985604
 20
374.8023750763
 30
0.0
 10
254.6077176498
 20
374.9498962818
 30
0.0
  0
SPLINE
  5
60D
100
AcDbEntity
  8
0
100
AcDbSpline
 62
7
  6
CONTINUOUS
 70
0
 71
3
 72
19
 73
15
 74
0
 42
0.0000001
 43
0.0000001
 44
0.0000000001
 40
0.0
 40
0.0
 40
0.0
 40
0.0
 40
0.0490735985
 40
0.1038970214
 40
0.1647608473
 40
0.2311955424
 40
0.3739335066
 40
0.5148615023
 40
0.6449698659
 40
0.7756219034
 40
0.8376047273
 40
0.8956113212
 40
0.9495161387
 40
1.0
 40
1.0
 40
1.0
 40
1.0
 10
255.5202445577
 20
375.0868332179
 30
0.0
 10
256.2281209643
 20
374.9534905552
 30
0.0
 10
257.6976815854
 20
374.495841484
 30
0.0
 10
259.8179444001
 20
373.2996453898
 30
0.0
 10
261.858495647
 20
371.5478986316
 30
0.0
 10
264.3772335219
 20
368.4654986014
 30
0.0
 10
266.6274996427
 20
363.7563870863
 30
0.0
 10
267.7756259525
 20
357.732436419
 30
0.0
 10
267.4773423912
 20
351.7925431207
 30
0.0
 10
265.9802838107
 20
347.2055225042
 30
0.0
 10
263.9332885043
 20
344.1223359177
 30
0.0
 10
262.0946569121
 20
342.3202160175
 30
0.0
 10
260.0271667494
 20
341.0871007775
 30
0.0
 10
258.5361117107
 20
340.6558372825
 30
0.0
 10
257.8034890947
 20
340.5445533473
 30
0.0
  0
SPLINE
  5
60E
100
AcDbEntity
  8
0
100
AcDbSpline
 62
7
  6
CONTINUOUS
 70
0
 71
3
 72
9
 73
5
 74
0
 42
0.0000001
 43
0.0000001
 44
0.0000000001
 40
0.0
 40
0.0
 40
0.0
 40
0.0
 40
0.2523423983
 40
1.0
 40
1.0
 40
1.0
 40
1.0
 10
195.7110522359
 20
366.1033845824
 30
0.0
 10
195.5721365262
 20
366.1221692751
 30
0.0
 10
195.0192378904
 20
366.1775783919
 30
0.0
 10
194.4583484207
 20
366.1542409556
 30
0.0
 10
194.0477203615
 20
366.0918882557
 30
0.0
  0
SPLINE
  5
60F
100
AcDbEntity
  8
0
100
AcDbSpline
 62
7
  6
CONTINUOUS
 70
0
 71
3
 72
9
 73
5
 74
0
 42
0.0000001
 43
0.0000001
 44
0.0000000001
 40
0.0
 40
0.0
 40
0.0
 40
0.0
 40
0.49393029
 40
1.0
 40
1.0
 40
1.0
 40
1.0
 10
255.5155410695
 20
375.0877180104
 30
0.0
 10
255.032870231
 20
375.178391736
 30
0.0
 10
254.0394540382
 20
375.2860673627
 30
0.0
 10
253.0414248411
 20
375.2219122485
 30
0.0
 10
252.5439052772
 20
375.1466226524
 30
0.0
  0
LINE
  5
610
100
AcDbEntity
  8
0
100
AcDbLine
 62
7
  6
CONTINUOUS
 10
255.5155410695
 20
375.0877180104
 11
254.6078051683
 21
374.9498788549
  0
SPLINE
  5
611
100
AcDbEntity
  8
0
100
AcDbSpline
 62
7
  6
CONTINUOUS
 70
0
 71
3
 72
9
 73
5
 74
0
 42
0.0000001
 43
0.0000001
 44
0.0000000001
 40
0.0
 40
0.0
 40
0.0
 40
0.0
 40
0.2752296747
 40
1.0
 40
1.0
 40
1.0
 40
1.0
 10
213.4345143458
 20
368.6974938601
 30
0.0
 10
213.258333423
 20
368.7303270195
 30
0.0
 10
212.6151244362
 20
368.8283124082
 30
0.0
 10
211.9534521234
 20
368.8384560718
 30
0.0
 10
211.4871327881
 20
368.765901186
 30
0.0
  0
LINE
  5
612
100
AcDbEntity
  8
0
100
AcDbLine
 62
7
  6
CONTINUOUS
 10
213.434881811
 20
368.697792427
 11
211.5399686525
 21
368.4100508521
  0
LINE
  5
613
100
AcDbEntity
  8
0
100
AcDbLine
 62
7
  6
CONTINUOUS
 10
211.5399686525
 20
368.4100508521
 11
196.0204210618
 21
366.0534164574
  0
SPLINE
  5
614
100
AcDbEntity
  8
0
100
AcDbSpline
 62
7
  6
CONTINUOUS
 70
0
 71
3
 72
12
 73
8
 74
0
 42
0.0000001
 43
0.0000001
 44
0.0000000001
 40
0.0
 40
0.0
 40
0.0
 40
0.0
 40
0.3527594174
 40
0.6392064996
 40
0.8543388587
 40
0.9353394727
 40
1.0
 40
1.0
 40
1.0
 40
1.0
 10
223.7974979596
 20
386.1522269818
 30
0.0
 10
223.2624557796
 20
386.2527390988
 30
0.0
 10
222.2964167455
 20
386.4576307831
 30
0.0
 10
221.0296918034
 20
386.8244992441
 30
0.0
 10
220.1933241914
 20
387.1691295424
 30
0.0
 10
219.7236343002
 20
387.4705734665
 30
0.0
 10
219.5572844374
 20
387.6255079902
 30
0.0
 10
219.4958666891
 20
387.7041564079
 30
0.0
  0
SPLINE
  5
615
100
AcDbEntity
  8
0
100
AcDbSpline
 62
7
  6
CONTINUOUS
 70
0
 71
3
 72
11
 73
7
 74
0
 42
0.0000001
 43
0.0000001
 44
0.0000000001
 40
0.0
 40
0.0
 40
0.0
 40
0.0
 40
0.1998066255
 40
0.4295545504
 40
0.6966393527
 40
1.0
 40
1.0
 40
1.0
 40
1.0
 10
189.0530563679
 20
336.2939229098
 30
0.0
 10
188.9606928431
 20
336.3523414923
 30
0.0
 10
188.7527119203
 20
336.4646217868
 30
0.0
 10
188.3839079976
 20
336.5716176673
 30
0.0
 10
187.9461300564
 20
336.6104112214
 30
0.0
 10
187.6335194418
 20
336.597670735
 30
0.0
 10
187.4684325738
 20
336.5809843756
 30
0.0
  0
SPLINE
  5
616
100
AcDbEntity
  8
0
100
AcDbSpline
 62
7
  6
CONTINUOUS
 70
0
 71
3
 72
9
 73
5
 74
0
 42
0.0000001
 43
0.0000001
 44
0.0000000001
 40
0.0
 40
0.0
 40
0.0
 40
0.0
 40
0.5396795846
 40
1.0
 40
1.0
 40
1.0
 40
1.0
 10
189.0530563679
 20
336.2939229098
 30
0.0
 10
189.1662454111
 20
336.2157776836
 30
0.0
 10
189.3574109126
 20
336.0381920508
 30
0.0
 10
189.4658378504
 20
335.7979342206
 30
0.0
 10
189.488020228
 20
335.6827318104
 30
0.0
  0
SPLINE
  5
617
100
AcDbEntity
  8
0
100
AcDbSpline
 62
7
  6
CONTINUOUS
 70
0
 71
3
 72
8
 73
4
 74
0
 42
0.0000001
 43
0.0000001
 44
0.0000000001
 40
0.0
 40
0.0
 40
0.0
 40
0.0
 40
1.0
 40
1.0
 40
1.0
 40
1.0
 10
189.488020228
 20
335.6827318104
 30
0.0
 10
189.5104427088
 20
335.5662824433
 30
0.0
 10
189.5041170973
 20
335.4406448351
 30
0.0
 10
189.4686119746
 20
335.3274962205
 30
0.0
  0
SPLINE
  5
618
100
AcDbEntity
  8
0
100
AcDbSpline
 62
7
  6
CONTINUOUS
 70
0
 71
3
 72
10
 73
6
 74
0
 42
0.0000001
 43
0.0000001
 44
0.0000000001
 40
0.0
 40
0.0
 40
0.0
 40
0.0
 40
0.2925088698
 40
0.5678902298
 40
1.0
 40
1.0
 40
1.0
 40
1.0
 10
188.9014846691
 20
334.7556895712
 30
0.0
 10
188.9688224597
 20
334.800675171
 30
0.0
 10
189.1127027166
 20
334.8635455227
 30
0.0
 10
189.3456152866
 20
335.0276553544
 30
0.0
 10
189.4161590441
 20
335.2199776208
 30
0.0
 10
189.4686119746
 20
335.3274962205
 30
0.0
  0
SPLINE
  5
619
100
AcDbEntity
  8
0
100
AcDbSpline
 62
7
  6
CONTINUOUS
 70
0
 71
3
 72
9
 73
5
 74
0
 42
0.0000001
 43
0.0000001
 44
0.0000000001
 40
0.0
 40
0.0
 40
0.0
 40
0.0
 40
0.4746127954
 40
1.0
 40
1.0
 40
1.0
 40
1.0
 10
186.87121281
 20
336.4803557736
 30
0.0
 10
186.4267305819
 20
336.3806269357
 30
0.0
 10
185.5084627661
 20
336.0908203035
 30
0.0
 10
184.6206050061
 20
335.726298289
 30
0.0
 10
184.1556782904
 20
335.5310354855
 30
0.0
  0
SPLINE
  5
61A
100
AcDbEntity
  8
0
100
AcDbSpline
 62
7
  6
CONTINUOUS
 70
0
 71
3
 72
17
 73
13
 74
0
 42
0.0000001
 43
0.0000001
 44
0.0000000001
 40
0.0
 40
0.0
 40
0.0
 40
0.0
 40
0.0644203408
 40
0.0922431739
 40
0.1210167774
 40
0.1536637579
 40
0.1921806294
 40
0.2908425852
 40
0.4212570728
 40
0.583838961
 40
0.7777066299
 40
1.0
 40
1.0
 40
1.0
 40
1.0
 10
217.5934088432
 20
388.5547285906
 30
0.0
 10
217.4992745164
 20
388.4605091933
 30
0.0
 10
217.3788803292
 20
388.2962453191
 30
0.0
 10
217.3538318135
 20
388.0418295712
 30
0.0
 10
217.4034980071
 20
387.8604714837
 30
0.0
 10
217.5151687369
 20
387.6840704125
 30
0.0
 10
217.7627018569
 20
387.4325387333
 30
0.0
 10
218.235894469
 20
387.1354405356
 30
0.0
 10
218.9782625221
 20
386.8103170057
 30
0.0
 10
219.9358865973
 20
386.4957244078
 30
0.0
 10
221.0952375584
 20
386.1979596057
 30
0.0
 10
221.9381431829
 20
386.023802704
 30
0.0
 10
222.3897318112
 20
385.9384617882
 30
0.0
  0
SPLINE
  5
61B
100
AcDbEntity
  8
0
100
AcDbSpline
 62
7
  6
CONTINUOUS
 70
0
 71
3
 72
17
 73
13
 74
0
 42
0.0000001
 43
0.0000001
 44
0.0000000001
 40
0.0
 40
0.0
 40
0.0
 40
0.0
 40
0.0655887299
 40
0.0938501875
 40
0.1228757793
 40
0.1556130595
 40
0.1941032747
 40
0.2923559586
 40
0.4221678994
 40
0.5843484442
 40
0.7777039713
 40
1.0
 40
1.0
 40
1.0
 40
1.0
 10
251.1414890491
 20
387.8867101114
 30
0.0
 10
251.2308720419
 20
387.7900049561
 30
0.0
 10
251.3436588069
 20
387.6241545953
 30
0.0
 10
251.3629863246
 20
387.3730506857
 30
0.0
 10
251.3113117007
 20
387.1962425911
 30
0.0
 10
251.1989624828
 20
387.0266026118
 30
0.0
 10
250.9532644826
 20
386.7886225779
 30
0.0
 10
250.4879179773
 20
386.5134039334
 30
0.0
 10
249.7602356112
 20
386.2208014023
 30
0.0
 10
248.8234392573
 20
385.9474759984
 30
0.0
 10
247.6903364716
 20
385.696447377
 30
0.0
 10
246.8673664907
 20
385.5560016405
 30
0.0
 10
246.4261091216
 20
385.4889970612
 30
0.0
  0
SPLINE
  5
61C
100
AcDbEntity
  8
0
100
AcDbSpline
 62
7
  6
CONTINUOUS
 70
0
 71
3
 72
13
 73
9
 74
0
 42
0.0000001
 43
0.0000001
 44
0.0000000001
 40
0.0
 40
0.0
 40
0.0
 40
0.0
 40
0.1072212443
 40
0.2290615561
 40
0.4985160072
 40
0.7687395761
 40
0.8915495841
 40
1.0
 40
1.0
 40
1.0
 40
1.0
 10
246.4261091216
 20
385.4889970612
 30
0.0
 10
245.5737262532
 20
385.3597397495
 30
0.0
 10
243.7432341105
 20
385.1458405035
 30
0.0
 10
239.7437593445
 20
384.8652913093
 30
0.0
 10
234.4206219433
 20
384.800837375
 30
0.0
 10
229.0960315862
 20
385.0656913035
 30
0.0
 10
225.0857469361
 20
385.4948227129
 30
0.0
 10
223.2468174844
 20
385.7778155388
 30
0.0
 10
222.3897318112
 20
385.9384617882
 30
0.0
  0
SPLINE
  5
61D
100
AcDbEntity
  8
0
100
AcDbSpline
 62
7
  6
CONTINUOUS
 70
0
 71
3
 72
13
 73
9
 74
0
 42
0.0000001
 43
0.0000001
 44
0.0000000001
 40
0.0
 40
0.0
 40
0.0
 40
0.0
 40
0.0562388197
 40
0.1322664131
 40
0.2293069087
 40
0.3471316741
 40
0.640637213
 40
1.0
 40
1.0
 40
1.0
 40
1.0
 10
249.2107093196
 20
387.1144587945
 30
0.0
 10
249.1168707316
 20
387.0025631478
 30
0.0
 10
248.8379121544
 20
386.7912034985
 30
0.0
 10
248.3007719473
 20
386.5327551054
 30
0.0
 10
247.5847444963
 20
386.2870520709
 30
0.0
 10
246.3053509131
 20
385.9590707597
 30
0.0
 10
244.3277603033
 20
385.6319947011
 30
0.0
 10
242.6401917477
 20
385.4640081077
 30
0.0
 10
241.7097266568
 20
385.3931763049
 30
0.0
  0
SPLINE
  5
61E
100
AcDbEntity
  8
0
100
AcDbSpline
 62
7
  6
CONTINUOUS
 70
0
 71
3
 72
11
 73
7
 74
0
 42
0.0000001
 43
0.0000001
 44
0.0000000001
 40
0.0
 40
0.0
 40
0.0
 40
0.0
 40
0.2419643741
 40
0.5004968474
 40
0.7587793528
 40
1.0
 40
1.0
 40
1.0
 40
1.0
 10
241.7097266568
 20
385.3931763049
 30
0.0
 10
240.510468273
 20
385.30188257
 30
0.0
 10
238.0240348894
 20
385.1866386645
 30
0.0
 10
234.2512813391
 20
385.1832447935
 30
0.0
 10
230.485562504
 20
385.3418662322
 30
0.0
 10
228.0109280518
 20
385.559399146
 30
0.0
 10
226.8201783493
 20
385.7000812856
 30
0.0
  0
LINE
  5
61F
100
AcDbEntity
  8
0
100
AcDbLine
 62
7
  6
CONTINUOUS
 10
226.8201783493
 20
385.7000812856
 11
226.7432896943
 21
385.7092173479
  0
LINE
  5
620
100
AcDbEntity
  8
0
100
AcDbLine
 62
7
  6
CONTINUOUS
 10
226.7432896943
 20
385.7092173479
 11
226.7125791923
 21
385.7128956326
  0
SPLINE
  5
621
100
AcDbEntity
  8
0
100
AcDbSpline
 62
7
  6
CONTINUOUS
 70
0
 71
3
 72
9
 73
5
 74
0
 42
0.0000001
 43
0.0000001
 44
0.0000000001
 40
0.0
 40
0.0
 40
0.0
 40
0.0
 40
0.2665523421
 40
1.0
 40
1.0
 40
1.0
 40
1.0
 10
226.7125791923
 20
385.7128956326
 30
0.0
 10
226.4524891559
 20
385.7441183007
 30
0.0
 10
225.4775876642
 20
385.8680076158
 30
0.0
 10
224.5059103317
 20
386.0191458344
 30
0.0
 10
223.7974979596
 20
386.1522269818
 30
0.0
  0
ENDSEC
  0
SECTION
  2
OBJECTS
  0
DICTIONARY
  5
C
100
AcDbDictionary
280
0
281
1
  3
ACAD_GROUP
350
D
  3
ACAD_MLINESTYLE
350
17
  3
ACAD_LAYOUT
350
1A
  3
ACAD_PLOTSETTINGS
350
19
  3
ACAD_PLOTSTYLENAME
350
E
  0
DICTIONARY
  5
D
102
{ACAD_REACTORS
330
C
102
}
100
AcDbDictionary
280
0
281
1
  0
ACDBDICTIONARYWDFLT
  5
E
102
{ACAD_REACTORS
330
C
102
}
100
AcDbDictionary
281
1
  3
Normal
350
F
100
AcDbDictionaryWithDefault
340
F
  0
DICTIONARY
  5
17
102
{ACAD_REACTORS
330
C
102
}
100
AcDbDictionary
280
0
281
1
  3
Standard
350
18
  0
DICTIONARY
  5
19
102
{ACAD_REACTORS
330
C
102
}
100
AcDbDictionary
281
1
  0
DICTIONARY
  5
1A
102
{ACAD_REACTORS
330
C
102
}
100
AcDbDictionary
281
1
  3
Model
350
622
  3
Layout1
350
623
  0
ACDBPLACEHOLDER
  5
F
102
{ACAD_REACTORS
330
E
102
}
  0
MLINESTYLE
  5
18
102
{ACAD_REACTORS
330
17
102
}
100
AcDbMlineStyle
  2
STANDARD
 70
0
  3

 62
256
 51
90.0
 52
90.0
 71
2
 49
0.5
 62
256
  6
BYLAYER
 49
-0.5
 62
256
  6
BYLAYER
  0
LAYOUT
  5
622
102
{ACAD_REACTORS
330
1A
102
}
100
AcDbPlotSettings
  1

  2
none_device
  4
ISO_A1_(594.00_x_841.00_MM)
  6

 40
0.0
 41
0.0
 42
0.0
 43
0.0
 44
841.0
 45
594.0
 46
0.0
 47
0.0
 48
0.0
 49
0.0
140
0.0
141
0.0
142
1.0
143
1.0
 70
1024
 72
1
 73
0
 74
0
  7

 75
0
147
1.0
148
0.0
149
0.0
100
AcDbLayout
  1
Model
 70
0
 71
0
 10
0.0
 20
0.0
 11
841.0
 21
594.0
 12
0.0
 22
0.0
 32
0.0
 14
0.0
 24
0.0
 34
0.0
 15
0.0
 25
0.0
 35
0.0
146
0.0
 13
0.0
 23
0.0
 33
0.0
 16
1.0
 26
0.0
 36
0.0
 17
0.0
 27
1.0
 37
0.0
 76
0
330
21A
345
0
346
0
  0
LAYOUT
  5
623
102
{ACAD_REACTORS
330
1A
102
}
100
AcDbPlotSettings
  1

  2
none_device
  4
ISO_A1_(594.00_x_841.00_MM)
  6

 40
0.0
 41
0.0
 42
0.0
 43
0.0
 44
841.0
 45
594.0
 46
0.0
 47
0.0
 48
0.0
 49
0.0
140
0.0
141
0.0
142
1.0
143
1.0
 70
0
 72
1
 73
0
 74
0
  7

 75
0
147
1.0
148
0.0
149
0.0
100
AcDbLayout
  1
Layout1
 70
0
 71
1
 10
0.0
 20
0.0
 11
841.0
 21
594.0
 12
0.0
 22
0.0
 32
0.0
 14
0.0
 24
0.0
 34
0.0
 15
0.0
 25
0.0
 35
0.0
146
0.0
 13
0.0
 23
0.0
 33
0.0
 16
1.0
 26
0.0
 36
0.0
 17
0.0
 27
1.0
 37
0.0
 76
0
330
21B
345
0
346
0
  0
ENDSEC
  0
EOF
