999
DXF file: 37310in_4fp.dxf
999
Pro/ENGINEER 2013150 by Parametric Technology Corporation
  0
SECTION
  2
HEADER
  9
$ACADVER
  1
AC1021
  9
$DWGCODEPAGE
  3
ANSI_1252
  9
$EXTMAX
 10
594.0
 20
420.0
 30
0.0
  9
$EXTMIN
 10
0.0
 20
0.0
 30
0.0
  9
$LIMMIN
 10
0.0
 20
0.0
  9
$LIMMAX
 10
594.0
 20
420.0
  9
$VIEWCTR
 10
297.0
 20
210.0
  9
$VIEWSIZE
 40
420.0
  9
$CLAYER
  8
0
  9
$LTSCALE
 40
32.67
  9
$CELTYPE
  6
BYLAYER
  9
$DIMSCALE
 40
1.0
  9
$DIMASZ
 40
3.5
  9
$DIMEXO
 40
1.0
  9
$DIMDLI
 40
22.572
  9
$DIMEXE
 40
1.5
  9
$DIMCEN
 40
5.346
  9
$DIMLFAC
 40
1.0
  9
$DIMBLK
  1
_FILLED
  9
$DIMTXT
 40
3.5
  9
$DIMTOL
 70
1
  9
$DIMLIM
 70
0
  9
$DIMTFAC
 40
1.0
  9
$DIMTP
 40
0.01
  9
$DIMTM
 40
0.01
  9
$DIMGAP
 40
0.625
  9
$DIMDSEP
 70
46
  9
$PDMODE
 70
3
  9
$PDSIZE
 40
0.3125
  9
$HANDSEED
  5
4A9
  9
$TILEMODE
 70
1
  9
$MEASUREMENT
 70
1
  9
$INSUNITS
 70
4
  0
ENDSEC
  0
SECTION
  2
CLASSES
  0
CLASS
  1
ACDBDICTIONARYWDFLT
  2
AcDbDictionaryWithDefault
  3
AutoCAD 2000
 90
0
 91
1
280
0
281
0
  0
CLASS
  1
ACDBPLACEHOLDER
  2
AcDbPlaceHolder
  3
AutoCAD 2000
 90
0
 91
1
280
0
281
0
  0
CLASS
  1
LAYOUT
  2
AcDbLayout
  3
AutoCAD 2000
 90
0
 91
0
280
0
281
0
  0
ENDSEC
  0
SECTION
  2
TABLES
  0
TABLE
  2
VPORT
  5
8
100
AcDbSymbolTable
 70
2
  0
VPORT
  5
1F4
100
AcDbSymbolTableRecord
100
AcDbViewportTableRecord
  2
*ACTIVE
 70
0
 10
0.0
 20
0.0
 11
1.0
 21
1.0
 12
297.0
 22
210.0
 13
0.0
 23
0.0
 14
1.0
 24
1.0
 15
0.0
 25
0.0
 16
0.0
 26
0.0
 36
1.0
 17
0.0
 27
0.0
 37
0.0
 40
420.0
 41
1.4142857143
 42
50.0
 43
0.0
 44
0.0
 50
0.0
 51
0.0
 71
0
 72
100
 73
1
 74
1
 75
0
 76
0
 77
0
 78
0
  0
ENDTAB
  0
TABLE
  2
LTYPE
  5
5
100
AcDbSymbolTable
 70
6
  0
LTYPE
  5
14
100
AcDbSymbolTableRecord
100
AcDbLinetypeTableRecord
  2
BYBLOCK
 70
0
  3

 72
65
 73
0
 40
0.0
  0
LTYPE
  5
15
100
AcDbSymbolTableRecord
100
AcDbLinetypeTableRecord
  2
BYLAYER
 70
0
  3

 72
65
 73
0
 40
0.0
  0
LTYPE
  5
16
100
AcDbSymbolTableRecord
100
AcDbLinetypeTableRecord
  2
CONTINUOUS
 70
64
  3
Solid line
 72
65
 73
0
 40
0.0
  0
LTYPE
  5
1F5
100
AcDbSymbolTableRecord
100
AcDbLinetypeTableRecord
  2
CENTER
 70
64
  3
____ _ ____ _ ____ _ ____ _ ____ _ ____ _ ____
 72
65
 73
4
 40
0.6
 49
0.375
 74
0
 49
-0.075
 74
0
 49
0.075
 74
0
 49
-0.075
 74
0
  0
LTYPE
  5
1F6
100
AcDbSymbolTableRecord
100
AcDbLinetypeTableRecord
  2
HIDDEN
 70
64
  3
- - - - - - - - - - - - - - - - - - - -
 72
65
 73
2
 40
0.2
 49
0.1
 74
0
 49
-0.1
 74
0
  0
LTYPE
  5
1F7
100
AcDbSymbolTableRecord
100
AcDbLinetypeTableRecord
  2
PHANTOM
 70
64
  3
_____ _ _ _____ _ _ _____ _ _ _____
 72
65
 73
6
 40
0.8
 49
0.45
 74
0
 49
-0.05
 74
0
 49
0.1
 74
0
 49
-0.05
 74
0
 49
0.1
 74
0
 49
-0.05
 74
0
  0
LTYPE
  5
1F8
100
AcDbSymbolTableRecord
100
AcDbLinetypeTableRecord
  2
DOT
 70
64
  3
. . . . . . . . . . . . . . . . . . . .
 72
65
 73
2
 40
0.2
 49
0.1
 74
0
 49
-0.1
 74
0
  0
LTYPE
  5
1F9
100
AcDbSymbolTableRecord
100
AcDbLinetypeTableRecord
  2
DASHED
 70
64
  3
- - - - - - - - - - - - - - - - - - - -
 72
65
 73
2
 40
0.2
 49
0.1
 74
0
 49
-0.1
 74
0
  0
ENDTAB
  0
TABLE
  2
LAYER
  5
2
100
AcDbSymbolTable
 70
36
  0
LAYER
  5
10
100
AcDbSymbolTableRecord
100
AcDbLayerTableRecord
  2
0
 70
0
 62
7
  6
CONTINUOUS
370
-3
390
F
  0
LAYER
  5
1FA
100
AcDbSymbolTableRecord
100
AcDbLayerTableRecord
  2
DEFAULT_1
 70
0
 62
7
  6
CENTER
370
-3
390
F
  0
LAYER
  5
1FB
100
AcDbSymbolTableRecord
100
AcDbLayerTableRecord
  2
DEFAULT_2
 70
0
 62
8
  6
HIDDEN
370
-3
390
F
  0
LAYER
  5
1FC
100
AcDbSymbolTableRecord
100
AcDbLayerTableRecord
  2
DEFAULT_3
 70
0
 62
7
  6
PHANTOM
370
-3
390
F
  0
LAYER
  5
1FD
100
AcDbSymbolTableRecord
100
AcDbLayerTableRecord
  2
00_COMPONENTS
 70
0
 62
7
  6
CONTINUOUS
370
-3
390
F
  0
LAYER
  5
1FE
100
AcDbSymbolTableRecord
100
AcDbLayerTableRecord
  2
01_ALL_PLANES
 70
0
 62
7
  6
CONTINUOUS
370
-3
390
F
  0
LAYER
  5
1FF
100
AcDbSymbolTableRecord
100
AcDbLayerTableRecord
  2
02_ALL_CSYS
 70
0
 62
7
  6
CONTINUOUS
370
-3
390
F
  0
LAYER
  5
200
100
AcDbSymbolTableRecord
100
AcDbLayerTableRecord
  2
20_ALL_FEATURES
 70
0
 62
7
  6
CONTINUOUS
370
-3
390
F
  0
LAYER
  5
201
100
AcDbSymbolTableRecord
100
AcDbLayerTableRecord
  2
AXES_REF
 70
0
 62
7
  6
CONTINUOUS
370
-3
390
F
  0
LAYER
  5
202
100
AcDbSymbolTableRecord
100
AcDbLayerTableRecord
  2
COPI
 70
0
 62
7
  6
CONTINUOUS
370
-3
390
F
  0
LAYER
  5
203
100
AcDbSymbolTableRecord
100
AcDbLayerTableRecord
  2
COURB
 70
0
 62
7
  6
CONTINUOUS
370
-3
390
F
  0
LAYER
  5
204
100
AcDbSymbolTableRecord
100
AcDbLayerTableRecord
  2
COURBE-COTA
 70
0
 62
7
  6
CONTINUOUS
370
-3
390
F
  0
LAYER
  5
205
100
AcDbSymbolTableRecord
100
AcDbLayerTableRecord
  2
COURBES
 70
0
 62
7
  6
CONTINUOUS
370
-3
390
F
  0
LAYER
  5
206
100
AcDbSymbolTableRecord
100
AcDbLayerTableRecord
  2
COURBE_COTA
 70
0
 62
7
  6
CONTINUOUS
370
-3
390
F
  0
LAYER
  5
207
100
AcDbSymbolTableRecord
100
AcDbLayerTableRecord
  2
COURBE_COTATION
 70
0
 62
7
  6
CONTINUOUS
370
-3
390
F
  0
LAYER
  5
208
100
AcDbSymbolTableRecord
100
AcDbLayerTableRecord
  2
DATUMS
 70
0
 62
7
  6
CONTINUOUS
370
-3
390
F
  0
LAYER
  5
209
100
AcDbSymbolTableRecord
100
AcDbLayerTableRecord
  2
DATUM_AXIS
 70
0
 62
7
  6
CONTINUOUS
370
-3
390
F
  0
LAYER
  5
20A
100
AcDbSymbolTableRecord
100
AcDbLayerTableRecord
  2
DATUM_CSYS
 70
0
 62
7
  6
CONTINUOUS
370
-3
390
F
  0
LAYER
  5
20B
100
AcDbSymbolTableRecord
100
AcDbLayerTableRecord
  2
DATUM_PLANE
 70
0
 62
7
  6
CONTINUOUS
370
-3
390
F
  0
LAYER
  5
20C
100
AcDbSymbolTableRecord
100
AcDbLayerTableRecord
  2
DATUM_POINT
 70
0
 62
7
  6
CONTINUOUS
370
-3
390
F
  0
LAYER
  5
20D
100
AcDbSymbolTableRecord
100
AcDbLayerTableRecord
  2
ECROU
 70
0
 62
7
  6
CONTINUOUS
370
-3
390
F
  0
LAYER
  5
20E
100
AcDbSymbolTableRecord
100
AcDbLayerTableRecord
  2
ELECTRO
 70
0
 62
7
  6
CONTINUOUS
370
-3
390
F
  0
LAYER
  5
20F
100
AcDbSymbolTableRecord
100
AcDbLayerTableRecord
  2
ENCASTRE
 70
0
 62
7
  6
CONTINUOUS
370
-3
390
F
  0
LAYER
  5
210
100
AcDbSymbolTableRecord
100
AcDbLayerTableRecord
  2
EXCLUES
 70
0
 62
7
  6
CONTINUOUS
370
-3
390
F
  0
LAYER
  5
211
100
AcDbSymbolTableRecord
100
AcDbLayerTableRecord
  2
FUT
 70
0
 62
7
  6
CONTINUOUS
370
-3
390
F
  0
LAYER
  5
212
100
AcDbSymbolTableRecord
100
AcDbLayerTableRecord
  2
GATES
 70
0
 62
7
  6
CONTINUOUS
370
-3
390
F
  0
LAYER
  5
213
100
AcDbSymbolTableRecord
100
AcDbLayerTableRecord
  2
INTFCLR_1
 70
0
 62
7
  6
CONTINUOUS
370
-3
390
F
  0
LAYER
  5
214
100
AcDbSymbolTableRecord
100
AcDbLayerTableRecord
  2
INVERSEUR
 70
0
 62
7
  6
CONTINUOUS
370
-3
390
F
  0
LAYER
  5
215
100
AcDbSymbolTableRecord
100
AcDbLayerTableRecord
  2
LEVIER
 70
0
 62
7
  6
CONTINUOUS
370
-3
390
F
  0
LAYER
  5
216
100
AcDbSymbolTableRecord
100
AcDbLayerTableRecord
  2
MARQUAGE-KOHLER-DATE
 70
0
 62
7
  6
CONTINUOUS
370
-3
390
F
  0
LAYER
  5
217
100
AcDbSymbolTableRecord
100
AcDbLayerTableRecord
  2
OLD-PICTOS
 70
0
 62
7
  6
CONTINUOUS
370
-3
390
F
  0
LAYER
  5
218
100
AcDbSymbolTableRecord
100
AcDbLayerTableRecord
  2
PAD
 70
0
 62
7
  6
CONTINUOUS
370
-3
390
F
  0
LAYER
  5
219
100
AcDbSymbolTableRecord
100
AcDbLayerTableRecord
  2
PLAN_REF
 70
0
 62
7
  6
CONTINUOUS
370
-3
390
F
  0
LAYER
  5
21A
100
AcDbSymbolTableRecord
100
AcDbLayerTableRecord
  2
REPERE
 70
0
 62
7
  6
CONTINUOUS
370
-3
390
F
  0
LAYER
  5
21B
100
AcDbSymbolTableRecord
100
AcDbLayerTableRecord
  2
ROSACE
 70
0
 62
7
  6
CONTINUOUS
370
-3
390
F
  0
LAYER
  5
21C
100
AcDbSymbolTableRecord
100
AcDbLayerTableRecord
  2
XSEC_DATUMS
 70
0
 62
7
  6
CONTINUOUS
370
-3
390
F
  0
LAYER
  5
21D
100
AcDbSymbolTableRecord
100
AcDbLayerTableRecord
  2
_CURVE
 70
0
 62
7
  6
CONTINUOUS
370
-3
390
F
  0
LAYER
  5
21E
100
AcDbSymbolTableRecord
100
AcDbLayerTableRecord
  2
_SURFACE
 70
0
 62
7
  6
CONTINUOUS
370
-3
390
F
  0
LAYER
  5
21F
100
AcDbSymbolTableRecord
100
AcDbLayerTableRecord
  2
_SURFACE-ELECTRO
 70
0
 62
7
  6
CONTINUOUS
370
-3
390
F
  0
LAYER
  5
220
100
AcDbSymbolTableRecord
100
AcDbLayerTableRecord
  2
__REF_CURVE
 70
0
 62
7
  6
CONTINUOUS
370
-3
390
F
  0
LAYER
  5
221
100
AcDbSymbolTableRecord
100
AcDbLayerTableRecord
  2
__REF_SURFACE
 70
0
 62
7
  6
CONTINUOUS
370
-3
390
F
  0
LAYER
  5
222
100
AcDbSymbolTableRecord
100
AcDbLayerTableRecord
  2
___COSMETIC_THREAD
 70
0
 62
7
  6
CONTINUOUS
370
-3
390
F
  0
LAYER
  5
223
100
AcDbSymbolTableRecord
100
AcDbLayerTableRecord
  2
___GDT
 70
0
 62
7
  6
CONTINUOUS
370
-3
390
F
  0
LAYER
  5
224
100
AcDbSymbolTableRecord
100
AcDbLayerTableRecord
  2
___NOTE
 70
0
 62
7
  6
CONTINUOUS
370
-3
390
F
  0
ENDTAB
  0
TABLE
  2
STYLE
  5
3
100
AcDbSymbolTable
 70
1
  0
STYLE
  5
11
100
AcDbSymbolTableRecord
100
AcDbTextStyleTableRecord
  2
STANDARD
 70
0
 40
0.0
 41
0.8
 50
0.0
 71
0
 42
0.2
  3
txt
  4

  0
STYLE
  5
225
100
AcDbSymbolTableRecord
100
AcDbTextStyleTableRecord
  2
TEXTSTYLE_1
 70
0
 40
0.0
 41
0.8
 50
0.0
 71
0
 42
0.2
  3
gdt
  4

  0
ENDTAB
  0
TABLE
  2
VIEW
  5
6
100
AcDbSymbolTable
 70
0
  0
ENDTAB
  0
TABLE
  2
UCS
  5
7
100
AcDbSymbolTable
 70
0
  0
ENDTAB
  0
TABLE
  2
APPID
  5
9
100
AcDbSymbolTable
 70
1
  0
APPID
  5
226
100
AcDbSymbolTableRecord
100
AcDbRegAppTableRecord
  2
ACAD
 70
0
  0
ENDTAB
  0
TABLE
  2
BLOCK_RECORD
  5
1
100
AcDbSymbolTable
 70
0
  0
BLOCK_RECORD
  5
227
100
AcDbSymbolTableRecord
100
AcDbBlockTableRecord
  2
*Model_Space
  0
BLOCK_RECORD
  5
228
100
AcDbSymbolTableRecord
100
AcDbBlockTableRecord
  2
*Paper_Space
  0
ENDTAB
  0
TABLE
  2
DIMSTYLE
  5
A
100
AcDbSymbolTable
 70
1
100
AcDbDimStyleTable
 71
0
  0
DIMSTYLE
105
229
100
AcDbSymbolTableRecord
100
AcDbDimStyleTableRecord
  2
STANDARD
 70
0
  3

  4

 40
1.0
 41
3.5
 42
1.0
 43
0.38
 44
1.5
 45
0.0
 46
0.0
 47
0.01
 48
0.01
140
3.5
141
0.09
142
0.0
143
25.4
144
1.0
145
0.0
146
1.0
147
0.625
 71
1.0
 72
0.0
 73
0
 74
0
 75
0
 76
0
 77
1
 78
8
170
0
171
2
172
0
173
0
174
0
175
0
176
0
177
0
178
0
270
2
271
3
272
3
273
2
274
2
275
0
280
0
281
0
282
0
283
1
284
8
285
0
286
0
287
3
288
0
340
11
278
46
  0
ENDTAB
  0
ENDSEC
  0
SECTION
  2
BLOCKS
  0
BLOCK
  5
20
100
AcDbEntity
  8
0
100
AcDbBlockBegin
  2
*Model_Space
 70
0
 10
0.0
 20
0.0
 30
0.0
  3
*Model_Space
  1

  0
ENDBLK
  5
21
100
AcDbEntity
  8
0
100
AcDbBlockEnd
  0
BLOCK
  5
1C
100
AcDbEntity
  8
0
100
AcDbBlockBegin
  2
*Paper_Space
 70
0
 10
0.0
 20
0.0
 30
0.0
  3
*Paper_Space
  1

  0
ENDBLK
  5
1D
100
AcDbEntity
  8
0
100
AcDbBlockEnd
  0
ENDSEC
  0
SECTION
  2
ENTITIES
  0
LINE
  5
22A
100
AcDbEntity
  8
0
100
AcDbLine
 62
7
  6
CONTINUOUS
 10
0.0
 20
0.0
 11
0.0
 21
420.0
  0
LINE
  5
22B
100
AcDbEntity
  8
0
100
AcDbLine
 62
7
  6
CONTINUOUS
 10
0.0
 20
0.0
 11
594.0
 21
0.0
  0
LINE
  5
22C
100
AcDbEntity
  8
0
100
AcDbLine
 62
7
  6
CONTINUOUS
 10
0.0
 20
420.0
 11
594.0
 21
420.0
  0
LINE
  5
22D
100
AcDbEntity
  8
0
100
AcDbLine
 62
7
  6
CONTINUOUS
 10
594.0
 20
0.0
 11
594.0
 21
420.0
  0
LWPOLYLINE
  5
22E
100
AcDbEntity
  8
0
100
AcDbPolyline
 62
7
  6
CONTINUOUS
 90
139
 70
0
 10
104.9846385098
 20
197.4798741842
 10
107.0410292628
 20
197.6257331636
 10
109.1427645253
 20
197.8469191996
 10
111.2898442972
 20
198.1434322923
 10
113.4977550812
 20
198.5148484797
 10
115.7510103746
 20
198.9615917237
 10
118.0031506701
 20
199.48493391
 10
120.2530172292
 20
200.0896665064
 10
122.5017687905
 20
200.7709980451
 10
124.7064220617
 20
201.5158260086
 10
126.8694890374
 20
202.331200654
 10
128.988457723
 20
203.2100717241
 10
131.0128088429
 20
204.11818593
 10
132.9275291721
 20
205.0527898761
 10
134.7476319355
 20
206.016636958
 10
136.4676375326
 20
206.9837340729
 10
138.0794637508
 20
207.9483367498
 10
139.5911928026
 20
208.9161894597
 10
141.0215917253
 20
209.8785325137
 10
142.3727002991
 20
210.8350949468
 10
143.6424787438
 20
211.7861477239
 10
144.8435747556
 20
212.723744051
 10
145.9755613795
 20
213.6457525208
 10
147.0388655705
 20
214.5543045407
 10
148.0474158902
 20
215.447847539
 10
149.0028360238
 20
216.326537759
 10
149.9035022861
 20
217.1902189575
 10
150.7584721827
 20
218.0368698327
 10
151.5684250192
 20
218.8662595736
 10
152.33268149
 20
219.6786189912
 10
153.058261184
 20
220.4726192173
 10
153.7453369934
 20
221.2477495976
 10
154.393736026
 20
222.0045207864
 10
155.0099591935
 20
222.7431358785
 10
155.5941430009
 20
223.4631078973
 10
156.1461509433
 20
224.1649238193
 10
156.6720744174
 20
224.8502476694
 10
157.1728059892
 20
225.5197300948
 10
157.6474530928
 20
226.1727204483
 10
158.0994294269
 20
226.808930813
 10
158.5291015219
 20
227.4286770403
 10
158.9361028476
 20
228.0316432789
 10
159.3227475117
 20
228.6165940578
 10
159.68838968
 20
229.1821637665
 10
160.0336751867
 20
229.7297180155
 10
160.3628556424
 20
230.2621181656
 10
160.6756046144
 20
230.7782834943
 10
160.9722485355
 20
231.279294724
 10
161.2580183142
 20
231.7712553827
 10
161.533242982
 20
232.2541532732
 10
161.7975935076
 20
232.7280005928
 10
162.0553137058
 20
233.1989374606
 10
162.3068580439
 20
233.6673061273
 10
162.5517720547
 20
234.1327643423
 10
162.7929361511
 20
234.6004254735
 10
163.0313274527
 20
235.0720342162
 10
163.2659688399
 20
235.5458458752
 10
163.496809366
 20
236.0217397327
 10
163.7239466002
 20
236.4998468116
 10
163.9472829732
 20
236.980036089
 10
164.1664748307
 20
237.4617937784
 10
164.3813019914
 20
237.9447783555
 10
164.5919846365
 20
238.4293313446
 10
164.7988396553
 20
238.9159635319
 10
165.0019577755
 20
239.4045926047
 10
165.2012482693
 20
239.8953008757
 10
165.3967558431
 20
240.3888460695
 10
165.588425375
 20
240.885280753
 10
165.7763119868
 20
241.3845523593
 10
165.9606257499
 20
241.8872609118
 10
166.1417309185
 20
242.3944849597
 10
166.3192632384
 20
242.9051459537
 10
166.4923400186
 20
243.4166082696
 10
166.6610910602
 20
243.9296398456
 10
166.8253865621
 20
244.4434727435
 10
166.9839544295
 20
244.9531675245
 10
167.1360172973
 20
245.4566321445
 10
167.2823525307
 20
245.9559586476
 10
167.4240201306
 20
246.4524837267
 10
167.5607457753
 20
246.9445817052
 10
167.6928037865
 20
247.4338782597
 10
167.8220771308
 20
247.9265871128
 10
167.9487010653
 20
248.4224857876
 10
168.072540333
 20
248.9217967611
 10
168.1950721297
 20
249.4314011862
 10
168.3165332461
 20
249.9516470673
 10
168.4366868914
 20
250.4821864
 10
168.55629989
 20
251.0288563245
 10
168.6762419115
 20
251.5957350224
 10
168.7956432862
 20
252.1787443121
 10
168.9126618286
 20
252.7714867887
 10
169.0272715682
 20
253.3753409276
 10
169.1394984756
 20
253.9889282536
 10
169.2475782764
 20
254.6017159359
 10
169.3508712484
 20
255.2105362452
 10
169.4500171137
 20
255.818556911
 10
169.5451707648
 20
256.4247482909
 10
169.6361729632
 20
257.0276771468
 10
169.7231829473
 20
257.6287767169
 10
169.8068333251
 20
258.2313170736
 10
169.8871485114
 20
258.8358909551
 10
169.9641040913
 20
259.4419056232
 10
170.0382594277
 20
260.0508529364
 10
170.109769415
 20
260.6633320867
 10
170.1784791588
 20
261.278743882
 10
170.2444833377
 20
261.8967826048
 10
170.3078190135
 20
262.5178009693
 10
170.3684491245
 20
263.1414462613
 10
170.4263571645
 20
263.7663546206
 10
170.4814437176
 20
264.3916811811
 10
170.5338081997
 20
265.018270809
 10
170.5837323523
 20
265.6472942418
 10
170.6311123644
 20
266.2766067071
 10
170.676052047
 20
266.9083529773
 10
170.7191445744
 20
267.5501381079
 10
170.7604864275
 20
268.2016943559
 10
170.7999811255
 20
268.8632894641
 10
170.837932401
 20
269.543331716
 10
170.8744470739
 20
270.2419005195
 10
170.9094183242
 20
270.9589164667
 10
170.9428294244
 20
271.7025496169
 10
170.9747705946
 20
272.4738796215
 10
171.0051516147
 20
273.2718268292
 10
171.0336850968
 20
274.1013223448
 10
171.0603881592
 20
274.9632622061
 10
171.0852436836
 20
275.8567503753
 10
171.1079129276
 20
276.7840298443
 10
171.1283214006
 20
277.745051923
 10
171.146543593
 20
278.7398653015
 10
171.1624642336
 20
279.7708590421
 10
171.1759820723
 20
280.8380341282
 10
171.187198359
 20
281.9413895764
 10
171.1963015723
 20
283.0833114987
 10
171.2031043861
 20
284.2638607133
 10
171.2077941264
 20
285.4829764019
 10
171.2111212498
 20
286.7428622217
 10
171.2133359083
 20
288.0442527249
 10
171.2141879499
 20
289.3864133593
 10
171.2136773745
 20
290.7693441247
  0
LWPOLYLINE
  5
22F
100
AcDbEntity
  8
0
100
AcDbPolyline
 62
7
  6
CONTINUOUS
 90
8
 70
0
 10
96.6822404956
 20
197.5112400233
 10
96.6913452987
 20
197.5117681385
 10
96.7078844566
 20
197.5118650244
 10
96.7316625212
 20
197.5115306793
 10
96.7624074819
 20
197.5107378323
 10
96.7996750938
 20
197.5095137476
 10
96.8427858978
 20
197.5079402245
 10
96.8910312357
 20
197.5059999926
  0
LWPOLYLINE
  5
230
100
AcDbEntity
  8
0
100
AcDbPolyline
 62
7
  6
CONTINUOUS
 90
3
 70
0
 10
104.2640068458
 20
197.492592437
 10
104.3252705444
 20
197.4956997679
 10
104.3857432124
 20
197.4985913017
  0
LWPOLYLINE
  5
231
100
AcDbEntity
  8
0
100
AcDbPolyline
 62
7
  6
CONTINUOUS
 90
10
 70
0
 10
104.3857432124
 20
197.4985913017
 10
104.5006594947
 20
197.5037714465
 10
104.5533125016
 20
197.5060600411
 10
104.6015586673
 20
197.5079993015
 10
104.6446701431
 20
197.5095719659
 10
104.6819382242
 20
197.5107952831
 10
104.7126831587
 20
197.5115875087
 10
104.7364608194
 20
197.5119213926
 10
104.7529995149
 20
197.5118241785
 10
104.7621040195
 20
197.5112958645
  0
LWPOLYLINE
  5
232
100
AcDbEntity
  8
0
100
AcDbPolyline
 62
7
  6
CONTINUOUS
 90
9
 70
0
 10
101.1006136001
 20
197.4046292275
 10
101.4828126589
 20
197.40775116
 10
101.8687701167
 20
197.4130653615
 10
102.2584650255
 20
197.4205124165
 10
102.6519183335
 20
197.4301517405
 10
103.049192885
 20
197.4421615799
 10
103.4503096283
 20
197.4566013502
 10
103.8552476153
 20
197.4734116359
 10
104.2640068458
 20
197.492592437
  0
LINE
  5
233
100
AcDbEntity
  8
0
100
AcDbLine
 62
7
  6
CONTINUOUS
 10
100.7221729406
 20
197.403699564
 11
101.1006136001
 21
197.4046292275
  0
LINE
  5
234
100
AcDbEntity
  8
0
100
AcDbLine
 62
7
  6
CONTINUOUS
 10
100.3440665281
 20
197.404611418
 11
100.7221729406
 21
197.403699564
  0
LWPOLYLINE
  5
235
100
AcDbEntity
  8
0
100
AcDbPolyline
 62
7
  6
CONTINUOUS
 90
82
 70
0
 10
100.7221721214
 20
197.5348349701
 10
99.3443884887
 20
197.5483864198
 10
97.9094128368
 20
197.5910923524
 10
96.4196368848
 20
197.6661822692
 10
94.8735759996
 20
197.7774893333
 10
93.2662599745
 20
197.9294506735
 10
91.5934356353
 20
198.1267950189
 10
89.8536071721
 20
198.3748987641
 10
88.0455288828
 20
198.6792846438
 10
86.1658440279
 20
199.0468582705
 10
84.2096474537
 20
199.4856017665
 10
82.1757545079
 20
200.0033286953
 10
80.070590977
 20
200.6073268029
 10
77.9021655235
 20
201.3042844085
 10
75.6866796903
 20
202.0964396226
 10
73.4453209392
 20
202.983553944
 10
71.2009481228
 20
203.9627319623
 10
68.9779577169
 20
205.0266761943
 10
66.8023374109
 20
206.1653137616
 10
64.7164337225
 20
207.3491374458
 10
62.7689690352
 20
208.5405728103
 10
60.9803105812
 20
209.7168151541
 10
59.3302812371
 20
210.8762252923
 10
57.7979264267
 20
212.0183786628
 10
56.3684162449
 20
213.1448657484
 10
55.0277931972
 20
214.2587136681
 10
53.7649606662
 20
215.3619740887
 10
52.5736065609
 20
216.4544755567
 10
51.4494087778
 20
217.5343574118
 10
50.3935122984
 20
218.5946006506
 10
49.4079424166
 20
219.6273909979
 10
48.4907974773
 20
220.6289910796
 10
47.6369848506
 20
221.5989131993
 10
46.840754913
 20
222.5379636631
 10
46.0944603092
 20
223.4509606884
 10
45.3898009604
 20
224.3439835567
 10
44.7195944228
 20
225.2232693748
 10
44.07766023
 20
226.0948614313
 10
43.4583548537
 20
226.9647464196
 10
42.8565812661
 20
227.8397513664
 10
42.2675806735
 20
228.7265090469
 10
41.6901345022
 20
229.6270989954
 10
41.125075132
 20
230.5409150376
 10
40.5730981272
 20
231.4674730858
 10
40.0347691957
 20
232.4063469364
 10
39.5108307685
 20
233.3567216635
 10
39.002862052
 20
234.3158214324
 10
38.5125553699
 20
235.28047478
 10
38.0404434919
 20
236.2495561114
 10
37.5857796117
 20
237.2240935384
 10
37.1470046134
 20
238.2072934834
 10
36.7187385641
 20
239.2132472112
 10
36.2943888414
 20
240.2598307087
 10
35.8696797557
 20
241.3645142969
 10
35.4426995833
 20
242.5446277611
 10
35.0132849137
 20
243.8122753771
 10
34.5879778162
 20
245.1597904097
 10
34.1749492056
 20
246.5747152113
 10
33.7808115715
 20
248.0412831906
 10
33.4110365091
 20
249.5392815105
 10
33.0699033384
 20
251.0501755797
 10
32.7582073768
 20
252.5619104773
 10
32.4757322957
 20
254.0655695224
 10
32.2209758573
 20
255.5569888775
 10
31.9916652516
 20
257.0344588623
 10
31.7849664706
 20
258.5041267506
 10
31.5964370502
 20
259.9938219505
 10
31.4217106644
 20
261.5330997275
 10
31.259919796
 20
263.1324482195
 10
31.1121416225
 20
264.7911955171
 10
30.9790619418
 20
266.5105723757
 10
30.8606689836
 20
268.2955360256
 10
30.756912922
 20
270.1512373844
 10
30.6677859036
 20
272.0814261902
 10
30.5932646314
 20
274.0897065945
 10
30.5330544865
 20
276.1805743221
 10
30.4865167995
 20
278.3588252257
 10
30.4528802162
 20
280.6291469184
 10
30.4307293636
 20
282.9994367843
 10
30.4184114594
 20
285.4787655053
 10
30.4134903257
 20
288.0699300829
 10
30.4126417664
 20
290.7680685784
  0
LWPOLYLINE
  5
236
100
AcDbEntity
  8
0
100
AcDbPolyline
 62
7
  6
CONTINUOUS
 90
5
 70
0
 10
96.8910312357
 20
197.5059999926
 10
96.9998419692
 20
197.5012047627
 10
97.0585993053
 20
197.4985278777
 10
97.1190728341
 20
197.4956351136
 10
97.1803380201
 20
197.492526462
  0
LWPOLYLINE
  5
237
100
AcDbEntity
  8
0
100
AcDbPolyline
 62
7
  6
CONTINUOUS
 90
9
 70
0
 10
97.1803380201
 20
197.492526462
 10
97.5894492884
 20
197.4733266712
 10
97.9946491362
 20
197.456505956
 10
98.3959375635
 20
197.4420643165
 10
98.7932906947
 20
197.4300638083
 10
99.1867324054
 20
197.4204423757
 10
99.5763343227
 20
197.4130138518
 10
99.9621203221
 20
197.4077161806
 10
100.3440665281
 20
197.404611418
  0
LWPOLYLINE
  5
238
100
AcDbEntity
  8
0
100
AcDbPolyline
 62
7
  6
CONTINUOUS
 90
139
 70
0
 10
96.4597065288
 20
197.4798220788
 10
94.4538218418
 20
197.6216219073
 10
92.4036411903
 20
197.8350833772
 10
90.3091645743
 20
198.1202064884
 10
88.1584047629
 20
198.4755543067
 10
85.963348987
 20
198.9025637664
 10
83.7599589391
 20
199.4055456699
 10
81.5478926742
 20
199.9884561911
 10
79.3274921372
 20
200.6473391562
 10
77.1357448556
 20
201.3746368456
 10
74.9647305172
 20
202.1793126075
 10
72.8223694342
 20
203.0524030938
 10
70.7694100703
 20
203.9594605406
 10
68.8210209545
 20
204.8994887537
 10
66.9620335579
 20
205.8734839272
 10
65.207690757
 20
206.8499868798
 10
63.5699534004
 20
207.8212583266
 10
62.0368606396
 20
208.7950375524
 10
60.5877728054
 20
209.7630832303
 10
59.220226544
 20
210.7255369642
 10
57.9366852092
 20
211.6822571502
 10
56.7238991937
 20
212.6245776496
 10
55.5824559012
 20
213.5499512371
 10
54.511767928
 20
214.4609251379
 10
53.4968234555
 20
215.3564748893
 10
52.5358850708
 20
216.2367906128
 10
51.6306901868
 20
217.1016821868
 10
50.7714392235
 20
217.9495547843
 10
49.9572085756
 20
218.7803145455
 10
49.1889218484
 20
219.5940553302
 10
48.4595502785
 20
220.3894638905
 10
47.7689223021
 20
221.1660697169
 10
47.1172094829
 20
221.9243433189
 10
46.4978977483
 20
222.664382978
 10
45.9109040874
 20
223.3856039387
 10
45.3563115112
 20
224.0885909564
 10
44.8278549791
 20
224.7751965787
 10
44.3245453622
 20
225.4461985826
 10
43.8473717895
 20
226.1008191911
 10
43.3930366072
 20
226.7385776205
 10
42.9612623623
 20
227.359660921
 10
42.5523265078
 20
227.9638820424
 10
42.1637637485
 20
228.5501990504
 10
41.7961228442
 20
229.1173947541
 10
41.448855035
 20
229.6666863444
 10
41.1178487464
 20
230.2006834598
 10
40.8034695005
 20
230.7182492835
 10
40.5053517751
 20
231.2205206322
 10
40.2182874291
 20
231.7135175946
 10
39.9419932572
 20
232.1971565807
 10
39.6767524648
 20
232.6715211806
 10
39.4182065257
 20
233.1428822526
 10
39.1658736329
 20
233.6116158657
 10
38.9202355935
 20
234.077345951
 10
38.6783793031
 20
234.5452151603
 10
38.4393275688
 20
235.0169266431
 10
38.2040575836
 20
235.4907772498
 10
37.9725878214
 20
235.966800184
 10
37.7448132644
 20
236.4452277009
 10
37.5208389304
 20
236.9258275454
 10
37.3009983471
 20
237.4079361551
 10
37.0854966166
 20
237.8911107438
 10
36.8741286367
 20
238.3757940977
 10
36.6666126287
 20
238.8626510135
 10
36.4629091788
 20
239.3516762913
 10
36.2630577008
 20
239.842875131
 10
36.066894657
 20
240.3369279288
 10
35.8743520331
 20
240.8338931414
 10
35.6854978433
 20
241.333712312
 10
35.5003725931
 20
241.8368904664
 10
35.3187649941
 20
242.3444213369
 10
35.1408863346
 20
242.8553111912
 10
34.9674109845
 20
243.3670838579
 10
34.7981477507
 20
243.8805502173
 10
34.6332878263
 20
244.394899389
 10
34.4740791601
 20
244.9052225611
 10
34.321243085
 20
245.4094232859
 10
34.1740582681
 20
245.909598011
 10
34.0316086605
 20
246.407127267
 10
33.8942468568
 20
246.9004223874
 10
33.7616202625
 20
247.3910720387
 10
33.6317550441
 20
247.8852227515
 10
33.5044633702
 20
248.382697727
 10
33.3799330723
 20
248.8836737638
 10
33.2567538117
 20
249.3948277888
 10
33.1347101565
 20
249.9164637727
 10
33.0140175385
 20
250.4482777446
 10
32.8939119147
 20
250.996034719
 10
32.7735263229
 20
251.5638108649
 10
32.6537277254
 20
252.1475300133
 10
32.5363529654
 20
252.7407286715
 10
32.4214081314
 20
253.3447220768
 10
32.3088871349
 20
253.9581949919
 10
32.2006085547
 20
254.5707382117
 10
32.0972946253
 20
255.1790365446
 10
31.9982231123
 20
255.7864051823
 10
31.9030458905
 20
256.3923804948
 10
31.8118569352
 20
256.995716178
 10
31.7245622712
 20
257.597658536
 10
31.6405318484
 20
258.201482852
 10
31.5596837778
 20
258.8078990746
 10
31.4820999484
 20
259.4161972553
 10
31.4073959765
 20
260.0275228306
 10
31.3354930084
 20
260.6424093324
 10
31.2664698978
 20
261.2603232289
 10
31.2001788217
 20
261.8808093615
 10
31.1365698215
 20
262.5041826171
 10
31.0756928558
 20
263.1301281087
 10
31.0175499779
 20
263.7572460163
 10
30.9622329467
 20
264.3846675263
 10
30.9096500034
 20
265.0132614524
 10
30.8595279238
 20
265.6442344152
 10
30.8119716959
 20
266.2754690054
 10
30.7668763317
 20
266.9090826325
 10
30.7236536436
 20
267.5526341458
 10
30.6822110887
 20
268.2058579605
 10
30.6426412098
 20
268.8690196615
 10
30.6046334477
 20
269.5504748529
 10
30.5680824645
 20
270.2503122421
 10
30.5330935981
 20
270.9684431218
 10
30.4996723036
 20
271.7129569736
 10
30.4677227502
 20
272.4849023672
 10
30.4373407686
 20
273.2832307329
 10
30.4088193061
 20
274.1128858427
 10
30.3821497695
 20
274.974741958
 10
30.357340752
 20
275.8679248174
 10
30.3347109795
 20
276.7947554085
 10
30.3143259658
 20
277.7552096607
 10
30.2961201971
 20
278.7493116445
 10
30.2802158586
 20
279.7794545596
 10
30.2667199379
 20
280.8456072112
 10
30.2555254473
 20
281.947800794
 10
30.2464336094
 20
283.088522092
 10
30.2396254879
 20
284.267816633
 10
30.2349200189
 20
285.4856388891
 10
30.2315752336
 20
286.7443390601
 10
30.2293438087
 20
288.0447005459
 10
30.2284730674
 20
289.3859399466
 10
30.2289630096
 20
290.7680572622
  0
LINE
  5
239
100
AcDbEntity
  8
0
100
AcDbLine
 62
7
  6
CONTINUOUS
 10
104.7621040195
 20
197.5112958645
 11
104.9846385098
 21
197.4798741842
  0
LINE
  5
23A
100
AcDbEntity
  8
0
100
AcDbLine
 62
7
  6
CONTINUOUS
 10
96.4597065288
 20
197.4798220788
 11
96.6822404956
 21
197.5112400233
  0
LWPOLYLINE
  5
23B
100
AcDbEntity
  8
0
100
AcDbPolyline
 62
7
  6
CONTINUOUS
 90
139
 70
0
 10
30.2289630096
 20
290.7680572622
 10
30.2282693456
 20
291.9082469177
 10
30.228696433
 20
293.0541092685
 10
30.2302442717
 20
294.2056443146
 10
30.232557026
 20
295.3650433863
 10
30.2359905317
 20
296.5301151532
 10
30.2416122964
 20
297.6942856242
 10
30.2494957208
 20
298.8575190394
 10
30.2595674041
 20
300.0198511585
 10
30.2726746516
 20
301.1748152702
 10
30.2888423823
 20
302.3227201513
 10
30.3080456773
 20
303.4632570248
 10
30.3310570843
 20
304.5890328491
 10
30.3581258571
 20
305.7003587224
 10
30.389002742
 20
306.7969235463
 10
30.4237125264
 20
307.8704009843
 10
30.4623309456
 20
308.9186469051
 10
30.5047822642
 20
309.9438054399
 10
30.5508640635
 20
310.9439826459
 10
30.6003213727
 20
311.9149790408
 10
30.6534091627
 20
312.8609941067
 10
30.7106899271
 20
313.7927323473
 10
30.771982666
 20
314.7101043489
 10
30.8374683794
 20
315.6131995251
 10
30.9082525604
 20
316.5129906198
 10
30.9844406499
 20
317.4121947978
 10
31.065927207
 20
318.3080948943
 10
31.1535014027
 20
319.203512158
 10
31.2471838649
 20
320.0993825181
 10
31.3469539657
 20
320.9947700455
 10
31.4535389915
 20
321.8896882015
 10
31.5668563895
 20
322.7848005503
 10
31.6869887126
 20
323.6794435277
 10
31.8149109059
 20
324.5716399034
 10
31.9508202813
 20
325.4607815681
 10
32.094519527
 20
326.3474766311
 10
32.2463916526
 20
327.2315721887
 10
32.4061775016
 20
328.1125725074
 10
32.5741362304
 20
328.9909733207
 10
32.7514283186
 20
329.8681089263
 10
32.9379611121
 20
330.7441466851
 10
33.133827265
 20
331.6189192361
 10
33.3404652177
 20
332.4932587939
 10
33.5579287029
 20
333.3676038261
 10
33.786163988
 20
334.2415158651
 10
34.0264483165
 20
335.114511722
 10
34.2783001086
 20
335.9850929629
 10
34.5422009439
 20
336.8547580217
 10
34.8208728054
 20
337.7275190113
 10
35.1137614764
 20
338.602293449
 10
35.4214211735
 20
339.4801638174
 10
35.7482365293
 20
340.3683896781
 10
36.0936173635
 20
341.2671893922
 10
36.4581538563
 20
342.1763445984
 10
36.8480011816
 20
343.1024597747
 10
37.2659135762
 20
344.051380847
 10
37.7091368033
 20
345.0172618894
 10
38.1755633256
 20
345.9891696013
 10
38.6692238749
 20
346.9725479197
 10
39.1860877193
 20
347.9619529076
 10
39.7119551262
 20
348.9301194543
 10
40.2474250734
 20
349.8744098896
 10
40.7918985831
 20
350.7974618835
 10
41.3293789882
 20
351.6799233362
 10
41.8552083466
 20
352.5134509106
 10
42.3740446005
 20
353.3063879438
 10
42.8838649102
 20
354.064412346
 10
43.3821545079
 20
354.7849186119
 10
43.8714281614
 20
355.4705122469
 10
44.3572073348
 20
356.1346876773
 10
44.8389526972
 20
356.778225358
 10
45.3172035796
 20
357.400344834
 10
45.7990994384
 20
358.0121991669
 10
46.2857306746
 20
358.6157121638
 10
46.7760068873
 20
359.2089600175
 10
47.2737963312
 20
359.7973243674
 10
47.7806337386
 20
360.3827414147
 10
48.2949843772
 20
360.9632749582
 10
48.8161123046
 20
361.5384980339
 10
49.344214987
 20
362.1088657903
 10
49.8790949582
 20
362.6739230789
 10
50.4194238776
 20
363.2318774905
 10
50.9650502334
 20
363.7823359638
 10
51.5161255373
 20
364.3256915601
 10
52.0717759841
 20
364.8613310532
 10
52.6296509449
 20
365.3871779985
 10
53.1921010486
 20
365.9053088406
 10
53.7653043763
 20
366.4213396869
 10
54.3479619555
 20
366.9348345575
 10
54.9413727587
 20
367.4462294323
 10
55.5556117856
 20
367.9624483584
 10
56.190329383
 20
368.4840632889
 10
56.8458752041
 20
369.0105022707
 10
57.5333732072
 20
369.5469734922
 10
58.2531402076
 20
370.0944921304
 10
59.00485939
 20
370.6520430083
 10
59.7987042672
 20
371.2217887836
 10
60.6362580988
 20
371.8057276458
 10
61.5159376251
 20
372.4018614055
 10
62.4431665794
 20
373.0063581518
 10
63.4182970898
 20
373.6197089709
 10
64.4409770281
 20
374.2414227768
 10
65.5155737434
 20
374.8661943995
 10
66.6502307237
 20
375.4979143627
 10
67.8368044809
 20
376.1326921428
 10
69.0552319002
 20
376.7535509999
 10
70.3106026837
 20
377.3604753528
 10
71.5978271293
 20
377.9534807827
 10
72.8815730157
 20
378.5156372933
 10
74.1578290802
 20
379.0426749447
 10
75.4306065855
 20
379.5388636768
 10
76.6766070987
 20
380.0000833122
 10
77.8922580446
 20
380.4240244965
 10
79.0811319982
 20
380.8129965841
 10
80.2306482519
 20
381.1698074608
 10
81.33843225
 20
381.4935552416
 10
82.406858548
 20
381.7851418114
 10
83.4304701047
 20
382.0500807113
 10
84.4030249406
 20
382.2874178075
 10
85.3307650352
 20
382.4981072339
 10
86.2269592849
 20
382.690524933
 10
87.0907135254
 20
382.8654931358
 10
87.922921921
 20
383.0221896113
 10
88.7395358616
 20
383.1665236086
 10
89.5406567478
 20
383.2993463478
 10
90.3261831789
 20
383.4198066087
 10
91.1117623433
 20
383.5312599799
 10
91.9011658004
 20
383.6346977974
 10
92.6906219907
 20
383.7291287252
 10
93.4844634242
 20
383.8149343432
 10
94.2853147504
 20
383.8924105785
 10
95.0905513196
 20
383.9612615041
 10
95.896631693
 20
384.0209809192
 10
96.7032377851
 20
384.0714291681
 10
97.5106876812
 20
384.1127459064
 10
98.3163941987
 20
384.1448439003
 10
99.1194949432
 20
384.1676940718
 10
99.920852309
 20
384.1813254988
 10
100.7204662961
 20
384.1857381813
  0
LWPOLYLINE
  5
23C
100
AcDbEntity
  8
0
100
AcDbPolyline
 62
7
  6
CONTINUOUS
 90
73
 70
0
 10
30.4126417657
 20
290.7680685784
 10
30.4133384217
 20
293.7637360869
 10
30.4205566848
 20
296.7633399544
 10
30.4408249363
 20
299.7815395879
 10
30.47964518
 20
302.7869782374
 10
30.5417825787
 20
305.7156644878
 10
30.6306576541
 20
308.5199065334
 10
30.7465217003
 20
311.1853911388
 10
30.8889979643
 20
313.7017301246
 10
31.0578341188
 20
316.0775832501
 10
31.2529300448
 20
318.3314710278
 10
31.4735774531
 20
320.4774747231
 10
31.7179775431
 20
322.5208464756
 10
31.9867169481
 20
324.4768237706
 10
32.2896699345
 20
326.4005674967
 10
32.6385538684
 20
328.3536214364
 10
33.0417394375
 20
330.3551170567
 10
33.5058315969
 20
332.3954234634
 10
34.036268107
 20
334.4618543304
 10
34.6348623713
 20
336.5324397519
 10
35.3007964596
 20
338.5806299921
 10
36.0228970002
 20
340.5755029396
 10
36.7854987497
 20
342.4849124604
 10
37.5756038945
 20
344.2914848802
 10
38.3831586243
 20
345.995248138
 10
39.2007896345
 20
347.600465212
 10
40.0303002089
 20
349.1231343779
 10
40.8755953234
 20
350.581819261
 10
41.741077422
 20
351.9910814467
 10
42.6327695491
 20
353.3642225005
 10
43.5592545648
 20
354.7161990687
 10
44.5333036286
 20
356.0639020422
 10
45.5671088076
 20
357.4218250263
 10
46.6762353253
 20
358.801770154
 10
47.8778872828
 20
360.2148698426
 10
49.1723868378
 20
361.65458619
 10
50.5364565702
 20
363.0889933628
 10
51.9492075137
 20
364.4897724832
 10
53.4060936966
 20
365.8514693229
 10
54.9067474052
 20
367.1746006439
 10
56.4486658304
 20
368.4569727186
 10
58.0290641734
 20
369.6953420011
 10
59.6449381257
 20
370.8869808568
 10
61.2912241689
 20
372.0293280761
 10
62.962895703
 20
373.1196807614
 10
64.6707776556
 20
374.1635689681
 10
66.4334183636
 20
375.1707317273
 10
68.2518406007
 20
376.1411019826
 10
70.1023590895
 20
377.0606953218
 10
71.9604783711
 20
377.9163555758
 10
73.8072839975
 20
378.7030919188
 10
75.626044139
 20
379.418319528
 10
77.4024793993
 20
380.0618390587
 10
79.1237209762
 20
380.6351912212
 10
80.7790629906
 20
381.1409965025
 10
82.3629284098
 20
381.5841754704
 10
83.8715752683
 20
381.9701435595
 10
85.3073480175
 20
382.3049938609
 10
86.6752952399
 20
382.5950888873
 10
87.9793781029
 20
382.8458322902
 10
89.2222758965
 20
383.0614473853
 10
90.4069408419
 20
383.2459897674
 10
91.5369431909
 20
383.4029718911
 10
92.6158688487
 20
383.535717022
 10
93.647556889
 20
383.6470552007
 10
94.6364380204
 20
383.7394567616
 10
95.5869314965
 20
383.8151681153
 10
96.5028617232
 20
383.875939886
 10
97.387913295
 20
383.9234023082
 10
98.2476875321
 20
383.9588164793
 10
99.0886268167
 20
383.9832606995
 10
99.9135620171
 20
383.9975622486
 10
100.7204684746
 20
384.0022374744
  0
LWPOLYLINE
  5
23D
100
AcDbEntity
  8
_SURFACE
100
AcDbPolyline
 62
7
  6
CONTINUOUS
 90
70
 70
0
 10
104.0811342174
 20
224.7515714706
 10
104.0834847775
 20
224.7518329743
 10
104.0864466374
 20
224.752186506
 10
104.0898272893
 20
224.7526232772
 10
104.0939135381
 20
224.7531990926
 10
104.0983951122
 20
224.7538914236
 10
104.1022128167
 20
224.754531835
 10
104.1048653651
 20
224.7550045252
 10
104.1068855926
 20
224.7553798894
 10
104.1087829968
 20
224.7557445975
 10
104.1106969402
 20
224.7561244789
 10
104.1124895295
 20
224.7564912508
 10
104.1142467812
 20
224.7568611543
 10
104.1159844646
 20
224.7572370908
 10
104.1176870885
 20
224.7576153098
 10
104.119392403
 20
224.7580040092
 10
104.1211000825
 20
224.7584032738
 10
104.1228100814
 20
224.7588132743
 10
104.1245597978
 20
224.759243531
 10
104.126351105
 20
224.7596954693
 10
104.1281809015
 20
224.7601692782
 10
104.1300782987
 20
224.760673774
 10
104.1320502288
 20
224.761212541
 10
104.134087429
 20
224.7617848738
 10
104.1361941603
 20
224.762393854
 10
104.1383659943
 20
224.7630402035
 10
104.1406046311
 20
224.763726525
 10
104.142923101
 20
224.7644592575
 10
104.1453115239
 20
224.7652379381
 10
104.147776148
 20
224.7660674007
 10
104.1503530182
 20
224.7669634901
 10
104.1530180178
 20
224.7679220448
 10
104.1557894414
 20
224.768954138
 10
104.158763377
 20
224.7701028211
 10
104.1618758882
 20
224.7713521526
 10
104.1651786357
 20
224.7727324118
 10
104.1689290157
 20
224.7743705663
 10
104.1732679457
 20
224.7763641133
 10
104.178007874
 20
224.7786689152
 10
104.1829122122
 20
224.7812017597
 10
104.1881433306
 20
224.7840806533
 10
104.1934973442
 20
224.7872307161
 10
104.1982495127
 20
224.7902123426
 10
104.202153383
 20
224.7928017603
 10
104.2055251164
 20
224.7951462427
 10
104.2085242979
 20
224.7973203479
 10
104.2111677929
 20
224.7993090377
 10
104.2134681185
 20
224.8010965155
 10
104.2155636496
 20
224.8027719178
 10
104.2174763879
 20
224.8043410239
 10
104.2191968679
 20
224.8057854054
 10
104.2208078484
 20
224.8071665862
 10
104.2223269742
 20
224.8084947956
 10
104.2237418931
 20
224.8097546747
 10
104.2250868689
 20
224.8109728758
 10
104.2263689892
 20
224.8121530415
 10
104.227584143
 20
224.8132887651
 10
104.2287485227
 20
224.8143928926
 10
104.2298654513
 20
224.8154667477
 10
104.2309335599
 20
224.8165072749
 10
104.2319614537
 20
224.8175212999
 10
104.2329509851
 20
224.8185093239
 10
104.2339017202
 20
224.8194696447
 10
104.2348185645
 20
224.8204060561
 10
104.2357027886
 20
224.8213188251
 10
104.2365542235
 20
224.8222067884
 10
104.2373754745
 20
224.8230717353
 10
104.2381674798
 20
224.8239138018
 10
104.2389302044
 20
224.8247321323
 10
104.2403718538
 20
224.8262988382
  0
LWPOLYLINE
  5
23E
100
AcDbEntity
  8
_SURFACE
100
AcDbPolyline
 62
7
  6
CONTINUOUS
 90
6
 70
0
 10
104.0706489323
 20
224.7506025253
 10
104.0735788381
 20
224.750841073
 10
104.0760291232
 20
224.7510597229
 10
104.0780057107
 20
224.751248859
 10
104.0791494797
 20
224.7513634975
 10
104.0811342174
 20
224.7515714706
  0
LWPOLYLINE
  5
23F
100
AcDbEntity
  8
_SURFACE
100
AcDbPolyline
 62
7
  6
CONTINUOUS
 90
9
 70
0
 10
100.9142173328
 20
224.6138413358
 10
101.3439249859
 20
224.618193666
 10
101.7674467649
 20
224.6269354373
 10
102.1887306844
 20
224.6399850764
 10
102.6037386291
 20
224.6570585166
 10
103.0004638801
 20
224.6772702384
 10
103.3749075973
 20
224.6998163313
 10
103.7310595401
 20
224.7243724034
 10
104.0689256633
 20
224.7504595968
  0
LINE
  5
240
100
AcDbEntity
  8
0
100
AcDbLine
 62
7
  6
CONTINUOUS
 10
101.7023736688
 20
225.0083035653
 11
102.1788595618
 21
225.0109772212
  0
LWPOLYLINE
  5
241
100
AcDbEntity
  8
0
100
AcDbPolyline
 62
7
  6
CONTINUOUS
 90
30
 70
0
 10
102.1788595618
 20
225.0109772212
 10
102.6161468539
 20
225.0131216755
 10
102.8157460973
 20
225.0139449603
 10
103.0009011517
 20
225.0145280426
 10
103.1717111853
 20
225.0149107362
 10
103.3263714389
 20
225.0151092017
 10
103.4646040861
 20
225.0151077135
 10
103.5877529093
 20
225.0149219971
 10
103.6968787945
 20
225.0146153902
 10
103.7923197683
 20
225.014190505
 10
103.8752828473
 20
225.0136447292
 10
103.9477902652
 20
225.0130335631
 10
104.0103514515
 20
225.0123660188
 10
104.0635367673
 20
225.0116330841
 10
104.1089109548
 20
225.0108632226
 10
104.1473708839
 20
225.0100586865
 10
104.179622843
 20
225.0092172236
 10
104.2067414096
 20
225.0083605411
 10
104.2293315048
 20
225.0074838831
 10
104.2478196374
 20
225.0065920054
 10
104.2627419472
 20
225.0057208822
 10
104.2745336149
 20
225.0048709213
 10
104.2836010677
 20
225.0040417149
 10
104.2903529712
 20
225.0032680135
 10
104.2951511166
 20
225.0025506935
 10
104.2983502224
 20
225.0018888786
 10
104.3002942875
 20
225.0013146907
 10
104.3013005889
 20
225.0008388371
 10
104.3016787707
 20
225.0004506105
 10
104.3017373038
 20
225.0001500109
  0
LINE
  5
242
100
AcDbEntity
  8
_SURFACE
100
AcDbLine
 62
7
  6
CONTINUOUS
 10
100.72104229
 20
224.613376231
 11
100.9142173328
 21
224.6138413358
  0
LWPOLYLINE
  5
243
100
AcDbEntity
  8
0
100
AcDbPolyline
 62
7
  6
CONTINUOUS
 90
5
 70
0
 10
100.7211207738
 20
225.0052497932
 10
100.9661125742
 20
225.0056610356
 10
101.2117631203
 20
225.0062896096
 10
101.4570005941
 20
225.0071355152
 10
101.7023736688
 20
225.0083035653
  0
LWPOLYLINE
  5
244
100
AcDbEntity
  8
0
100
AcDbPolyline
 62
7
  6
CONTINUOUS
 90
6
 70
0
 10
100.7211207738
 20
225.0052507234
 10
100.4534118078
 20
225.0057329663
 10
100.1854884838
 20
225.0064473565
 10
99.918738882
 20
225.0073938939
 10
99.652494706
 20
225.0087014649
 10
99.1401334786
 20
225.0116263894
  0
LINE
  5
245
100
AcDbEntity
  8
_SURFACE
100
AcDbLine
 62
7
  6
CONTINUOUS
 10
100.5280265429
 20
224.6138413246
 11
100.7211992577
 21
224.613376231
  0
LWPOLYLINE
  5
246
100
AcDbEntity
  8
0
100
AcDbPolyline
 62
7
  6
CONTINUOUS
 90
26
 70
0
 10
98.6797672883
 20
225.0137353593
 10
98.4738208462
 20
225.0144682785
 10
98.286019194
 20
225.0149108844
 10
98.1158691069
 20
225.0151091804
 10
97.9647539434
 20
225.0151113789
 10
97.8328876028
 20
225.0149042642
 10
97.7181482341
 20
225.0145010522
 10
97.6181769489
 20
225.0139896022
 10
97.5323428762
 20
225.0133814928
 10
97.459467265
 20
225.0126651456
 10
97.3971945992
 20
225.0118936851
 10
97.3449089784
 20
225.0110768339
 10
97.3016404533
 20
225.0102048694
 10
97.2654826626
 20
225.0093017494
 10
97.2354999199
 20
225.0083605468
 10
97.211103457
 20
225.0073881887
 10
97.1914705788
 20
225.0064294136
 10
97.1759916998
 20
225.0054840569
 10
97.164123752
 20
225.0045522833
 10
97.1553065575
 20
225.0036793254
 10
97.1490548797
 20
225.0028660818
 10
97.1448956678
 20
225.0021116539
 10
97.1423719945
 20
225.0014585791
 10
97.1410678866
 20
225.0009210366
 10
97.1405792839
 20
225.0004848472
 10
97.1405042439
 20
225.0001500109
  0
LINE
  5
247
100
AcDbEntity
  8
0
100
AcDbLine
 62
7
  6
CONTINUOUS
 10
99.1401334786
 20
225.0116263894
 11
98.6797672883
 21
225.0137353593
  0
LWPOLYLINE
  5
248
100
AcDbEntity
  8
_SURFACE
100
AcDbPolyline
 62
7
  6
CONTINUOUS
 90
9
 70
0
 10
97.3733158843
 20
224.7504595968
 10
97.711182538
 20
224.7243723646
 10
98.0673351034
 20
224.6998162567
 10
98.441779535
 20
224.6772701343
 10
98.8385058916
 20
224.6570583794
 10
99.2535150341
 20
224.6399849258
 10
99.6747993458
 20
224.6269353194
 10
100.0983204109
 20
224.6181936066
 10
100.5280265429
 20
224.6138413246
  0
LWPOLYLINE
  5
249
100
AcDbEntity
  8
0
100
AcDbPolyline
 62
7
  6
CONTINUOUS
 90
64
 70
0
 10
97.2040739489
 20
224.8239139289
 10
97.2048659469
 20
224.8230718689
 10
97.2056871903
 20
224.8222069287
 10
97.2065386173
 20
224.8213189723
 10
97.2074228329
 20
224.8204062104
 10
97.2083396681
 20
224.8194698065
 10
97.2092903937
 20
224.8185094934
 10
97.2102799148
 20
224.8175214777
 10
97.2113077976
 20
224.8165074613
 10
97.2123758944
 20
224.8154669432
 10
97.2134928099
 20
224.8143930979
 10
97.2146571755
 20
224.8132889809
 10
97.2158723139
 20
224.8121532684
 10
97.2171544166
 20
224.8109731152
 10
97.218499373
 20
224.8097549276
 10
97.2199142702
 20
224.8084950633
 10
97.2214333697
 20
224.8071668716
 10
97.2230443196
 20
224.8057857111
 10
97.2247647641
 20
224.8043413525
 10
97.2266774582
 20
224.8027722742
 10
97.2287729368
 20
224.8010969039
 10
97.2310732003
 20
224.7993094621
 10
97.2337166178
 20
224.797320815
 10
97.2367156989
 20
224.7951467632
 10
97.2400873144
 20
224.7928023386
 10
97.2439910634
 20
224.790212971
 10
97.248743086
 20
224.7872313962
 10
97.2540969483
 20
224.7840813748
 10
97.2593279915
 20
224.7812024753
 10
97.2642323967
 20
224.7786695547
 10
97.26897248
 20
224.7763646429
 10
97.2733115535
 20
224.7743710038
 10
97.2770620267
 20
224.7727327895
 10
97.2803648516
 20
224.7713524833
 10
97.2834774302
 20
224.7701031125
 10
97.2864514225
 20
224.7689543972
 10
97.289222892
 20
224.7679222782
 10
97.2918879338
 20
224.7669637007
 10
97.2944648446
 20
224.7660675905
 10
97.2969295054
 20
224.7652381098
 10
97.2993179635
 20
224.7644594126
 10
97.3016364675
 20
224.7637266647
 10
97.3038751367
 20
224.7630403293
 10
97.3060470018
 20
224.762393967
 10
97.3081537637
 20
224.761784975
 10
97.3101909931
 20
224.7612126313
 10
97.3121629504
 20
224.7606738545
 10
97.314060373
 20
224.7601693498
 10
97.3158901927
 20
224.7596955331
 10
97.3176815204
 20
224.7592435881
 10
97.3194312536
 20
224.7588133259
 10
97.3211412663
 20
224.7584033209
 10
97.3228489581
 20
224.7580040523
 10
97.3245542838
 20
224.7576153492
 10
97.3262569174
 20
224.7572371271
 10
97.3279946088
 20
224.7568611879
 10
97.3297518678
 20
224.756491282
 10
97.3315444628
 20
224.7561245081
 10
97.3334584084
 20
224.7557446254
 10
97.3353558109
 20
224.7553799166
 10
97.3373760332
 20
224.7550045524
 10
97.3400285714
 20
224.7545318628
 10
97.3438462503
 20
224.7538914535
 10
97.3483277933
 20
224.7531991245
  0
LINE
  5
24A
100
AcDbEntity
  8
0
100
AcDbLine
 62
7
  6
CONTINUOUS
 10
97.2025767186
 20
224.8255272106
 11
97.2040739489
 21
224.8239139289
  0
LINE
  5
24B
100
AcDbEntity
  8
0
100
AcDbLine
 62
7
  6
CONTINUOUS
 10
97.2011899086
 20
224.8270466986
 11
97.2025767186
 21
224.8255272106
  0
LINE
  5
24C
100
AcDbEntity
  8
0
100
AcDbLine
 62
7
  6
CONTINUOUS
 10
97.1999130881
 20
224.8284672383
 11
97.2011899086
 21
224.8270466986
  0
LWPOLYLINE
  5
24D
100
AcDbEntity
  8
0
100
AcDbPolyline
 62
7
  6
CONTINUOUS
 90
22
 70
0
 10
97.1822270258
 20
224.8507074747
 10
97.1831726391
 20
224.849369604
 10
97.184100318
 20
224.8480769185
 10
97.1850109575
 20
224.8468263024
 10
97.1859020072
 20
224.8456194992
 10
97.1867804933
 20
224.844445494
 10
97.1876468689
 20
224.8433024925
 10
97.1884996045
 20
224.842191384
 10
97.1893431022
 20
224.8411054502
 10
97.1901776309
 20
224.8400435337
 10
97.1910021743
 20
224.839006153
 10
97.1918194037
 20
224.8379892548
 10
97.19262938
 20
224.8369921676
 10
97.1934314853
 20
224.8360150809
 10
97.1942274892
 20
224.8350553213
 10
97.1950174005
 20
224.8341124217
 10
97.1958007769
 20
224.8331864709
 10
97.1965787856
 20
224.8322756852
 10
97.1973514116
 20
224.8313797181
 10
97.1981183182
 20
224.8304986089
 10
97.1988802377
 20
224.8296311883
 10
97.1999130881
 20
224.8284672383
  0
LINE
  5
24E
100
AcDbEntity
  8
0
100
AcDbLine
 62
40
  6
CONTINUOUS
 10
78.9711915499
 20
316.7042328939
 11
78.9711915499
 21
318.2042328939
  0
LWPOLYLINE
  5
24F
100
AcDbEntity
  8
0
100
AcDbPolyline
 62
40
  6
CONTINUOUS
 90
81
 70
0
 10
78.9711915499
 20
318.2042328939
 10
78.9725463093
 20
318.2728653186
 10
78.9765998987
 20
318.3413953406
 10
78.9833362842
 20
318.4097184108
 10
78.9927394322
 20
318.4777299801
 10
79.0047933091
 20
318.5453254992
 10
79.0194818813
 20
318.6124004191
 10
79.0367891151
 20
318.6788501905
 10
79.0566989767
 20
318.7445702644
 10
79.0791900836
 20
318.8094576297
 10
79.1042196569
 20
318.8734154288
 10
79.1317395686
 20
318.9363483421
 10
79.1617016908
 20
318.99816105
 10
79.1940578957
 20
319.0587582331
 10
79.2287600553
 20
319.1180445719
 10
79.2657600416
 20
319.1759247468
 10
79.3050097269
 20
319.2323034383
 10
79.3464565376
 20
319.2870886841
 10
79.3900301178
 20
319.3402019514
 10
79.4356556662
 20
319.3915680645
 10
79.4832583813
 20
319.4411118477
 10
79.5327634618
 20
319.4887581254
 10
79.5840961063
 20
319.5344317219
 10
79.6371815132
 20
319.5780574616
 10
79.6919448813
 20
319.6195601688
 10
79.7483081155
 20
319.6588690624
 10
79.8061799465
 20
319.6959309392
 10
79.8654658114
 20
319.7306969905
 10
79.9260711472
 20
319.7631184079
 10
79.987901391
 20
319.7931463825
 10
80.0508619799
 20
319.8207321057
 10
80.114858351
 20
319.8458267689
 10
80.1797959413
 20
319.8683815635
 10
80.2455783436
 20
319.8883529645
 10
80.3121017734
 20
319.9057185817
 10
80.379260602
 20
319.9204613088
 10
80.4469492005
 20
319.9325640394
 10
80.5150619401
 20
319.9420096669
 10
80.5834931921
 20
319.9487810851
 10
80.6521373277
 20
319.9528611874
 10
80.720888718
 20
319.9542328675
 10
80.7896417058
 20
319.9528846812
 10
80.8582905193
 20
319.9488278334
 10
80.9267293584
 20
319.9420791914
 10
80.9948524229
 20
319.9326556222
 10
81.0625539126
 20
319.9205739932
 10
81.1297280273
 20
319.9058511714
 10
81.1962689669
 20
319.8885040241
 10
81.262070931
 20
319.8685494186
 10
81.3270299553
 20
319.8460095304
 10
81.3910494185
 20
319.8209277698
 10
81.4540345351
 20
319.7933528554
 10
81.5158905196
 20
319.7633335058
 10
81.5765225865
 20
319.7309184398
 10
81.6358359502
 20
319.6961563758
 10
81.6937358253
 20
319.6590960327
 10
81.7501274262
 20
319.6197861291
 10
81.8049192504
 20
319.5782798332
 10
81.8580329275
 20
319.5346481122
 10
81.90939337
 20
319.4889663828
 10
81.9589254904
 20
319.4413100618
 10
82.0065542012
 20
319.3917545657
 10
82.052204415
 20
319.3403753115
 10
82.0958010444
 20
319.2872477157
 10
82.1372690018
 20
319.2324471953
 10
82.1765377043
 20
319.176052539
 10
82.2135545872
 20
319.1181560252
 10
82.2482715903
 20
319.0588533042
 10
82.2806406534
 20
318.9982400263
 10
82.3106137163
 20
318.9364118421
 10
82.3381427189
 20
318.8734644019
 10
82.3631796009
 20
318.8094933562
 10
82.3856763022
 20
318.7445943553
 10
82.4055901441
 20
318.6788645318
 10
82.4228999743
 20
318.6124069472
 10
82.4375900221
 20
318.5453261449
 10
82.4496445168
 20
318.4777266686
 10
82.4590476877
 20
318.4097130617
 10
82.465783764
 20
318.3413898679
 10
82.4698369749
 20
318.2728616306
 10
82.4711915499
 20
318.2042328935
  0
LWPOLYLINE
  5
250
100
AcDbEntity
  8
0
100
AcDbPolyline
 62
7
  6
CONTINUOUS
 90
20
 70
0
 10
97.1534560868
 20
224.9095594583
 10
97.1551460789
 20
224.9043750249
 10
97.1569551167
 20
224.8992375548
 10
97.1588858733
 20
224.8941495593
 10
97.1610191061
 20
224.8889284255
 10
97.1632873814
 20
224.883768026
 10
97.1654323192
 20
224.8792061104
 10
97.1672945528
 20
224.8754641685
 10
97.1689632169
 20
224.872265128
 10
97.1705299283
 20
224.8693817042
 10
97.1719974847
 20
224.8667776353
 10
97.1733403968
 20
224.8644707376
 10
97.1746242433
 20
224.8623286073
 10
97.1758606306
 20
224.8603204125
 10
97.1770287384
 20
224.858469244
 10
97.1781518622
 20
224.8567289967
 10
97.1792278592
 20
224.8550961203
 10
97.1802532758
 20
224.8535696132
 10
97.181251928
 20
224.8521093442
 10
97.1822270258
 20
224.8507074747
  0
LINE
  5
251
100
AcDbEntity
  8
0
100
AcDbLine
 62
40
  6
CONTINUOUS
 10
82.4711915499
 20
318.2042328935
 11
82.4711915499
 21
316.7042328935
  0
LWPOLYLINE
  5
252
100
AcDbEntity
  8
0
100
AcDbPolyline
 62
40
  6
CONTINUOUS
 90
81
 70
0
 10
82.4711915499
 20
316.7042328935
 10
82.4698369542
 20
316.6356033317
 10
82.4657836849
 20
316.5670744192
 10
82.4590475182
 20
316.4987506926
 10
82.4496442302
 20
316.4307366886
 10
82.4375895974
 20
316.3631369436
 10
82.4228993959
 20
316.2960559943
 10
82.4055894022
 20
316.2295983773
 10
82.3856753923
 20
316.1638686291
 10
82.3631785306
 20
316.0989698066
 10
82.3381415336
 20
316.0349990482
 10
82.3106125055
 20
315.9720520126
 10
82.2806395508
 20
315.9102243584
 10
82.2482707739
 20
315.8496117444
 10
82.2135542792
 20
315.7903098291
 10
82.1765381711
 20
315.7324142713
 10
82.137270554
 20
315.6760207297
 10
82.0958040138
 20
315.6212214771
 10
82.052209062
 20
315.5680952432
 10
82.0065606919
 20
315.5167173718
 10
81.9589338965
 20
315.4671632068
 10
81.9094036691
 20
315.4195080921
 10
81.8580450026
 20
315.3738273715
 10
81.8049328904
 20
315.3301963889
 10
81.7501423253
 20
315.2886904882
 10
81.6937516045
 20
315.2493805857
 10
81.6358522397
 20
315.2123198887
 10
81.5765390466
 20
315.1775571767
 10
81.5159068409
 20
315.1451412295
 10
81.4540504383
 20
315.1151208269
 10
81.3910646544
 20
315.0875447484
 10
81.3270443048
 20
315.0624617738
 10
81.2620842052
 20
315.0399206827
 10
81.1962809951
 20
315.0199649417
 10
81.1297386086
 20
315.0026167639
 10
81.0625628037
 20
314.9878930493
 10
80.9948593384
 20
314.9758106977
 10
80.9267339707
 20
314.9663866091
 10
80.8582924586
 20
314.9596376835
 10
80.7896405599
 20
314.9555808207
 10
80.7208840328
 20
314.9542329207
 10
80.6521286348
 20
314.9556052132
 10
80.5834801225
 20
314.9596862471
 10
80.515044252
 20
314.9664589009
 10
80.4469267795
 20
314.9759060533
 10
80.3792334613
 20
314.9880105828
 10
80.3120700535
 20
315.0027553681
 10
80.2455423123
 20
315.0201232878
 10
80.179755994
 20
315.0400972206
 10
80.1148149822
 20
315.0626547634
 10
80.0508156711
 20
315.0877523874
 10
79.9878525823
 20
315.1153412822
 10
79.9260202377
 20
315.1453726373
 10
79.8654131588
 20
315.1777976423
 10
79.8061258673
 20
315.2125674867
 10
79.7482528849
 20
315.2496333601
 10
79.6918887334
 20
315.2889464521
 10
79.6371246571
 20
315.3304535375
 10
79.584038792
 20
315.374083732
 10
79.5327059966
 20
315.4197617366
 10
79.4832011296
 20
315.4674122522
 10
79.4355990496
 20
315.5169599799
 10
79.3899746153
 20
315.5683296207
 10
79.3464026852
 20
315.6214458755
 10
79.304958118
 20
315.6762334452
 10
79.2657112986
 20
315.7326136933
 10
79.2287147172
 20
315.7904946326
 10
79.1940163904
 20
315.8497809384
 10
79.1616643346
 20
315.9103772858
 10
79.1317065664
 20
315.9721883501
 10
79.1041911022
 20
316.0351188066
 10
79.0791659585
 20
316.0990733303
 10
79.056679152
 20
316.1639565967
 10
79.0367733567
 20
316.2296717465
 10
79.0194698775
 20
316.2961157832
 10
79.0047846772
 20
316.3631841758
 10
78.9927337184
 20
316.4307723933
 10
78.9833329636
 20
316.4987759049
 10
78.9765983755
 20
316.5670901794
 10
78.9725459167
 20
316.6356106861
 10
78.9711915499
 20
316.7042328939
  0
LINE
  5
253
100
AcDbEntity
  8
0
100
AcDbLine
 62
40
  6
CONTINUOUS
 10
92.7211207738
 20
316.2542328929
 11
92.7211207738
 21
318.6542328929
  0
LINE
  5
254
100
AcDbEntity
  8
0
100
AcDbLine
 62
7
  6
CONTINUOUS
 10
97.1405042372
 20
290.3786607379
 11
97.1405042372
 21
225.0001615973
  0
LINE
  5
255
100
AcDbEntity
  8
0
100
AcDbLine
 62
7
  6
CONTINUOUS
 10
95.3281590924
 20
293.5740495105
 11
95.1928085382
 21
293.6056145896
  0
LINE
  5
256
100
AcDbEntity
  8
0
100
AcDbLine
 62
7
  6
CONTINUOUS
 10
95.2170907123
 20
293.5998893873
 11
95.0901708161
 21
293.6300809442
  0
LINE
  5
257
100
AcDbEntity
  8
0
100
AcDbLine
 62
7
  6
CONTINUOUS
 10
95.1131828521
 20
293.6245512485
 11
94.9945076055
 21
293.6533001664
  0
LINE
  5
258
100
AcDbEntity
  8
0
100
AcDbLine
 62
7
  6
CONTINUOUS
 10
95.0162292892
 20
293.6479888168
 11
94.906170521
 21
293.6750978956
  0
LINE
  5
259
100
AcDbEntity
  8
0
100
AcDbLine
 62
7
  6
CONTINUOUS
 10
94.9263224144
 20
293.6700914298
 11
94.8253489215
 21
293.6953417549
  0
LINE
  5
25A
100
AcDbEntity
  8
0
100
AcDbLine
 62
7
  6
CONTINUOUS
 10
94.8435763918
 20
293.6907476375
 11
94.7518190402
 21
293.7140092443
  0
LINE
  5
25B
100
AcDbEntity
  8
0
100
AcDbLine
 62
7
  6
CONTINUOUS
 10
94.7678437284
 20
293.7099173849
 11
94.685313853
 21
293.7310988559
  0
LINE
  5
25C
100
AcDbEntity
  8
0
100
AcDbLine
 62
7
  6
CONTINUOUS
 10
94.6988259941
 20
293.727607834
 11
94.6261711413
 21
293.7464608127
  0
LINE
  5
25D
100
AcDbEntity
  8
0
100
AcDbLine
 62
7
  6
CONTINUOUS
 10
94.6365737554
 20
293.7437447657
 11
94.527564348
 21
293.7724177805
  0
LWPOLYLINE
  5
25E
100
AcDbEntity
  8
0
100
AcDbPolyline
 62
7
  6
CONTINUOUS
 90
5
 70
0
 10
94.4000159948
 20
293.8058714352
 10
94.399306531
 20
293.806062574
 10
94.3837449792
 20
293.8104114888
 10
94.3839114501
 20
293.810521627
 10
94.3959435817
 20
293.8072383437
  0
LINE
  5
25F
100
AcDbEntity
  8
0
100
AcDbLine
 62
7
  6
CONTINUOUS
 10
94.4503648853
 20
293.7930406723
 11
94.4208921838
 21
293.8009838093
  0
LINE
  5
260
100
AcDbEntity
  8
0
100
AcDbLine
 62
7
  6
CONTINUOUS
 10
94.5316501635
 20
293.7713313224
 11
94.3987192021
 21
293.8069850712
  0
LINE
  5
261
100
AcDbEntity
  8
0
100
AcDbLine
 62
7
  6
CONTINUOUS
 10
94.4454127737
 20
293.7965517156
 11
94.7031062046
 21
293.7264961164
  0
LINE
  5
262
100
AcDbEntity
  8
0
100
AcDbLine
 62
7
  6
CONTINUOUS
 10
94.3526235675
 20
293.819530713
 11
94.4202239563
 21
293.8011626998
  0
LINE
  5
263
100
AcDbEntity
  8
0
100
AcDbLine
 62
7
  6
CONTINUOUS
 10
94.3959435817
 20
293.8072383437
 11
94.6291816171
 21
293.7289518218
  0
LWPOLYLINE
  5
264
100
AcDbEntity
  8
0
100
AcDbPolyline
 62
7
  6
CONTINUOUS
 90
23
 70
0
 10
94.6291816171
 20
293.7289518218
 10
94.8525307848
 20
293.6344753067
 10
95.0653071995
 20
293.5267479385
 10
95.2666365122
 20
293.4086499706
 10
95.4565300959
 20
293.2823831766
 10
95.635762598
 20
293.1488866586
 10
95.8041921689
 20
293.0089190952
 10
95.9616017065
 20
292.8633054161
 10
96.1086095592
 20
292.7120803531
 10
96.2450227518
 20
292.5560215266
 10
96.3709995647
 20
292.3956693781
 10
96.4874913891
 20
292.2310688149
 10
96.5942989403
 20
292.0638932968
 10
96.6914598828
 20
291.895414422
 10
96.7798692096
 20
291.7251660986
 10
96.8590585671
 20
291.554902617
 10
96.9289377715
 20
291.38558363
 10
96.9902428439
 20
291.2151789638
 10
97.0422330652
 20
291.0442172573
 10
97.0840741254
 20
290.8734193575
 10
97.1153181161
 20
290.7010213941
 10
97.1345675057
 20
290.5277521348
 10
97.1401747643
 20
290.3781906885
  0
LINE
  5
265
100
AcDbEntity
  8
_SURFACE
100
AcDbLine
 62
7
  6
CONTINUOUS
 10
104.3017373104
 20
225.0001615973
 11
104.3017373104
 21
290.3786783612
  0
LINE
  5
266
100
AcDbEntity
  8
0
100
AcDbLine
 62
40
  6
CONTINUOUS
 10
108.7211207738
 20
318.6542328929
 11
108.7211207738
 21
316.2542328929
  0
LWPOLYLINE
  5
267
100
AcDbEntity
  8
_SURFACE
100
AcDbPolyline
 62
7
  6
CONTINUOUS
 90
23
 70
0
 10
104.3020668708
 20
290.3786491767
 10
104.3076312801
 20
290.5271669303
 10
104.3268409194
 20
290.700461433
 10
104.3580536614
 20
290.8728876254
 10
104.3998702739
 20
291.0437148412
 10
104.4518415347
 20
291.2147061204
 10
104.5131324085
 20
291.3851403247
 10
104.5830013473
 20
291.5544885289
 10
104.6621837647
 20
291.7247825975
 10
104.7505890889
 20
291.8950625803
 10
104.8477485642
 20
292.0635735341
 10
104.9545569385
 20
292.2307813075
 10
105.0710514077
 20
292.3954135828
 10
105.1970326672
 20
292.5557968497
 10
105.3334528968
 20
292.7118860362
 10
105.480470659
 20
292.8631403381
 10
105.6378926597
 20
293.0087816225
 10
105.8063373998
 20
293.1487752306
 10
105.985587847
 20
293.2822961055
 10
106.1755019471
 20
293.4085853973
 10
106.3768540844
 20
293.526704014
 10
106.5896554213
 20
293.6344495422
 10
106.8130314332
 20
293.728940982
  0
LWPOLYLINE
  5
268
100
AcDbEntity
  8
_SURFACE
100
AcDbPolyline
 62
7
  6
CONTINUOUS
 90
5
 70
0
 10
107.0462979594
 20
293.8072383418
 10
107.0583301874
 20
293.8105216516
 10
107.0584965932
 20
293.8104114945
 10
107.0429347817
 20
293.8060625097
 10
107.0422285209
 20
293.8058724095
  0
LINE
  5
269
100
AcDbEntity
  8
0
100
AcDbLine
 62
7
  6
CONTINUOUS
 10
106.7377856002
 20
293.7261483924
 11
107.0038604523
 21
293.7984665795
  0
LINE
  5
26A
100
AcDbEntity
  8
0
100
AcDbLine
 62
7
  6
CONTINUOUS
 10
107.0897062519
 20
293.8195547791
 11
107.0044182738
 21
293.7964142289
  0
LINE
  5
26B
100
AcDbEntity
  8
0
100
AcDbLine
 62
7
  6
CONTINUOUS
 10
107.0130750663
 20
293.7987499141
 11
106.9460422907
 21
293.780762483
  0
LINE
  5
26C
100
AcDbEntity
  8
0
100
AcDbLine
 62
7
  6
CONTINUOUS
 10
106.8088091769
 20
293.7445664159
 11
106.9487631469
 21
293.7814907847
  0
LINE
  5
26D
100
AcDbEntity
  8
0
100
AcDbLine
 62
7
  6
CONTINUOUS
 10
106.7509455326
 20
293.7295536398
 11
106.8534605649
 21
293.7562499425
  0
LINE
  5
26E
100
AcDbEntity
  8
0
100
AcDbLine
 62
7
  6
CONTINUOUS
 10
106.7984762374
 20
293.7418718224
 11
106.7375220493
 21
293.7260890099
  0
LINE
  5
26F
100
AcDbEntity
  8
0
100
AcDbLine
 62
7
  6
CONTINUOUS
 10
106.7509455326
 20
293.7295536398
 11
106.6701318178
 21
293.7088308357
  0
LINE
  5
270
100
AcDbEntity
  8
0
100
AcDbLine
 62
7
  6
CONTINUOUS
 10
106.686294246
 20
293.7129548576
 11
106.5961936124
 21
293.6901262895
  0
LINE
  5
271
100
AcDbEntity
  8
0
100
AcDbLine
 62
7
  6
CONTINUOUS
 10
106.6144855451
 20
293.6947346843
 11
106.5157930378
 21
293.6700601816
  0
LINE
  5
272
100
AcDbEntity
  8
0
100
AcDbLine
 62
7
  6
CONTINUOUS
 10
106.5358617936
 20
293.6750458611
 11
106.4287576229
 21
293.6486584816
  0
LINE
  5
273
100
AcDbEntity
  8
0
100
AcDbLine
 62
7
  6
CONTINUOUS
 10
106.4504383913
 20
293.6539624203
 11
106.3349273431
 21
293.6259582265
  0
LINE
  5
274
100
AcDbEntity
  8
0
100
AcDbLine
 62
7
  6
CONTINUOUS
 10
106.3581420046
 20
293.6315426335
 11
106.2344301487
 21
293.6020725785
  0
LINE
  5
275
100
AcDbEntity
  8
0
100
AcDbLine
 62
7
  6
CONTINUOUS
 10
106.2590135059
 20
293.6078788522
 11
106.1275248976
 21
293.5771482504
  0
LINE
  5
276
100
AcDbEntity
  8
0
100
AcDbLine
 62
7
  6
CONTINUOUS
 10
106.1532390972
 20
293.5831022548
 11
106.014105059
 21
293.5512497783
  0
LINE
  5
277
100
AcDbEntity
  8
0
100
AcDbLine
 62
7
  6
CONTINUOUS
 10
106.0408534033
 20
293.5573117181
 11
105.8942436924
 21
293.5244885591
  0
LINE
  5
278
100
AcDbEntity
  8
0
100
AcDbLine
 62
7
  6
CONTINUOUS
 10
105.9217872225
 20
293.5305877748
 11
105.7684710924
 21
293.4970779422
  0
LINE
  5
279
100
AcDbEntity
  8
0
100
AcDbLine
 62
7
  6
CONTINUOUS
 10
105.7960711808
 20
293.5030393873
 11
105.6510709552
 21
293.4721460313
  0
LINE
  5
27A
100
AcDbEntity
  8
0
100
AcDbLine
 62
7
  6
CONTINUOUS
 10
105.5238637094
 20
293.4457344489
 11
105.6633105294
 21
293.4746906055
  0
LWPOLYLINE
  5
27B
100
AcDbEntity
  8
0
100
AcDbPolyline
 62
7
  6
CONTINUOUS
 90
8
 70
0
 10
104.399955319
 20
293.2428345769
 10
104.5753084891
 20
293.270936686
 10
104.7461170975
 20
293.2995704849
 10
104.9119178793
 20
293.3285560864
 10
105.0727526094
 20
293.3577969224
 10
105.2285974303
 20
293.3871879805
 10
105.378895318
 20
293.4165208028
 10
105.5238637094
 20
293.4457344489
  0
LWPOLYLINE
  5
27C
100
AcDbEntity
  8
0
100
AcDbPolyline
 62
7
  6
CONTINUOUS
 90
8
 70
0
 10
103.0623708009
 20
293.0714359375
 10
103.2634065809
 20
293.0923550025
 10
103.4611803934
 20
293.1146047394
 10
103.6558244791
 20
293.1381201031
 10
103.8470538127
 20
293.1627865227
 10
104.0351517256
 20
293.1885620157
 10
104.2198307414
 20
293.2153302205
 10
104.399955319
 20
293.2428345769
  0
LWPOLYLINE
  5
27D
100
AcDbEntity
  8
0
100
AcDbPolyline
 62
7
  6
CONTINUOUS
 90
7
 70
0
 10
101.9652517858
 20
292.9876327063
 10
102.0182248089
 20
292.9903338909
 10
102.2307587775
 20
293.0030928131
 10
102.4424003179
 20
293.0177043088
 10
102.651644691
 20
293.034018169
 10
102.8582161959
 20
293.0519439211
 10
103.0623708009
 20
293.0714359375
  0
LWPOLYLINE
  5
27E
100
AcDbEntity
  8
0
100
AcDbPolyline
 62
7
  6
CONTINUOUS
 90
61
 70
0
 10
100.7211207738
 20
292.9542634543
 10
101.9568426871
 20
292.9869669218
 10
103.1929036353
 20
293.0848311899
 10
104.4261771139
 20
293.2469566003
 10
105.6536289473
 20
293.4726163028
 10
106.8718916723
 20
293.7610776865
 10
108.0775775131
 20
294.1114749327
 10
109.2678370201
 20
294.5229882633
 10
110.43968361
 20
294.9948928089
 10
111.5895825822
 20
295.5264220977
 10
112.7142831898
 20
296.1169002848
 10
113.8105952195
 20
296.7656886455
 10
114.8750324606
 20
297.4719738008
 10
115.9042501963
 20
298.2350970077
 10
116.894198931
 20
299.0542185574
 10
117.8405589444
 20
299.9279862625
 10
118.7392374277
 20
300.8546476078
 10
119.5871257166
 20
301.8310391123
 10
120.3820700701
 20
302.8530327809
 10
121.1225536707
 20
303.9174095429
 10
121.8070755562
 20
305.0209751232
 10
122.433927589
 20
306.1601271655
 10
123.0016287358
 20
307.3316007649
 10
123.5087233923
 20
308.5324183493
 10
123.9536291191
 20
309.7593157267
 10
124.3348581464
 20
311.0094010115
 10
124.6505588342
 20
312.2793419617
 10
124.8987485674
 20
313.5651277097
 10
125.0776840418
 20
314.8634565449
 10
125.1856416043
 20
316.1709492486
 10
125.2210134463
 20
317.4827496796
 10
125.1826097553
 20
318.7944054073
 10
125.0714042808
 20
320.1014618313
 10
124.8893447612
 20
321.3993066969
 10
124.6381989482
 20
322.6844532076
 10
124.3197029784
 20
323.9535199539
 10
123.9358032101
 20
325.2025329644
 10
123.4882255498
 20
326.4282606966
 10
122.9784690188
 20
327.6278141349
 10
122.4083084126
 20
328.7977689669
 10
121.7791470663
 20
329.9351276535
 10
121.0923449619
 20
331.0367971052
 10
120.3500235323
 20
332.0989968331
 10
119.5531275589
 20
333.1187507879
 10
118.7035479914
 20
334.0925345303
 10
117.8038166346
 20
335.0163507948
 10
116.8565571447
 20
335.8871337
 10
115.8659262921
 20
336.7033158241
 10
114.8366710629
 20
337.4634155895
 10
113.7725871919
 20
338.1665932686
 10
112.6770808599
 20
338.8122308794
 10
111.5537290744
 20
339.3996098716
 10
110.4057237458
 20
339.9282238831
 10
109.2362500214
 20
340.3973822552
 10
108.048805483
 20
340.8062141675
 10
106.8464036113
 20
341.1540801749
 10
105.6320218513
 20
341.4403447465
 10
104.4092013318
 20
341.6641860918
 10
103.1811869845
 20
341.8248792343
 10
101.9508429408
 20
341.9217779316
 10
100.7211207738
 20
341.9542328949
  0
LWPOLYLINE
  5
27F
100
AcDbEntity
  8
0
100
AcDbPolyline
 62
7
  6
CONTINUOUS
 90
7
 70
0
 10
100.7211207738
 20
292.9542412547
 10
100.9412981155
 20
292.9552860639
 10
101.159898857
 20
292.9583862592
 10
101.3769069259
 20
292.9634910377
 10
101.5920489796
 20
292.9705405622
 10
101.8055684772
 20
292.9794901826
 10
101.9471801168
 20
292.9867112012
  0
LWPOLYLINE
  5
280
100
AcDbEntity
  8
0
100
AcDbPolyline
 62
7
  6
CONTINUOUS
 90
61
 70
0
 10
100.7211207738
 20
292.9542634351
 10
99.4853988707
 20
292.9869669153
 10
98.2493379187
 20
293.0848311883
 10
97.0160644342
 20
293.2469566002
 10
95.788612599
 20
293.472616303
 10
94.5703498752
 20
293.7610776865
 10
93.3646640348
 20
294.1114749326
 10
92.1744045279
 20
294.5229882632
 10
91.002557938
 20
294.9948928087
 10
89.8526589657
 20
295.5264220976
 10
88.7279583582
 20
296.1169002847
 10
87.6316463284
 20
296.7656886453
 10
86.5672090873
 20
297.4719738006
 10
85.5379913516
 20
298.2350970075
 10
84.5480426169
 20
299.0542185572
 10
83.6016826035
 20
299.9279862622
 10
82.7030041202
 20
300.8546476076
 10
81.8551158313
 20
301.831039112
 10
81.0601714777
 20
302.8530327806
 10
80.3196878771
 20
303.9174095427
 10
79.6351659916
 20
305.020975123
 10
79.0083139588
 20
306.1601271653
 10
78.4406128119
 20
307.3316007647
 10
77.9335181555
 20
308.5324183491
 10
77.4886124286
 20
309.7593157265
 10
77.1073834013
 20
311.0094010113
 10
76.7916827135
 20
312.2793419615
 10
76.5434929803
 20
313.5651277095
 10
76.3645575058
 20
314.8634565447
 10
76.2565999434
 20
316.1709492484
 10
76.2212281014
 20
317.4827496794
 10
76.2596317923
 20
318.7944054071
 10
76.3708372668
 20
320.1014618311
 10
76.5528967864
 20
321.3993066967
 10
76.8040425994
 20
322.6844532074
 10
77.1225385692
 20
323.9535199537
 10
77.5064383375
 20
325.2025329643
 10
77.9540159978
 20
326.4282606964
 10
78.4637725288
 20
327.6278141348
 10
79.033933135
 20
328.7977689668
 10
79.6630944813
 20
329.9351276534
 10
80.3498965857
 20
331.0367971051
 10
81.0922180153
 20
332.098996833
 10
81.8891139887
 20
333.1187507878
 10
82.7386935562
 20
334.0925345302
 10
83.638424913
 20
335.0163507947
 10
84.5856844029
 20
335.8871337
 10
85.5763152555
 20
336.7033158241
 10
86.6055704847
 20
337.4634155895
 10
87.6696543557
 20
338.1665932686
 10
88.7651606876
 20
338.8122308793
 10
89.8885124732
 20
339.3996098716
 10
91.0365178018
 20
339.9282238831
 10
92.2059915262
 20
340.3973822551
 10
93.3934360646
 20
340.8062141675
 10
94.5958379364
 20
341.1540801749
 10
95.8102196963
 20
341.4403447465
 10
97.0330402158
 20
341.6641860918
 10
98.2610545632
 20
341.8248792343
 10
99.4913986068
 20
341.9217779316
 10
100.7211207738
 20
341.9542328949
  0
LWPOLYLINE
  5
281
100
AcDbEntity
  8
0
100
AcDbPolyline
 62
7
  6
CONTINUOUS
 90
7
 70
0
 10
98.2559422053
 20
293.0843082984
 10
98.106550291
 20
293.1002950124
 10
97.9040204568
 20
293.1237202631
 10
97.7048725195
 20
293.1484488446
 10
97.5094582763
 20
293.1743480561
 10
97.3174706316
 20
293.2013709069
 10
97.1292196012
 20
293.2293879114
  0
LWPOLYLINE
  5
282
100
AcDbEntity
  8
0
100
AcDbPolyline
 62
7
  6
CONTINUOUS
 90
9
 70
0
 10
97.1292196012
 20
293.2293879114
 10
96.9459759335
 20
293.2581071686
 10
96.7680163326
 20
293.2873670929
 10
96.5950508431
 20
293.3171005807
 10
96.4274930125
 20
293.3471237092
 10
96.2652319803
 20
293.3773435652
 10
96.108357414
 20
293.4076343457
 10
95.9575784035
 20
293.4377455347
 10
95.8126979777
 20
293.4676018406
  0
LINE
  5
283
100
AcDbEntity
  8
0
100
AcDbLine
 62
7
  6
CONTINUOUS
 10
95.8126979777
 20
293.4676018406
 11
95.6738830348
 21
293.4970588162
  0
LINE
  5
284
100
AcDbEntity
  8
0
100
AcDbLine
 62
7
  6
CONTINUOUS
 10
95.7011750045
 20
293.4911963922
 11
95.5423808545
 21
293.525733611
  0
LINE
  5
285
100
AcDbEntity
  8
0
100
AcDbLine
 62
7
  6
CONTINUOUS
 10
95.5706128781
 20
293.5195093089
 11
95.4186722404
 21
293.5533941234
  0
LINE
  5
286
100
AcDbEntity
  8
0
100
AcDbLine
 62
7
  6
CONTINUOUS
 10
95.4462188586
 20
293.5471725693
 11
95.3022350036
 21
293.580037027
  0
LINE
  5
287
100
AcDbEntity
  8
_SURFACE
100
AcDbLine
 62
7
  6
CONTINUOUS
 10
106.8130314332
 20
293.728940982
 11
107.0462979594
 21
293.8072383418
  0
LWPOLYLINE
  5
288
100
AcDbEntity
  8
0
100
AcDbPolyline
 62
7
  6
CONTINUOUS
 90
55
 70
0
 10
125.1902260029
 20
318.5342769007
 10
125.1509874475
 20
319.2637752163
 10
125.0451669744
 20
320.3246917266
 10
124.8992434273
 20
321.3398111106
 10
124.7196693168
 20
322.3053309575
 10
124.5115927422
 20
323.2233972403
 10
124.2778212079
 20
324.1018386771
 10
124.0217358246
 20
324.9421299834
 10
123.7475240101
 20
325.7423650283
 10
123.4576386461
 20
326.5053272885
 10
123.1549572687
 20
327.2316148066
 10
122.8425356562
 20
327.9210883373
 10
122.5224364097
 20
328.575491684
 10
122.1996966315
 20
329.1905586121
 10
121.8743075655
 20
329.7717583049
 10
121.5391973123
 20
330.3348183301
 10
121.1952336485
 20
330.8797887553
 10
120.8433244093
 20
331.4066419149
 10
120.4740644708
 20
331.9295729521
 10
120.0831791815
 20
332.4530839552
 10
119.674150735
 20
332.970960621
 10
119.2482509052
 20
333.480632137
 10
118.8046240096
 20
333.9822331157
 10
118.3439031849
 20
334.4741509775
 10
117.870112511
 20
334.9516251714
 10
117.3848700979
 20
335.4132302502
 10
116.8875590493
 20
335.8600376716
 10
116.3792898337
 20
336.2914670301
 10
115.8612878857
 20
336.7069483868
 10
115.3335077711
 20
337.1069555707
 10
114.7950954754
 20
337.4924127006
 10
114.2475229063
 20
337.8624927845
 10
113.6902988561
 20
338.2177335878
 10
113.1193030933
 20
338.5606390694
 10
112.532653654
 20
338.8918414263
 10
111.9327000647
 20
339.2095075912
 10
111.3215428102
 20
339.5122125533
 10
110.6949799729
 20
339.8015742432
 10
110.0578961026
 20
340.0748611449
 10
109.426671575
 20
340.3255439091
 10
108.8042609423
 20
340.5537535325
 10
108.1894982393
 20
340.7611679229
 10
107.5932921739
 20
340.9456433267
 10
107.0207161492
 20
341.1076553311
 10
106.4684644759
 20
341.2500847717
 10
105.9349351108
 20
341.3749618919
 10
105.4214089377
 20
341.483476851
 10
104.9276973816
 20
341.5770957313
 10
104.449797001
 20
341.6577831365
 10
103.9880870464
 20
341.7265007667
 10
103.542831332
 20
341.7841992137
 10
103.1097089205
 20
341.8322655253
 10
102.6890597155
 20
341.8713426405
 10
102.2809240072
 20
341.9020894595
 10
101.9354933358
 20
341.92218304
  0
LINE
  5
289
100
AcDbEntity
  8
0
100
AcDbLine
 62
40
  6
CONTINUOUS
 10
118.9710499929
 20
316.7042328935
 11
118.9710499929
 21
318.2042328935
  0
LINE
  5
28A
100
AcDbEntity
  8
0
100
AcDbLine
 62
40
  6
CONTINUOUS
 10
122.4710499929
 20
318.2042328939
 11
122.4710499929
 21
316.7042328939
  0
LWPOLYLINE
  5
28B
100
AcDbEntity
  8
0
100
AcDbPolyline
 62
40
  6
CONTINUOUS
 90
81
 70
0
 10
118.9710499929
 20
318.2042328935
 10
118.9724045885
 20
318.2728624554
 10
118.9764578578
 20
318.341391368
 10
118.9831940246
 20
318.4097150947
 10
118.9925973126
 20
318.477729099
 10
119.0046519455
 20
318.5453288443
 10
119.0193421471
 20
318.612409794
 10
119.0366521411
 20
318.6788674115
 10
119.0565661512
 20
318.7445971604
 10
119.0790630133
 20
318.8094959835
 10
119.1041000108
 20
318.8734667427
 10
119.1316290395
 20
318.9364137791
 10
119.1616019948
 20
318.9982414342
 10
119.1939707724
 20
319.0588540491
 10
119.228687268
 20
319.1181559653
 10
119.265703377
 20
319.1760515239
 10
119.3049709952
 20
319.2324450663
 10
119.3464375365
 20
319.2872443197
 10
119.3900324895
 20
319.3403705542
 10
119.4356808608
 20
319.3917484262
 10
119.4833076575
 20
319.4413025916
 10
119.5328378862
 20
319.4889577067
 10
119.584196554
 20
319.5346384275
 10
119.6373086677
 20
319.5782694103
 10
119.6920992341
 20
319.6197753112
 10
119.7484899563
 20
319.6590852136
 10
119.8063893224
 20
319.6961459104
 10
119.8657025168
 20
319.7309086221
 10
119.9263347238
 20
319.7633245689
 10
119.9881911276
 20
319.7933449711
 10
120.0511769127
 20
319.820921049
 10
120.1151972634
 20
319.8460040229
 10
120.180157364
 20
319.8685451132
 10
120.245960575
 20
319.8885008533
 10
120.3125029623
 20
319.9058490302
 10
120.3796787678
 20
319.9205727438
 10
120.4473822336
 20
319.9326550943
 10
120.5155076018
 20
319.9420791818
 10
120.5839491142
 20
319.9488281063
 10
120.652601013
 20
319.9528849679
 10
120.7213575402
 20
319.9542328667
 10
120.790112938
 20
319.952860573
 10
120.8587614501
 20
319.948779538
 10
120.9271973202
 20
319.9420068831
 10
120.9953147921
 20
319.9325597296
 10
121.0630081097
 20
319.9204551991
 10
121.1301715167
 20
319.9057104128
 10
121.196699257
 20
319.8883424922
 10
121.2624855744
 20
319.8683685586
 10
121.3274265852
 20
319.845811015
 10
121.3914258952
 20
319.8207133904
 10
121.4543889827
 20
319.7931244951
 10
121.5162213261
 20
319.7630931395
 10
121.5768284037
 20
319.7306681342
 10
121.6361156939
 20
319.6958982896
 10
121.6939886749
 20
319.658832416
 10
121.7503528251
 20
319.619519324
 10
121.8051169
 20
319.5780122388
 10
121.8582027638
 20
319.5343820445
 10
121.9095355578
 20
319.4887040402
 10
121.9590404235
 20
319.441053525
 10
122.0066425023
 20
319.3915057978
 10
122.0522669354
 20
319.3401361576
 10
122.0958388644
 20
319.2870199035
 10
122.1372834306
 20
319.2322323345
 10
122.176530249
 20
319.1758520872
 10
122.2135268295
 20
319.1179711487
 10
122.2482251555
 20
319.0586848438
 10
122.2805772106
 20
318.9980884973
 10
122.3105349782
 20
318.9362774338
 10
122.3380504419
 20
318.8733469782
 10
122.3630755851
 20
318.8093924551
 10
122.3855623913
 20
318.7445091894
 10
122.4054681864
 20
318.6787940401
 10
122.4227716653
 20
318.6123500039
 10
122.4374568655
 20
318.5452816117
 10
122.4495078243
 20
318.4776933944
 10
122.4589085791
 20
318.409689883
 10
122.4656431672
 20
318.3413756085
 10
122.469695626
 20
318.2728551018
 10
122.4710499929
 20
318.2042328939
  0
LWPOLYLINE
  5
28C
100
AcDbEntity
  8
0
100
AcDbPolyline
 62
40
  6
CONTINUOUS
 90
81
 70
0
 10
122.4710499929
 20
316.7042328939
 10
122.4696952334
 20
316.6356004693
 10
122.4656416441
 20
316.5670704473
 10
122.4589052586
 20
316.498747377
 10
122.4495021106
 20
316.4307358076
 10
122.4374482336
 20
316.3631402882
 10
122.4227596613
 20
316.296065368
 10
122.4054524274
 20
316.2296155961
 10
122.3855425655
 20
316.1638955218
 10
122.3630514583
 20
316.0990081558
 10
122.3380218846
 20
316.0350503559
 10
122.3105019724
 20
315.9721174419
 10
122.2805398495
 20
315.910304733
 10
122.2481836439
 20
315.8497075491
 10
122.2134814836
 20
315.7904212094
 10
122.1764814963
 20
315.7325410337
 10
122.1372318101
 20
315.6761623414
 10
122.0957849983
 20
315.6213770948
 10
122.052211417
 20
315.5682638269
 10
122.0065858674
 20
315.5168977132
 10
121.958983151
 20
315.4673539295
 10
121.9094780692
 20
315.4197076514
 10
121.8581454235
 20
315.3740340546
 10
121.8050600152
 20
315.3304083147
 10
121.7502966457
 20
315.2889056074
 10
121.6939334102
 20
315.2495967138
 10
121.6360615778
 20
315.2125348371
 10
121.5767757116
 20
315.177768786
 10
121.5161703745
 20
315.145347369
 10
121.4543401294
 20
315.1153193948
 10
121.3913795393
 20
315.0877336721
 10
121.3273831672
 20
315.0626390095
 10
121.2624455758
 20
315.0400842157
 10
121.1966631725
 20
315.0201128155
 10
121.1301397418
 20
315.0027471992
 10
121.0629809125
 20
314.988004473
 10
120.9952923134
 20
314.9759017435
 10
120.9271795732
 20
314.966456117
 10
120.8587483208
 20
314.9596847
 10
120.790104185
 20
314.9556045988
 10
120.7213527945
 20
314.9542329199
 10
120.6525998068
 20
314.9555811074
 10
120.5839509934
 20
314.9596379563
 10
120.5155121546
 20
314.9663865995
 10
120.4473890905
 20
314.9758101698
 10
120.3796876014
 20
314.9878917999
 10
120.3125134873
 20
315.0026146227
 10
120.2459725486
 20
315.0199617709
 10
120.1801705853
 20
315.0399163773
 10
120.115211562
 20
315.0624562663
 10
120.0511920999
 20
315.0875380275
 10
119.9882069844
 20
315.1151129425
 10
119.9263510011
 20
315.1451322926
 10
119.8657189356
 20
315.1775473591
 10
119.8064055732
 20
315.2123094233
 10
119.7485056994
 20
315.2493697666
 10
119.6921140999
 20
315.2886796703
 10
119.6373222771
 20
315.330185966
 10
119.5842086013
 20
315.3738176869
 10
119.5328481602
 20
315.419499416
 10
119.4833160411
 20
315.4671557367
 10
119.4356873316
 20
315.5167112322
 10
119.390037119
 20
315.5680904859
 10
119.3464404908
 20
315.621218081
 10
119.3049725345
 20
315.6760186008
 10
119.265703833
 20
315.7324132562
 10
119.2286869511
 20
315.7903097692
 10
119.1939699488
 20
315.8496124893
 10
119.1616008865
 20
315.9102257663
 10
119.1316278242
 20
315.9720539496
 10
119.1040988222
 20
316.035001389
 10
119.0790619407
 20
316.098972434
 10
119.0565652398
 20
316.1638714341
 10
119.0366513982
 20
316.229601257
 10
119.0193415682
 20
316.2960588411
 10
119.0046515205
 20
316.363139643
 10
118.9925970259
 20
316.430739119
 10
118.9831938551
 20
316.4987527256
 10
118.9764577788
 20
316.5670759193
 10
118.9724045678
 20
316.6356041564
 10
118.9710499929
 20
316.7042328935
  0
LINE
  5
28D
100
AcDbEntity
  8
0
100
AcDbLine
 62
40
  6
CONTINUOUS
 10
104.721353559
 20
316.2542673183
 11
94.0542960432
 21
316.254367999
  0
LINE
  5
28E
100
AcDbEntity
  8
0
100
AcDbLine
 62
40
  6
CONTINUOUS
 10
108.7211207738
 20
316.2544558713
 11
104.721353559
 21
316.2542673183
  0
LINE
  5
28F
100
AcDbEntity
  8
0
100
AcDbLine
 62
40
  6
CONTINUOUS
 10
94.0542960432
 20
316.254367999
 11
92.7211207738
 21
316.2544558713
  0
LINE
  5
290
100
AcDbEntity
  8
0
100
AcDbLine
 62
40
  6
CONTINUOUS
 10
96.7208879887
 20
318.6541984607
 11
107.3879455044
 21
318.6540977606
  0
LINE
  5
291
100
AcDbEntity
  8
0
100
AcDbLine
 62
40
  6
CONTINUOUS
 10
92.7211207738
 20
318.6540098713
 11
96.7208879887
 21
318.6541984607
  0
LINE
  5
292
100
AcDbEntity
  8
0
100
AcDbLine
 62
40
  6
CONTINUOUS
 10
107.3879455044
 20
318.6540977606
 11
108.7211207738
 21
318.6540098713
  0
LWPOLYLINE
  5
293
100
AcDbEntity
  8
_SURFACE
100
AcDbPolyline
 62
7
  6
CONTINUOUS
 90
33
 70
0
 10
104.2432416399
 20
224.829495659
 10
104.2442720067
 20
224.830668908
 10
104.2453166887
 20
224.831873326
 10
104.2463748999
 20
224.8331090204
 10
104.2474463523
 20
224.8343767177
 10
104.2485311755
 20
224.8356777114
 10
104.2496283087
 20
224.8370119344
 10
104.2507376111
 20
224.838380487
 10
104.2518605112
 20
224.839786544
 10
104.2529952543
 20
224.8412294328
 10
104.2541421447
 20
224.8427111553
 10
104.2553054605
 20
224.8442391508
 10
104.2564824463
 20
224.8458119449
 10
104.2576738728
 20
224.8474328565
 10
104.2588887359
 20
224.8491170304
 10
104.2601219745
 20
224.8508608291
 10
104.2613755731
 20
224.8526706938
 10
104.262667777
 20
224.8545780183
 10
104.2639848902
 20
224.8565685189
 10
104.265335232
 20
224.8586612392
 10
104.2667662588
 20
224.8609407601
 10
104.2682535415
 20
224.8633827084
 10
104.2698088077
 20
224.8660222455
 10
104.2715231265
 20
224.8690421571
 10
104.2734249262
 20
224.8725407125
 10
104.2754473395
 20
224.8764509851
 10
104.2775328917
 20
224.8807134286
 10
104.2797245742
 20
224.8854793847
 10
104.28193603
 20
224.8906322626
 10
104.2839523234
 20
224.8956822945
 10
104.2857250901
 20
224.9004479832
 10
104.2873348692
 20
224.9050852671
 10
104.2887934953
 20
224.9095851059
  0
LWPOLYLINE
  5
294
100
AcDbEntity
  8
_SURFACE
100
AcDbPolyline
 62
7
  6
CONTINUOUS
 90
3
 70
0
 10
104.241703547
 20
224.8277693968
 10
104.2423283784
 20
224.8284671474
 10
104.2432416399
 20
224.829495659
  0
LINE
  5
295
100
AcDbEntity
  8
_SURFACE
100
AcDbLine
 62
7
  6
CONTINUOUS
 10
104.2403718538
 20
224.8262988382
 11
104.241703547
 21
224.8277693968
  0
LWPOLYLINE
  5
296
100
AcDbEntity
  8
0
100
AcDbPolyline
 62
7
  6
CONTINUOUS
 90
82
 70
0
 10
171.0299988266
 20
290.7693533216
 10
171.0290937981
 20
287.9556195756
 10
171.0235882443
 20
285.2580831611
 10
171.0097355709
 20
282.6809998547
 10
170.9848842984
 20
280.2227736744
 10
170.9473491844
 20
277.8770004998
 10
170.8957597359
 20
275.6379031845
 10
170.8296123393
 20
273.5014084306
 10
170.7485818207
 20
271.4630658158
 10
170.6526857394
 20
269.5172592649
 10
170.5422199173
 20
267.6582683539
 10
170.4174306973
 20
265.8800943551
 10
170.2783967635
 20
264.1755455986
 10
170.1252170284
 20
262.5376569573
 10
169.9586922558
 20
260.963251447
 10
169.7800092776
 20
259.4509596585
 10
169.5874293034
 20
257.9844177588
 10
169.3740747505
 20
256.5216518523
 10
169.1332656467
 20
255.0243939317
 10
168.8624079337
 20
253.4928404276
 10
168.5603058702
 20
251.9415043945
 10
168.2264711797
 20
250.3837061408
 10
167.8619063617
 20
248.8332204261
 10
167.468990557
 20
247.3070410047
 10
167.0544299542
 20
245.8282468992
 10
166.6263130161
 20
244.421171896
 10
166.1922245511
 20
243.1002377017
 10
165.759558047
 20
241.8706723584
 10
165.3336245852
 20
240.7328386335
 10
164.911874299
 20
239.6689423253
 10
164.489836661
 20
238.6566102878
 10
164.0614351259
 20
237.675682964
 10
163.6187529416
 20
236.7073237098
 10
163.1557994692
 20
235.7377779177
 10
162.6728376257
 20
234.7683809763
 10
162.171461995
 20
233.8034114512
 10
161.6535095518
 20
232.8464567417
 10
161.1212727324
 20
231.9012541653
 10
160.5767790957
 20
230.9709429713
 10
160.0209178721
 20
230.0562192742
 10
159.4542562036
 20
229.1571576119
 10
158.8769023632
 20
228.2731143433
 10
158.2888161433
 20
227.4032100698
 10
157.6880304758
 20
226.5442281479
 10
157.0692076158
 20
225.6889761687
 10
156.4267233637
 20
224.8301822283
 10
155.7548281804
 20
223.9619664092
 10
155.0474991298
 20
223.0787064885
 10
154.2976067327
 20
222.1744542486
 10
153.4966961499
 20
221.2431888472
 10
152.6370841774
 20
220.2802766353
 10
151.7141199289
 20
219.2861413984
 10
150.7241822545
 20
218.2628191942
 10
149.6660339485
 20
217.2145656022
 10
148.5413926757
 20
216.1485272796
 10
147.3511097733
 20
215.0710932415
 10
146.0912724605
 20
213.9842648288
 10
144.7563894104
 20
212.888703563
 10
143.337880247
 20
211.7839732673
 10
141.825167436
 20
210.6691696683
 10
140.2072994405
 20
209.5444298955
 10
138.4701663151
 20
208.4117239185
 10
136.6004660195
 20
207.274087669
 10
134.6105180622
 20
206.148088952
 10
132.5303805496
 20
205.0595986578
 10
130.3879622941
 20
204.0301019702
 10
128.2054290838
 20
203.0706330884
 10
126.0046294737
 20
202.1905699487
 10
123.8065598646
 20
201.3950448584
 10
121.6312270885
 20
200.6867440388
 10
119.4975781665
 20
200.0664416319
 10
117.4228376001
 20
199.5312778424
 10
115.42261558
 20
199.0775063953
 10
113.5022778085
 20
198.6984685884
 10
111.6626063393
 20
198.3863106813
 10
109.9024964503
 20
198.13369223
 10
108.2177845378
 20
197.9338784432
 10
106.6036228898
 20
197.7803687202
 10
105.0524933463
 20
197.6679862637
 10
103.5560711631
 20
197.5920516805
 10
102.1114927409
 20
197.5486830542
 10
100.7221721214
 20
197.5348349701
  0
LWPOLYLINE
  5
297
100
AcDbEntity
  8
0
100
AcDbPolyline
 62
7
  6
CONTINUOUS
 90
127
 70
0
 10
171.2136773745
 20
290.7693441247
 10
171.2142872403
 20
291.9067487742
 10
171.2138075775
 20
293.0493369474
 10
171.212238386
 20
294.1971086444
 10
171.2099315813
 20
295.3520442215
 10
171.2065352479
 20
296.5121633223
 10
171.2009936399
 20
297.6715248776
 10
171.1932594901
 20
298.8301143831
 10
171.1833800658
 20
299.9879463431
 10
171.1704414222
 20
301.1391232013
 10
171.1543881249
 20
302.284045566
 10
171.1352756083
 20
303.4223128288
 10
171.1123562316
 20
304.5468256082
 10
171.0853876546
 20
305.6581914598
 10
171.0546122176
 20
306.7558028281
 10
171.0200093005
 20
307.8307376652
 10
170.9815163204
 20
308.8809055774
 10
170.9391958604
 20
309.9083969584
 10
170.8932150497
 20
310.9105609409
 10
170.8438001848
 20
311.8828968548
 10
170.7907249693
 20
312.8299053703
 10
170.7334776436
 20
313.7624376298
 10
170.6722427983
 20
314.6804545253
 10
170.6068358429
 20
315.5839951649
 10
170.5361912462
 20
316.4840280159
 10
170.4602217477
 20
317.3832448767
 10
170.3790146078
 20
318.2789539489
 10
170.2917660771
 20
319.1740483055
 10
170.1985090061
 20
320.0694970001
 10
170.0992105442
 20
320.9643309789
 10
169.9929683897
 20
321.8585361535
 10
169.8797190462
 20
322.7525020796
 10
169.7595260102
 20
323.6458392013
 10
169.6316774697
 20
324.537364763
 10
169.4961400234
 20
325.4268511908
 10
169.3529470727
 20
326.3145260586
 10
169.2014870088
 20
327.1998893319
 10
169.0419793256
 20
328.0824126136
 10
168.8742045293
 20
328.9626243008
 10
168.6968925304
 20
329.8416095504
 10
168.5099665477
 20
330.7195966749
 10
168.3135033625
 20
331.5963573618
 10
168.1064632287
 20
332.4722918302
 10
167.8889726606
 20
333.3476599806
 10
167.660905144
 20
334.2222019126
 10
167.4208413898
 20
335.0955381432
 10
167.1691349968
 20
335.9661965627
 10
166.9054323663
 20
336.835649281
 10
166.6272534134
 20
337.7079331452
 10
166.3354539689
 20
338.5818174701
 10
166.029178202
 20
339.458532941
 10
165.7033785355
 20
340.3458084611
 10
165.3582151868
 20
341.2440462597
 10
164.9935279386
 20
342.1528441075
 10
164.6037885611
 20
343.0787242209
 10
164.1866208225
 20
344.0275052204
 10
163.7444009547
 20
344.9933684855
 10
163.278729424
 20
345.9653803698
 10
162.7854103537
 20
346.9488382022
 10
162.2686396205
 20
347.938444654
 10
161.7426053206
 20
348.9073740927
 10
161.2065768432
 20
349.8534444493
 10
160.661284799
 20
350.778837793
 10
160.123109116
 20
351.6632746984
 10
159.5967772878
 20
352.4980944829
 10
159.0775618209
 20
353.2919578292
 10
158.5676601629
 20
354.05056736
 10
158.0696823509
 20
354.7713661408
 10
157.5810183479
 20
355.456911106
 10
157.0960354903
 20
356.120575682
 10
156.6153632861
 20
356.7628317028
 10
156.1383722273
 20
357.3832073345
 10
155.6575411269
 20
357.9936605007
 10
155.1714978059
 20
358.5964740514
 10
154.6816144433
 20
359.1893651368
 10
154.1844863889
 20
359.7774431304
 10
153.6788255085
 20
360.3626941823
 10
153.1659199363
 20
360.9431321426
 10
152.646229425
 20
361.5179079352
 10
152.1195700179
 20
362.0870854996
 10
151.5861256718
 20
362.6506008964
 10
151.0469080097
 20
363.2074132318
 10
150.502052763
 20
363.7572767694
 10
149.9514242005
 20
364.3004372456
 10
149.3956267513
 20
364.8365909758
 10
148.8367050664
 20
365.3640576655
 10
148.2726144949
 20
365.8845176091
 10
147.6978255136
 20
366.4027080052
 10
147.1134313281
 20
366.918219229
 10
146.5183387328
 20
367.4314609053
 10
145.9037385876
 20
367.9483991075
 10
145.2698700803
 20
368.4695281183
 10
144.6164940232
 20
368.9943536549
 10
143.934083713
 20
369.5273589428
 10
143.2232377933
 20
370.0689603558
 10
142.4833576205
 20
370.61874152
 10
141.7031205607
 20
371.1799365392
 10
140.8832382168
 20
371.7531288425
 10
140.0229989858
 20
372.3377350008
 10
139.1089454252
 20
372.9352388304
 10
138.1404840727
 20
373.5471723612
 10
137.1182083907
 20
374.1720035633
 10
136.0304413239
 20
374.8066201633
 10
134.8694743059
 20
375.4555144782
 10
133.643015903
 20
376.1141941911
 10
132.3625147591
 20
376.7660700783
 10
131.0221174805
 20
377.4120048061
 10
129.6276774607
 20
378.0511357083
 10
128.2082035241
 20
378.664285563
 10
126.7691804436
 20
379.2470710077
 10
125.3051234463
 20
379.8038754049
 10
123.8285870372
 20
380.3286716209
 10
122.3426370234
 20
380.8198228656
 10
120.8442075979
 20
381.278965929
 10
119.3366558441
 20
381.7049840478
 10
117.8205968833
 20
382.0976375439
 10
116.2954155942
 20
382.4571660953
 10
114.7626236966
 20
382.7831719731
 10
113.2218509863
 20
383.0757385795
 10
111.6734676674
 20
383.3347825123
 10
110.1200960728
 20
383.559655836
 10
108.5618655385
 20
383.7503010513
 10
106.9986467283
 20
383.9067756575
 10
105.4326739666
 20
384.0286042173
 10
103.864692028
 20
384.1156282517
 10
102.2939561378
 20
384.1680062397
 10
100.7204662961
 20
384.1857381813
  0
LWPOLYLINE
  5
298
100
AcDbEntity
  8
0
100
AcDbPolyline
 62
7
  6
CONTINUOUS
 90
79
 70
0
 10
100.7204684746
 20
384.0022374745
 10
101.4570478538
 20
383.9983755372
 10
102.2150238057
 20
383.9863698749
 10
102.9933030742
 20
383.9655974372
 10
103.7928578074
 20
383.9352925393
 10
104.6167080178
 20
383.8945356659
 10
105.4676692034
 20
383.8423521185
 10
106.347570534
 20
383.777559364
 10
107.2581826739
 20
383.6989071378
 10
108.2015054664
 20
383.604959284
 10
109.1795689102
 20
383.4940814369
 10
110.1941793284
 20
383.3645804018
 10
111.2469790814
 20
383.2144729163
 10
112.3396231135
 20
383.0416766
 10
113.4736336534
 20
382.8439034082
 10
114.6502774662
 20
382.6186250288
 10
115.8708149456
 20
382.3632210688
 10
117.1366651453
 20
382.0746340897
 10
118.4493199126
 20
381.7496447255
 10
119.8099124581
 20
381.3847594045
 10
121.218808756
 20
380.9761661907
 10
122.6755741269
 20
380.5202338368
 10
124.1764105637
 20
380.0142698371
 10
125.7163380904
 20
379.4559340899
 10
127.2902971388
 20
378.8430410593
 10
128.8934024563
 20
378.1735291977
 10
130.5202720544
 20
377.4457299077
 10
132.1610059146
 20
376.6609840934
 10
133.8034088617
 20
375.8220764495
 10
135.4375547082
 20
374.9317416585
 10
137.0568957309
 20
373.9926022922
 10
138.6555153012
 20
373.0069479079
 10
140.230488825
 20
371.9756309089
 10
141.7803877201
 20
370.8990087737
 10
143.3030173039
 20
369.778412287
 10
144.795243932
 20
368.6161326219
 10
146.2540270837
 20
367.4142639311
 10
147.6784401105
 20
366.173494331
 10
149.0660706102
 20
364.896111168
 10
150.4114616688
 20
363.5878752842
 10
151.7057573186
 20
362.2587722881
 10
152.9447209554
 20
360.9146823251
 10
154.1222332303
 20
359.5675125702
 10
155.227224591
 20
358.2363314744
 10
156.2516855453
 20
356.9362114112
 10
157.2079794661
 20
355.6579658485
 10
158.1132849382
 20
354.3864974146
 10
158.98107647
 20
353.1056632882
 10
159.8201751539
 20
351.8018297927
 10
160.6372300047
 20
350.4632098262
 10
161.4351740654
 20
349.0813110234
 10
162.2168801602
 20
347.6470165768
 10
162.9856226771
 20
346.1450107013
 10
163.7447952699
 20
344.5562945559
 10
164.4931610737
 20
342.8704703528
 10
165.2186497626
 20
341.0972938813
 10
165.9082597196
 20
339.2489912691
 10
166.5522464201
 20
337.3431049702
 10
167.1424275994
 20
335.4027044258
 10
167.6729271117
 20
333.4512120748
 10
168.1439787092
 20
331.5127547761
 10
168.5567719416
 20
329.6110298043
 10
168.9163453644
 20
327.7505047833
 10
169.2312722727
 20
325.9193622097
 10
169.5101084555
 20
324.0973992088
 10
169.7595983337
 20
322.2460620859
 10
169.9856326679
 20
320.3266213475
 10
170.1900648702
 20
318.3230521607
 10
170.3717458688
 20
316.2353417648
 10
170.5298731812
 20
314.0604213531
 10
170.6647085081
 20
311.7888405079
 10
170.7765170889
 20
309.4125945809
 10
170.8656928005
 20
306.933675677
 10
170.9328569561
 20
304.3622671549
 10
170.9793388532
 20
301.7108439581
 10
171.0083949461
 20
299.0053998413
 10
171.023670553
 20
296.2751582806
 10
171.0293075109
 20
293.5319271276
 10
171.0299988266
 20
290.7693533216
  0
LINE
  5
299
100
AcDbEntity
  8
0
100
AcDbLine
 62
7
  6
CONTINUOUS
 10
400.9727898805
 20
197.5112958645
 11
403.5163677541
 21
197.4798741842
  0
LINE
  5
29A
100
AcDbEntity
  8
0
100
AcDbLine
 62
7
  6
CONTINUOUS
 10
400.5163677119
 20
197.4036995639
 11
393.0036246557
 21
197.5348349701
  0
LWPOLYLINE
  5
29B
100
AcDbEntity
  8
0
100
AcDbPolyline
 62
7
  6
CONTINUOUS
 90
7
 70
0
 10
332.5187454381
 20
224.8025400372
 10
332.5289758355
 20
224.7965627041
 10
332.5390262593
 20
224.790877445
 10
332.548942114
 20
224.7855259138
 10
332.5585740889
 20
224.7806351084
 10
332.5679925247
 20
224.7761889566
 10
332.5860147013
 20
224.7681152476
  0
LINE
  5
29C
100
AcDbEntity
  8
0
100
AcDbLine
 62
7
  6
CONTINUOUS
 10
332.4859217748
 20
224.8219952904
 11
332.5187454381
 21
224.8025400372
  0
LWPOLYLINE
  5
29D
100
AcDbEntity
  8
0
100
AcDbPolyline
 62
7
  6
CONTINUOUS
 90
5
 70
0
 10
332.5860147013
 20
224.7681152476
 10
332.5947678028
 20
224.7640583181
 10
332.6034463578
 20
224.7601700682
 10
332.6119737169
 20
224.7571834132
 10
332.6203356265
 20
224.7557192989
  0
LWPOLYLINE
  5
29E
100
AcDbEntity
  8
0
100
AcDbPolyline
 62
7
  6
CONTINUOUS
 90
5
 70
0
 10
321.7873596525
 20
341.4888904853
 10
321.456781966
 20
336.1395830106
 10
321.2086553911
 20
330.7931029556
 10
321.0431312137
 20
325.4505775588
 10
320.9603924613
 20
320.1176155497
  0
LWPOLYLINE
  5
29F
100
AcDbEntity
  8
0
100
AcDbPolyline
 62
7
  6
CONTINUOUS
 90
17
 70
0
 10
341.829756298
 20
231.3413993143
 10
341.8283210093
 20
231.3418545287
 10
341.8278465806
 20
231.3383875434
 10
341.8286320552
 20
231.3340806213
 10
341.8295450029
 20
231.3305262589
 10
341.8305489063
 20
231.3271052405
 10
341.8316148105
 20
231.3237579962
 10
341.8325403366
 20
231.3210037928
 10
341.833630929
 20
231.3178875743
 10
341.835118806
 20
231.3138036785
 10
341.8368570734
 20
231.3092151446
 10
341.8386454574
 20
231.3046500384
 10
341.8403169201
 20
231.3004960165
 10
341.8419514611
 20
231.296520219
 10
341.8436909586
 20
231.292368517
 10
341.8456079942
 20
231.2878742821
 10
341.84763807
 20
231.2831950068
  0
LINE
  5
2A0
100
AcDbEntity
  8
_SURFACE
100
AcDbLine
 62
7
  6
CONTINUOUS
 10
341.8284556873
 20
231.3488544334
 11
341.7481969494
 21
231.5108997722
  0
LWPOLYLINE
  5
2A1
100
AcDbEntity
  8
0
100
AcDbPolyline
 62
7
  6
CONTINUOUS
 90
6
 70
0
 10
341.8407941596
 20
231.3230193155
 10
341.8397419778
 20
231.3251790438
 10
341.8385899077
 20
231.3274777379
 10
341.8360537247
 20
231.3322654152
 10
341.8316599119
 20
231.3392907219
 10
341.8297610686
 20
231.3413954154
  0
LINE
  5
2A2
100
AcDbEntity
  8
_SURFACE
100
AcDbLine
 62
7
  6
CONTINUOUS
 10
341.7481969494
 20
231.5108997722
 11
341.7245750866
 21
231.55918711
  0
LINE
  5
2A3
100
AcDbEntity
  8
_SURFACE
100
AcDbLine
 62
7
  6
CONTINUOUS
 10
341.8337820138
 20
231.3379398246
 11
341.8284556873
 21
231.3488544334
  0
LINE
  5
2A4
100
AcDbEntity
  8
_SURFACE
100
AcDbLine
 62
7
  6
CONTINUOUS
 10
341.7245750866
 20
231.55918711
 11
341.7071294669
 21
231.5952404665
  0
LINE
  5
2A5
100
AcDbEntity
  8
0
100
AcDbLine
 62
7
  6
CONTINUOUS
 10
341.7160622176
 20
231.5767331844
 11
341.6979913759
 21
231.6142800764
  0
LINE
  5
2A6
100
AcDbEntity
  8
_SURFACE
100
AcDbLine
 62
7
  6
CONTINUOUS
 10
341.8366301947
 20
231.3320252144
 11
341.8337820138
 21
231.3379398246
  0
LINE
  5
2A7
100
AcDbEntity
  8
_SURFACE
100
AcDbLine
 62
7
  6
CONTINUOUS
 10
341.8407948528
 20
231.3230183262
 11
341.842969273
 21
231.3184571179
  0
LINE
  5
2A8
100
AcDbEntity
  8
_SURFACE
100
AcDbLine
 62
7
  6
CONTINUOUS
 10
341.7071294669
 20
231.5952404665
 11
341.6884522439
 21
231.6342711394
  0
LINE
  5
2A9
100
AcDbEntity
  8
_SURFACE
100
AcDbLine
 62
7
  6
CONTINUOUS
 10
341.8384918002
 20
231.3281141608
 11
341.8366301947
 21
231.3320252144
  0
LINE
  5
2AA
100
AcDbEntity
  8
0
100
AcDbLine
 62
7
  6
CONTINUOUS
 10
341.6979913759
 20
231.6142800764
 11
341.678975895
 21
231.6542496
  0
LINE
  5
2AB
100
AcDbEntity
  8
0
100
AcDbLine
 62
7
  6
CONTINUOUS
 10
341.678975895
 20
231.6542496
 11
341.671908652
 21
231.6692323915
  0
LINE
  5
2AC
100
AcDbEntity
  8
_SURFACE
100
AcDbLine
 62
7
  6
CONTINUOUS
 10
341.6884522439
 20
231.6342711394
 11
341.6719087239
 21
231.6692322324
  0
LINE
  5
2AD
100
AcDbEntity
  8
_SURFACE
100
AcDbLine
 62
7
  6
CONTINUOUS
 10
341.8402051594
 20
231.3244703836
 11
341.8384918002
 21
231.3281141608
  0
LINE
  5
2AE
100
AcDbEntity
  8
_SURFACE
100
AcDbLine
 62
7
  6
CONTINUOUS
 10
341.6719087239
 20
231.6692322324
 11
341.6485260578
 21
231.719333359
  0
LINE
  5
2AF
100
AcDbEntity
  8
_SURFACE
100
AcDbLine
 62
7
  6
CONTINUOUS
 10
341.8417207935
 20
231.3211982574
 11
341.8402051594
 21
231.3244703836
  0
LINE
  5
2B0
100
AcDbEntity
  8
0
100
AcDbLine
 62
7
  6
CONTINUOUS
 10
341.8568210462
 20
231.2639605992
 11
341.7857946059
 21
231.4186819352
  0
LINE
  5
2B1
100
AcDbEntity
  8
_SURFACE
100
AcDbLine
 62
7
  6
CONTINUOUS
 10
341.6479739158
 20
231.7205297422
 11
341.6642962769
 21
231.6847807983
  0
LINE
  5
2B2
100
AcDbEntity
  8
0
100
AcDbLine
 62
7
  6
CONTINUOUS
 10
341.7857946059
 20
231.4186819352
 11
341.715477958
 21
231.573006195
  0
LINE
  5
2B3
100
AcDbEntity
  8
_SURFACE
100
AcDbLine
 62
7
  6
CONTINUOUS
 10
341.8427742864
 20
231.3188881255
 11
341.8417207935
 21
231.3211982574
  0
LINE
  5
2B4
100
AcDbEntity
  8
0
100
AcDbLine
 62
7
  6
CONTINUOUS
 10
341.715477958
 20
231.573006195
 11
341.6652964697
 21
231.6838772514
  0
LINE
  5
2B5
100
AcDbEntity
  8
_SURFACE
100
AcDbLine
 62
7
  6
CONTINUOUS
 10
341.7808738501
 20
231.4294924686
 11
341.8498058236
 21
231.2783450637
  0
LINE
  5
2B6
100
AcDbEntity
  8
_SURFACE
100
AcDbLine
 62
7
  6
CONTINUOUS
 10
341.843009209
 20
231.3183675214
 11
341.8427742864
 21
231.3188881255
  0
LINE
  5
2B7
100
AcDbEntity
  8
0
100
AcDbLine
 62
7
  6
CONTINUOUS
 10
341.6652964697
 20
231.6838772514
 11
341.6262304256
 21
231.7706349592
  0
LINE
  5
2B8
100
AcDbEntity
  8
0
100
AcDbLine
 62
7
  6
CONTINUOUS
 10
341.84763807
 20
231.2831950068
 11
341.8563776292
 21
231.2637674808
  0
LINE
  5
2B9
100
AcDbEntity
  8
0
100
AcDbLine
 62
7
  6
CONTINUOUS
 10
341.6262319939
 20
231.7706314684
 11
341.5773452478
 21
231.8797706267
  0
LWPOLYLINE
  5
2BA
100
AcDbEntity
  8
0
100
AcDbPolyline
 62
7
  6
CONTINUOUS
 90
3
 70
0
 10
341.5773436493
 20
231.8797742059
 10
341.5258035938
 20
231.9955545793
 10
341.473105079
 20
232.1147357723
  0
LWPOLYLINE
  5
2BB
100
AcDbEntity
  8
0
100
AcDbPolyline
 62
7
  6
CONTINUOUS
 90
3
 70
0
 10
341.4731066637
 20
232.1147321757
 10
341.4197171043
 20
232.2363414213
 10
341.3654244241
 20
232.3609484768
  0
LINE
  5
2BC
100
AcDbEntity
  8
0
100
AcDbLine
 62
7
  6
CONTINUOUS
 10
341.3654229107
 20
232.3609519637
 11
341.3106021379
 21
232.4877870315
  0
LWPOLYLINE
  5
2BD
100
AcDbEntity
  8
0
100
AcDbPolyline
 62
7
  6
CONTINUOUS
 90
3
 70
0
 10
341.3106036041
 20
232.4877836251
 10
341.255558104
 20
232.6162251027
 10
341.2002102563
 20
232.746535515
  0
LWPOLYLINE
  5
2BE
100
AcDbEntity
  8
0
100
AcDbPolyline
 62
7
  6
CONTINUOUS
 90
4
 70
0
 10
341.2002088923
 20
232.7465387415
 10
341.1443692571
 20
232.879262693
 10
341.0882868974
 20
233.0139148205
 10
341.0319877827
 20
233.1505404984
  0
LINE
  5
2BF
100
AcDbEntity
  8
0
100
AcDbLine
 62
7
  6
CONTINUOUS
 10
341.0319889855
 20
233.1505375632
 11
340.9750304382
 21
233.2903480956
  0
LWPOLYLINE
  5
2C0
100
AcDbEntity
  8
0
100
AcDbPolyline
 62
7
  6
CONTINUOUS
 90
7
 70
0
 10
340.9750292895
 20
233.290350932
 10
340.917730232
 20
233.4327217271
 10
340.860145732
 20
233.577675389
 10
340.8015909204
 20
233.7271487375
 10
340.7424953398
 20
233.8803001084
 10
340.6829739594
 20
234.0370875703
 10
340.6221219302
 20
234.2002422222
  0
LWPOLYLINE
  5
2C1
100
AcDbEntity
  8
0
100
AcDbPolyline
 62
40
  6
CONTINUOUS
 90
4
 70
0
 10
321.4343106855
 20
316.7042328935
 10
321.4335804084
 20
317.2042327418
 10
321.433580578
 20
317.7042330457
 10
321.4343111945
 20
318.2042328935
  0
LWPOLYLINE
  5
2C2
100
AcDbEntity
  8
0
100
AcDbPolyline
 62
40
  6
CONTINUOUS
 90
81
 70
0
 10
321.6361918705
 20
317.204232742
 10
321.6369947039
 20
316.6356004693
 10
321.6369106183
 20
316.5670704473
 10
321.6366709924
 20
316.498747377
 10
321.6362765183
 20
316.4307358076
 10
321.6357278882
 20
316.3631402882
 10
321.6350257942
 20
316.296065368
 10
321.6341709285
 20
316.2296155961
 10
321.6331639833
 20
316.1638955218
 10
321.6320059624
 20
316.0990081558
 10
321.6306991161
 20
316.0350503559
 10
321.6292460064
 20
315.9721174419
 10
321.6276491953
 20
315.910304733
 10
321.6259112447
 20
315.8497075491
 10
321.6240347166
 20
315.7904212094
 10
321.6220221729
 20
315.7325410337
 10
321.6198761756
 20
315.6761623414
 10
321.617599551
 20
315.6213770948
 10
321.6151961832
 20
315.5682638269
 10
321.6126702203
 20
315.5168977132
 10
321.6100258107
 20
315.4673539295
 10
321.6072671028
 20
315.4197076514
 10
321.6043982448
 20
315.3740340546
 10
321.6014233851
 20
315.3304083147
 10
321.598346672
 20
315.2889056074
 10
321.5951724549
 20
315.2495967138
 10
321.5919058873
 20
315.2125348371
 10
321.588552324
 20
315.177768786
 10
321.5851171196
 20
315.145347369
 10
321.5816056288
 20
315.1153193948
 10
321.5780232063
 20
315.0877336721
 10
321.5743752068
 20
315.0626390095
 10
321.5706669848
 20
315.0400842157
 10
321.566904015
 20
315.0201128155
 10
321.5630922511
 20
315.0027471992
 10
321.5592377667
 20
314.988004473
 10
321.5553466354
 20
314.9759017435
 10
321.5514249309
 20
314.966456117
 10
321.5474787268
 20
314.9596847
 10
321.5435140966
 20
314.9556045988
 10
321.5395371141
 20
314.9542329199
 10
321.5355538685
 20
314.9555811074
 10
321.5315705117
 20
314.9596379563
 10
321.5275932117
 20
314.9663865995
 10
321.5236281359
 20
314.9758101698
 10
321.5196814522
 20
314.9878917999
 10
321.5157593282
 20
315.0026146227
 10
321.5118679317
 20
315.0199617709
 10
321.5080134303
 20
315.0399163773
 10
321.5042018983
 20
315.0624562663
 10
321.5004390362
 20
315.0875380275
 10
321.496730451
 20
315.1151129425
 10
321.4930817498
 20
315.1451322926
 10
321.4894985396
 20
315.1775473591
 10
321.4859864275
 20
315.2123094233
 10
321.4825510204
 20
315.2493697666
 10
321.4791979255
 20
315.2886796703
 10
321.4759325699
 20
315.330185966
 10
321.4727596612
 20
315.3738176869
 10
321.4696837271
 20
315.419499416
 10
321.4667092955
 20
315.4671557367
 10
321.4638408941
 20
315.5167112322
 10
321.4610830506
 20
315.5680904859
 10
321.4584402929
 20
315.621218081
 10
321.4559171485
 20
315.6760186008
 10
321.4535178915
 20
315.7324132562
 10
321.4512457804
 20
315.7903097692
 10
321.4491038198
 20
315.8496124893
 10
321.4470950145
 20
315.9102257663
 10
321.4452223691
 20
315.9720539496
 10
321.4434888884
 20
316.035001389
 10
321.4418975769
 20
316.098972434
 10
321.4404514394
 20
316.1638714341
 10
321.4391531711
 20
316.229601257
 10
321.438004229
 20
316.2960588411
 10
321.4370057605
 20
316.363139643
 10
321.4361589132
 20
316.430739119
 10
321.4354648345
 20
316.4987527256
 10
321.4349246721
 20
316.5670759193
 10
321.4345395732
 20
316.6356041564
 10
321.4343106855
 20
316.7042328935
  0
LWPOLYLINE
  5
2C3
100
AcDbEntity
  8
0
100
AcDbPolyline
 62
7
  6
CONTINUOUS
 90
6
 70
0
 10
320.9603924613
 20
320.1176155497
 10
320.9603907574
 20
314.7908374426
 10
321.0431261077
 20
309.457875569
 10
321.2086468822
 20
304.1153504426
 10
321.4567700481
 20
298.7688707923
 10
321.7873443112
 20
293.4195638559
  0
LWPOLYLINE
  5
2C4
100
AcDbEntity
  8
0
100
AcDbPolyline
 62
40
  6
CONTINUOUS
 90
3
 70
0
 10
321.63699526
 20
318.2728551018
 10
321.6361920403
 20
317.7042330462
 10
321.6361918705
 20
317.204232742
  0
LWPOLYLINE
  5
2C5
100
AcDbEntity
  8
0
100
AcDbPolyline
 62
40
  6
CONTINUOUS
 90
4
 70
0
 10
321.0453155317
 20
318.6542328929
 10
321.0434477616
 20
317.8542335144
 10
321.0434474904
 20
317.0542322725
 10
321.0453147184
 20
316.2542328929
  0
LWPOLYLINE
  5
2C6
100
AcDbEntity
  8
0
100
AcDbPolyline
 62
40
  6
CONTINUOUS
 90
80
 70
0
 10
321.4343111945
 20
318.2042328935
 10
321.4345401317
 20
318.2728624554
 10
321.4349252819
 20
318.341391368
 10
321.4354654972
 20
318.4097150947
 10
321.4361596296
 20
318.477729099
 10
321.4370065313
 20
318.5453288443
 10
321.4380050546
 20
318.612409794
 10
321.4391540513
 20
318.6788674115
 10
321.4404523738
 20
318.7445971604
 10
321.4418985642
 20
318.8094959835
 10
321.4434899252
 20
318.8734667427
 10
321.4452234493
 20
318.9364137791
 10
321.4470961292
 20
318.9982414342
 10
321.4491049576
 20
319.0588540491
 10
321.4512469273
 20
319.1181559653
 10
321.4535190308
 20
319.1760515239
 10
321.4559182608
 20
319.2324450663
 10
321.4584413575
 20
319.2872443197
 10
321.4610840513
 20
319.3403705542
 10
321.4638418199
 20
319.3917484262
 10
321.4667101411
 20
319.4413025916
 10
321.4696844929
 20
319.4889577067
 10
321.4727603529
 20
319.5346384275
 10
321.4759331991
 20
319.5782694103
 10
321.4791985092
 20
319.6197753112
 10
321.48255158
 20
319.6590852136
 10
321.4859869835
 20
319.6961459104
 10
321.489499111
 20
319.7309086221
 10
321.4930823533
 20
319.7633245689
 10
321.4967311016
 20
319.7933449711
 10
321.5004397468
 20
319.820921049
 10
321.5042026801
 20
319.8460040229
 10
321.5080142924
 20
319.8685451132
 10
321.5118688822
 20
319.8885008533
 10
321.5157603766
 20
319.9058490302
 10
321.5196826106
 20
319.9205727438
 10
321.5236294185
 20
319.9326550943
 10
321.5275946352
 20
319.9420791818
 10
321.5315720953
 20
319.9488281063
 10
321.5355556335
 20
319.9528849679
 10
321.5395390843
 20
319.9542328667
 10
321.5435162965
 20
319.952860573
 10
321.5474811751
 20
319.948779538
 10
321.5514276392
 20
319.9420068831
 10
321.5553496078
 20
319.9325597296
 10
321.5592409999
 20
319.9204551991
 10
321.5630957347
 20
319.9057104128
 10
321.5669077312
 20
319.8883424922
 10
321.5706709083
 20
319.8683685586
 10
321.5743793067
 20
319.845811015
 10
321.5780274527
 20
319.8207133904
 10
321.5816099939
 20
319.7931244951
 10
321.5851215782
 20
319.7630931395
 10
321.5885568534
 20
319.7306681342
 10
321.591910467
 20
319.6958982896
 10
321.595177067
 20
319.658832416
 10
321.5983513011
 20
319.619519324
 10
321.6014280171
 20
319.5780122388
 10
321.6044028637
 20
319.5343820445
 10
321.6072716895
 20
319.4887040402
 10
321.6100303432
 20
319.441053525
 10
321.6126746735
 20
319.3915057978
 10
321.6152005292
 20
319.3401361576
 10
321.6176037588
 20
319.2870199035
 10
321.6198802112
 20
319.2322323345
 10
321.6220260009
 20
319.1758520872
 10
321.6240383067
 20
319.1179711487
 10
321.6259145729
 20
319.0586848438
 10
321.6276522442
 20
318.9980884973
 10
321.6292487652
 20
318.9362774338
 10
321.6307015803
 20
318.8733469782
 10
321.6320081342
 20
318.8093924551
 10
321.6331658714
 20
318.7445091894
 10
321.6341725476
 20
318.6787940401
 10
321.6350271637
 20
318.6123500039
 10
321.6357290316
 20
318.5452816117
 10
321.6362774632
 20
318.4776933944
 10
321.6366717705
 20
318.409689883
 10
321.6369112654
 20
318.3413756085
 10
321.63699526
 20
318.2728551018
  0
LWPOLYLINE
  5
2C7
100
AcDbEntity
  8
0
100
AcDbPolyline
 62
7
  6
CONTINUOUS
 90
10
 70
0
 10
332.6203356271
 20
224.7557193091
 10
333.624060798
 20
224.6994748683
 10
334.627672451
 20
224.6572987635
 10
335.6311707427
 20
224.6291862325
 10
336.6344747038
 20
224.6151330859
 10
337.6376656369
 20
224.6151317289
 10
338.6409870554
 20
224.6291825246
 10
339.6445201215
 20
224.6572937937
 10
340.6481836616
 20
224.6994704515
 10
341.6519775523
 20
224.7557179852
  0
LWPOLYLINE
  5
2C8
100
AcDbEntity
  8
0
100
AcDbPolyline
 62
7
  6
CONTINUOUS
 90
8
 70
0
 10
340.622122754
 20
234.2002399926
 10
340.5604879515
 20
234.3687176755
 10
340.4983255892
 20
234.5422417718
 10
340.4346556669
 20
234.7241008446
 10
340.3701583016
 20
234.913014275
 10
340.3052305031
 20
235.1084416787
 10
340.2389090822
 20
235.3140392978
 10
340.171830509
 20
235.5286731991
  0
LINE
  5
2C9
100
AcDbEntity
  8
0
100
AcDbLine
 62
7
  6
CONTINUOUS
 10
340.1718301319
 20
235.5286744256
 11
340.1044753524
 21
235.7514382278
  0
LINE
  5
2CA
100
AcDbEntity
  8
0
100
AcDbLine
 62
7
  6
CONTINUOUS
 10
340.1044756579
 20
235.7514372004
 11
340.0359737736
 21
235.9857197867
  0
LWPOLYLINE
  5
2CB
100
AcDbEntity
  8
0
100
AcDbPolyline
 62
7
  6
CONTINUOUS
 90
4
 70
0
 10
340.0359735423
 20
235.9857205907
 10
339.9662145925
 20
236.2321548712
 10
339.8958777422
 20
236.4888613318
 10
339.8259140193
 20
236.7549339648
  0
LWPOLYLINE
  5
2CC
100
AcDbEntity
  8
0
100
AcDbPolyline
 62
7
  6
CONTINUOUS
 90
13
 70
0
 10
321.7873462709
 20
293.4195639934
 10
321.7954151903
 20
293.3584070584
 10
321.8112831692
 20
293.2977057031
 10
321.8348544947
 20
293.238994357
 10
321.8653472045
 20
293.1842025953
 10
321.902070288
 20
293.1341229311
 10
321.9450745828
 20
293.0886489896
 10
321.9934232723
 20
293.048903695
 10
322.0459310982
 20
293.0157439371
 10
322.1027074847
 20
292.9891266258
 10
322.1629137292
 20
292.9696861907
 10
322.2245706476
 20
292.9580687939
 10
322.2861407918
 20
292.9542634351
  0
LWPOLYLINE
  5
2CD
100
AcDbEntity
  8
0
100
AcDbPolyline
 62
7
  6
CONTINUOUS
 90
14
 70
0
 10
332.3861185616
 20
225.0052488495
 10
332.3862184491
 20
224.9844442322
 10
332.3866982014
 20
224.9632628135
 10
332.3878890378
 20
224.9421945761
 10
332.3902120476
 20
224.9218055667
 10
332.3941720703
 20
224.9028852147
 10
332.4002358825
 20
224.8862351499
 10
332.4091659085
 20
224.8717262389
 10
332.4211431321
 20
224.8600374963
 10
332.4345851787
 20
224.8509373642
 10
332.4478680495
 20
224.8433786146
 10
332.4609517749
 20
224.8362365173
 10
332.4737911715
 20
224.829032529
 10
332.4859217748
 20
224.8219952904
  0
LINE
  5
2CE
100
AcDbEntity
  8
0
100
AcDbLine
 62
7
  6
CONTINUOUS
 10
332.3861207096
 20
225.0052507234
 11
332.3861206085
 21
290.1042602569
  0
LWPOLYLINE
  5
2CF
100
AcDbEntity
  8
0
100
AcDbPolyline
 62
7
  6
CONTINUOUS
 90
25
 70
0
 10
341.6519775524
 20
224.7557179833
 10
341.6625593322
 20
224.757563452
 10
341.6735229049
 20
224.7611221195
 10
341.6848330182
 20
224.765133161
 10
341.6963967098
 20
224.7686560028
 10
341.7082198376
 20
224.7719835674
 10
341.7203964005
 20
224.7756366362
 10
341.7328348967
 20
224.7798122233
 10
341.7454687414
 20
224.7845686922
 10
341.7583830772
 20
224.7900434067
 10
341.7714694439
 20
224.7963302098
 10
341.7845590467
 20
224.8035178646
 10
341.7975932513
 20
224.8117849421
 10
341.8100088389
 20
224.8209706458
 10
341.8220773059
 20
224.8313626136
 10
341.8346243461
 20
224.8436539484
 10
341.8475392346
 20
224.8577047984
 10
341.8594251012
 20
224.8722506642
 10
341.8692360931
 20
224.8869201873
 10
341.876988981
 20
224.9034701727
 10
341.8821799818
 20
224.9237937219
 10
341.8847653307
 20
224.9457932767
 10
341.8858098495
 20
224.966946812
 10
341.8861526506
 20
224.9870719179
 10
341.8862072748
 20
231.1341186008
  0
LINE
  5
2D0
100
AcDbEntity
  8
0
100
AcDbLine
 62
7
  6
CONTINUOUS
 10
369.4011929279
 20
241.6330894949
 11
369.4694449947
 21
241.6190662244
  0
LWPOLYLINE
  5
2D1
100
AcDbEntity
  8
0
100
AcDbPolyline
 62
7
  6
CONTINUOUS
 90
9
 70
0
 10
368.9070227217
 20
241.9210880235
 10
368.9497435792
 20
241.8782991863
 10
368.9958306732
 20
241.8374278605
 10
369.0452561694
 20
241.7987818911
 10
369.0977903077
 20
241.7627908106
 10
369.1532788317
 20
241.7297731196
 10
369.2116298887
 20
241.6999907645
 10
369.2726370676
 20
241.6737526827
 10
369.3361133741
 20
241.6513354392
  0
LWPOLYLINE
  5
2D2
100
AcDbEntity
  8
0
100
AcDbPolyline
 62
7
  6
CONTINUOUS
 90
31
 70
0
 10
341.8861938335
 20
231.1340360207
 10
341.8859994343
 20
231.143608634
 10
341.8854776464
 20
231.1529097873
 10
341.8846903573
 20
231.1619326058
 10
341.8836951366
 20
231.1706559992
 10
341.8825403782
 20
231.1790911914
 10
341.8812628276
 20
231.1872790487
 10
341.8798996991
 20
231.1952167678
 10
341.8784773943
 20
231.2028978583
 10
341.8769980633
 20
231.2103552174
 10
341.8754697632
 20
231.2175827854
 10
341.8739004495
 20
231.2245777657
 10
341.8722888362
 20
231.2313754977
 10
341.8706398175
 20
231.2379797503
 10
341.8689624277
 20
231.2443777299
 10
341.8672601039
 20
231.2505783446
 10
341.8655472884
 20
231.2565516645
 10
341.8638236448
 20
231.2623212313
 10
341.862068859
 20
231.2679696108
 10
341.8602681266
 20
231.2735501318
 10
341.858448358
 20
231.278985639
 10
341.8566515122
 20
231.2841661402
 10
341.8549406904
 20
231.2889367617
 10
341.8532643355
 20
231.2934658465
 10
341.8514940407
 20
231.2980991295
 10
341.8495321289
 20
231.3030607817
 10
341.8475018272
 20
231.3080088841
 10
341.845600924
 20
231.3124722172
 10
341.8439452195
 20
231.3162263694
 10
341.8424155697
 20
231.3195827058
 10
341.8407951791
 20
231.3230171951
  0
LINE
  5
2D3
100
AcDbEntity
  8
0
100
AcDbLine
 62
7
  6
CONTINUOUS
 10
341.8862071832
 20
290.1042365815
 11
341.8862072529
 21
245.2655181697
  0
LWPOLYLINE
  5
2D4
100
AcDbEntity
  8
0
100
AcDbPolyline
 62
7
  6
CONTINUOUS
 90
25
 70
0
 10
341.8861857635
 20
290.1042365817
 10
341.8929740807
 20
290.2460242023
 10
341.9129777938
 20
290.3937991006
 10
341.9456262259
 20
290.5461797801
 10
341.9901236628
 20
290.7011195172
 10
342.0459908196
 20
290.8581400007
 10
342.1136058158
 20
291.0183340074
 10
342.192648741
 20
291.180352723
 10
342.2829856889
 20
291.3431672049
 10
342.3862433233
 20
291.508191209
 10
342.5037605854
 20
291.6751162123
 10
342.6348950308
 20
291.8402419806
 10
342.7785012475
 20
291.9996479907
 10
342.936153539
 20
292.1526815199
 10
343.1054811459
 20
292.2962269035
 10
343.2778925584
 20
292.4242377575
 10
343.4480815437
 20
292.5352178456
 10
343.6171715313
 20
292.6319751585
 10
343.7856950899
 20
292.7160124278
 10
343.9522202657
 20
292.7873766923
 10
344.115497386
 20
292.8460479155
 10
344.2765561843
 20
292.8925674969
 10
344.4348864809
 20
292.9265622701
 10
344.5884967752
 20
292.947290711
 10
344.7361566206
 20
292.9542668161
  0
LINE
  5
2D5
100
AcDbEntity
  8
0
100
AcDbLine
 62
7
  6
CONTINUOUS
 10
372.0338173197
 20
241.626414549
 11
370.5163676152
 21
241.573424035
  0
LINE
  5
2D6
100
AcDbEntity
  8
0
100
AcDbLine
 62
7
  6
CONTINUOUS
 10
382.0163677294
 20
242.6442330005
 11
372.8441348804
 21
242.4607883274
  0
LINE
  5
2D7
100
AcDbEntity
  8
DATUM_AXIS
100
AcDbLine
 62
7
  6
CONTINUOUS
 10
372.8441381383
 20
242.4607883922
 11
382.0163677294
 21
242.6442330001
  0
LINE
  5
2D8
100
AcDbEntity
  8
0
100
AcDbLine
 62
7
  6
CONTINUOUS
 10
391.5898901396
 20
239.7042330159
 11
382.5163676617
 21
239.704233
  0
LINE
  5
2D9
100
AcDbEntity
  8
0
100
AcDbLine
 62
7
  6
CONTINUOUS
 10
370.5163676152
 20
241.573424035
 11
369.6031287924
 21
241.6053150359
  0
LINE
  5
2DA
100
AcDbEntity
  8
0
100
AcDbLine
 62
7
  6
CONTINUOUS
 10
369.5383246072
 20
241.609678947
 11
369.6030790698
 21
241.6053159017
  0
LINE
  5
2DB
100
AcDbEntity
  8
0
100
AcDbLine
 62
7
  6
CONTINUOUS
 10
369.4689539347
 20
241.6190709383
 11
369.538661548
 21
241.6097245454
  0
LINE
  5
2DC
100
AcDbEntity
  8
0
100
AcDbLine
 62
7
  6
CONTINUOUS
 10
382.0163676608
 20
240.2042329991
 11
382.5163676617
 21
239.704233
  0
LWPOLYLINE
  5
2DD
100
AcDbEntity
  8
0
100
AcDbPolyline
 62
7
  6
CONTINUOUS
 90
11
 70
0
 10
368.8677895441
 20
241.9653640427
 10
368.9058136732
 20
241.922296582
 10
368.9485329972
 20
241.8793632105
 10
368.9946350344
 20
241.8383465344
 10
369.0440923689
 20
241.7995565833
 10
369.0966749508
 20
241.7634257834
 10
369.1522280948
 20
241.7302749918
 10
369.2106600924
 20
241.7003678993
 10
369.2717645464
 20
241.6740154631
 10
369.3353536088
 20
241.6514965569
 10
369.4018253797
 20
241.6330151105
  0
LINE
  5
2DE
100
AcDbEntity
  8
0
100
AcDbLine
 62
7
  6
CONTINUOUS
 10
368.8318011485
 20
242.0110667265
 11
368.8676740371
 21
241.9654943964
  0
LWPOLYLINE
  5
2DF
100
AcDbEntity
  8
0
100
AcDbPolyline
 62
7
  6
CONTINUOUS
 90
3
 70
0
 10
368.8306399636
 20
242.012555485
 10
368.8664819073
 20
241.9668451179
 10
368.9070227217
 20
241.9210880235
  0
LINE
  5
2E0
100
AcDbEntity
  8
0
100
AcDbLine
 62
7
  6
CONTINUOUS
 10
368.7981943729
 20
242.0591695331
 11
368.8318011485
 21
242.0110667265
  0
LINE
  5
2E1
100
AcDbEntity
  8
0
100
AcDbLine
 62
7
  6
CONTINUOUS
 10
368.7690754536
 20
242.1063902586
 11
368.7993124143
 21
242.0575470999
  0
LINE
  5
2E2
100
AcDbEntity
  8
0
100
AcDbLine
 62
7
  6
CONTINUOUS
 10
368.7433099693
 20
242.1537006384
 11
368.7701387782
 21
242.1046405022
  0
LINE
  5
2E3
100
AcDbEntity
  8
0
100
AcDbLine
 62
7
  6
CONTINUOUS
 10
368.7206150473
 20
242.2011102558
 11
368.7443075661
 21
242.1518337721
  0
LINE
  5
2E4
100
AcDbEntity
  8
0
100
AcDbLine
 62
7
  6
CONTINUOUS
 10
368.7009356441
 20
242.2481903892
 11
368.7215407306
 21
242.1991293722
  0
LINE
  5
2E5
100
AcDbEntity
  8
0
100
AcDbLine
 62
7
  6
CONTINUOUS
 10
368.6844127934
 20
242.2937680649
 11
368.7017818898
 21
242.2461055148
  0
LINE
  5
2E6
100
AcDbEntity
  8
0
100
AcDbLine
 62
7
  6
CONTINUOUS
 10
368.6706816478
 20
242.3377535181
 11
368.6851680953
 21
242.2916140948
  0
LINE
  5
2E7
100
AcDbEntity
  8
0
100
AcDbLine
 62
7
  6
CONTINUOUS
 10
368.6594183776
 20
242.3800244662
 11
368.6713378372
 21
242.33557159
  0
LINE
  5
2E8
100
AcDbEntity
  8
0
100
AcDbLine
 62
7
  6
CONTINUOUS
 10
368.6286414957
 20
242.5742160215
 11
368.6313015442
 21
242.5459732225
  0
LINE
  5
2E9
100
AcDbEntity
  8
0
100
AcDbLine
 62
7
  6
CONTINUOUS
 10
368.6266153828
 20
242.6003033008
 11
368.6288017578
 21
242.5724335226
  0
LINE
  5
2EA
100
AcDbEntity
  8
0
100
AcDbLine
 62
7
  6
CONTINUOUS
 10
382.016367695
 20
262.2642329968
 11
373.0063696212
 21
262.4444329424
  0
LINE
  5
2EB
100
AcDbEntity
  8
DATUM_AXIS
100
AcDbLine
 62
7
  6
CONTINUOUS
 10
373.0063696212
 20
262.4444329428
 11
382.016367695
 21
262.2642329972
  0
LINE
  5
2EC
100
AcDbEntity
  8
0
100
AcDbLine
 62
7
  6
CONTINUOUS
 10
372.0338173672
 20
264.4012424682
 11
370.5163676183
 21
264.4542329785
  0
LINE
  5
2ED
100
AcDbEntity
  8
0
100
AcDbLine
 62
7
  6
CONTINUOUS
 10
368.650537252
 20
242.4193890925
 11
368.6599751599
 21
242.3778460916
  0
LINE
  5
2EE
100
AcDbEntity
  8
0
100
AcDbLine
 62
7
  6
CONTINUOUS
 10
368.6437061601
 20
242.4553120017
 11
368.6510000254
 21
242.4172469902
  0
LINE
  5
2EF
100
AcDbEntity
  8
0
100
AcDbLine
 62
7
  6
CONTINUOUS
 10
368.6384138321
 20
242.4884387918
 11
368.6440811699
 21
242.4532541476
  0
LINE
  5
2F0
100
AcDbEntity
  8
0
100
AcDbLine
 62
7
  6
CONTINUOUS
 10
368.6342815074
 20
242.5193493207
 11
368.6387119991
 21
242.4864926187
  0
LINE
  5
2F1
100
AcDbEntity
  8
0
100
AcDbLine
 62
7
  6
CONTINUOUS
 10
368.6311075319
 20
242.5477806352
 11
368.6345196407
 21
242.5174922921
  0
LINE
  5
2F2
100
AcDbEntity
  8
0
100
AcDbLine
 62
7
  6
CONTINUOUS
 10
368.6249458257
 20
242.6263707841
 11
368.626748365
 21
242.5985217272
  0
LINE
  5
2F3
100
AcDbEntity
  8
0
100
AcDbLine
 62
7
  6
CONTINUOUS
 10
368.6235869121
 20
242.6523857851
 11
368.6250564819
 21
242.6245647462
  0
LINE
  5
2F4
100
AcDbEntity
  8
0
100
AcDbLine
 62
7
  6
CONTINUOUS
 10
368.6425864543
 20
261.0142271319
 11
368.6490742798
 21
260.8727785433
  0
LINE
  5
2F5
100
AcDbEntity
  8
0
100
AcDbLine
 62
7
  6
CONTINUOUS
 10
368.6424043501
 20
261.0182467371
 11
368.6488711905
 21
260.8769256957
  0
LINE
  5
2F6
100
AcDbEntity
  8
0
100
AcDbLine
 62
7
  6
CONTINUOUS
 10
368.6488711905
 20
260.8769256957
 11
368.6543591198
 21
260.7626638796
  0
LWPOLYLINE
  5
2F7
100
AcDbEntity
  8
0
100
AcDbPolyline
 62
7
  6
CONTINUOUS
 90
7
 70
0
 10
368.6543591198
 20
260.7626638796
 10
368.6881567551
 20
260.0106937605
 10
368.7168285805
 20
259.1821957767
 10
368.7358957721
 20
258.3697075533
 10
368.7453735521
 20
257.5745831453
 10
368.7452964253
 20
256.7981374962
 10
368.7357187903
 20
256.0416608511
  0
LWPOLYLINE
  5
2F8
100
AcDbEntity
  8
0
100
AcDbPolyline
 62
7
  6
CONTINUOUS
 90
7
 70
0
 10
368.653478831
 20
260.7823711577
 10
368.6883916754
 20
260.0049489076
 10
368.7169970519
 20
259.1765309603
 10
368.7359969183
 20
258.3641417746
 10
368.7454068594
 20
257.5691373239
 10
368.7452618879
 20
256.7928311239
 10
368.7356168751
 20
256.0365125577
  0
LINE
  5
2F9
100
AcDbEntity
  8
0
100
AcDbLine
 62
7
  6
CONTINUOUS
 10
368.6224534417
 20
242.6794585353
 11
368.6236789443
 21
242.6505329627
  0
LINE
  5
2FA
100
AcDbEntity
  8
0
100
AcDbLine
 62
7
  6
CONTINUOUS
 10
368.631636078
 20
261.2881446346
 11
368.6367455458
 21
261.15308118
  0
LWPOLYLINE
  5
2FB
100
AcDbEntity
  8
0
100
AcDbPolyline
 62
7
  6
CONTINUOUS
 90
3
 70
0
 10
368.6315018864
 20
261.2918109437
 10
368.6365868827
 20
261.1569342739
 10
368.6425864543
 20
261.0142271319
  0
LINE
  5
2FC
100
AcDbEntity
  8
0
100
AcDbLine
 62
7
  6
CONTINUOUS
 10
368.627226139
 20
261.4218175758
 11
368.631636078
 21
261.2881446346
  0
LINE
  5
2FD
100
AcDbEntity
  8
0
100
AcDbLine
 62
7
  6
CONTINUOUS
 10
368.6215248228
 20
242.7079526661
 11
368.6225285531
 21
242.677545249
  0
LINE
  5
2FE
100
AcDbEntity
  8
0
100
AcDbLine
 62
7
  6
CONTINUOUS
 10
368.6238299443
 20
261.5461987607
 11
368.6273343939
 21
261.4183601876
  0
LINE
  5
2FF
100
AcDbEntity
  8
0
100
AcDbLine
 62
7
  6
CONTINUOUS
 10
368.6207966733
 20
242.7378990159
 11
368.6215840473
 21
242.7059721456
  0
LINE
  5
300
100
AcDbEntity
  8
0
100
AcDbLine
 62
7
  6
CONTINUOUS
 10
368.6213965393
 20
261.6640810601
 11
368.6239112469
 21
261.5429624801
  0
LINE
  5
301
100
AcDbEntity
  8
0
100
AcDbLine
 62
7
  6
CONTINUOUS
 10
368.6202552581
 20
242.7699320388
 11
368.6208412295
 21
242.7358442036
  0
LINE
  5
302
100
AcDbEntity
  8
0
100
AcDbLine
 62
7
  6
CONTINUOUS
 10
368.6200414704
 20
261.7728893386
 11
368.6214491467
 21
261.661078731
  0
LINE
  5
303
100
AcDbEntity
  8
0
100
AcDbLine
 62
7
  6
CONTINUOUS
 10
372.5164022656
 20
242.3359184704
 11
372.5163711541
 21
242.3387719109
  0
LINE
  5
304
100
AcDbEntity
  8
0
100
AcDbLine
 62
7
  6
CONTINUOUS
 10
368.6199041927
 20
242.8044030991
 11
368.6202859629
 21
242.7677886911
  0
LINE
  5
305
100
AcDbEntity
  8
0
100
AcDbLine
 62
7
  6
CONTINUOUS
 10
368.6197478539
 20
261.8441925878
 11
368.6200473519
 21
261.7714586329
  0
LINE
  5
306
100
AcDbEntity
  8
0
100
AcDbLine
 62
7
  6
CONTINUOUS
 10
368.6197477424
 20
242.8501980021
 11
368.6199214284
 21
242.8021543256
  0
LINE
  5
307
100
AcDbEntity
  8
0
100
AcDbLine
 62
7
  6
CONTINUOUS
 10
367.0163675626
 20
293.4542237531
 11
367.0163675243
 21
318.143385633
  0
LINE
  5
308
100
AcDbEntity
  8
0
100
AcDbLine
 62
7
  6
CONTINUOUS
 10
368.6197475178
 20
261.8438201188
 11
368.6197474587
 21
263.4223127644
  0
LINE
  5
309
100
AcDbEntity
  8
0
100
AcDbLine
 62
7
  6
CONTINUOUS
 10
370.5163677016
 20
241.573503461
 11
370.5163676183
 21
264.4542329785
  0
LINE
  5
30A
100
AcDbEntity
  8
0
100
AcDbLine
 62
7
  6
CONTINUOUS
 10
372.0163674829
 20
341.6542329774
 11
372.0163675678
 21
293.2542329794
  0
LINE
  5
30B
100
AcDbEntity
  8
0
100
AcDbLine
 62
7
  6
CONTINUOUS
 10
372.5163676193
 20
263.9015470551
 11
372.5163676995
 21
259.9115267397
  0
LINE
  5
30C
100
AcDbEntity
  8
0
100
AcDbLine
 62
7
  6
CONTINUOUS
 10
372.5163677355
 20
255.1150771676
 11
372.5163677006
 21
242.1261903466
  0
LWPOLYLINE
  5
30D
100
AcDbEntity
  8
0
100
AcDbPolyline
 62
7
  6
CONTINUOUS
 90
4
 70
0
 10
368.7357187903
 20
256.0416608511
 10
368.7165476919
 20
255.3014369178
 10
368.6881497916
 20
254.5887789089
 10
368.6540958786
 20
253.9573818464
  0
LWPOLYLINE
  5
30E
100
AcDbEntity
  8
0
100
AcDbPolyline
 62
7
  6
CONTINUOUS
 90
3
 70
0
 10
368.7167160144
 20
255.3064092128
 10
368.6883831543
 20
254.5935598109
 10
368.6641228396
 20
254.1432927485
  0
LWPOLYLINE
  5
30F
100
AcDbEntity
  8
0
100
AcDbPolyline
 62
7
  6
CONTINUOUS
 90
13
 70
0
 10
368.654099538
 20
253.9574318346
 10
368.65050324
 20
253.8961200659
 10
368.644898719
 20
253.7899909992
 10
368.6398593947
 20
253.680537987
 10
368.6353880373
 20
253.5681761723
 10
368.6314820334
 20
253.4532864399
 10
368.6281405056
 20
253.336264022
 10
368.6253628447
 20
253.2175188799
 10
368.6231457964
 20
253.0974505145
 10
368.6214869112
 20
252.9764732393
 10
368.62038242
 20
252.8550103834
 10
368.6198245507
 20
252.7335071044
 10
368.6197475474
 20
242.8501807365
  0
LINE
  5
310
100
AcDbEntity
  8
0
100
AcDbLine
 62
7
  6
CONTINUOUS
 10
370.5163676183
 20
264.4542329785
 11
369.5848479602
 21
264.4217035936
  0
LINE
  5
311
100
AcDbEntity
  8
0
100
AcDbLine
 62
7
  6
CONTINUOUS
 10
391.4411774158
 20
265.2042330146
 11
382.516367617
 21
265.204232999
  0
LINE
  5
312
100
AcDbEntity
  8
0
100
AcDbLine
 62
7
  6
CONTINUOUS
 10
391.4284153573
 20
266.4882177964
 11
391.4284250288
 21
266.4882107687
  0
LINE
  5
313
100
AcDbEntity
  8
0
100
AcDbLine
 62
7
  6
CONTINUOUS
 10
382.0163676608
 20
240.2042329991
 11
382.0163676178
 21
264.7042329974
  0
LINE
  5
314
100
AcDbEntity
  8
0
100
AcDbLine
 62
7
  6
CONTINUOUS
 10
382.5163676617
 20
239.704233
 11
382.516367617
 21
265.2042329995
  0
LINE
  5
315
100
AcDbEntity
  8
0
100
AcDbLine
 62
7
  6
CONTINUOUS
 10
366.9695214175
 20
318.3546947638
 11
356.0994947526
 21
341.6655420783
  0
LINE
  5
316
100
AcDbEntity
  8
0
100
AcDbLine
 62
7
  6
CONTINUOUS
 10
391.4284250288
 20
266.4882107687
 11
391.4328365362
 21
266.0656739101
  0
LWPOLYLINE
  5
317
100
AcDbEntity
  8
0
100
AcDbPolyline
 62
7
  6
CONTINUOUS
 90
3
 70
0
 10
391.4328365362
 20
266.0656739101
 10
391.4336216223
 20
265.9875173271
 10
391.4344833419
 20
265.9009828992
  0
LINE
  5
318
100
AcDbEntity
  8
0
100
AcDbLine
 62
7
  6
CONTINUOUS
 10
391.4344833419
 20
265.9009828992
 11
391.4375963903
 21
265.5818851921
  0
LINE
  5
319
100
AcDbEntity
  8
0
100
AcDbLine
 62
7
  6
CONTINUOUS
 10
391.4375963903
 20
265.5818851921
 11
391.4415744295
 21
265.1617361879
  0
LINE
  5
31A
100
AcDbEntity
  8
0
100
AcDbLine
 62
7
  6
CONTINUOUS
 10
391.4415744295
 20
265.1617361879
 11
391.4446653837
 21
264.8269437017
  0
LINE
  5
31B
100
AcDbEntity
  8
0
100
AcDbLine
 62
7
  6
CONTINUOUS
 10
391.4446653837
 20
264.8269437017
 11
391.4480051708
 21
264.4563072232
  0
LWPOLYLINE
  5
31C
100
AcDbEntity
  8
0
100
AcDbPolyline
 62
7
  6
CONTINUOUS
 90
3
 70
0
 10
391.4480051708
 20
264.4563072232
 10
391.4533190934
 20
263.8518130624
 10
391.455151574
 20
263.6391982874
  0
LINE
  5
31D
100
AcDbEntity
  8
0
100
AcDbLine
 62
7
  6
CONTINUOUS
 10
391.455151574
 20
263.6391982874
 11
391.4588475549
 21
263.2042487154
  0
LINE
  5
31E
100
AcDbEntity
  8
0
100
AcDbLine
 62
7
  6
CONTINUOUS
 10
391.4588475549
 20
263.2042487154
 11
391.4628422624
 21
262.7235780907
  0
LWPOLYLINE
  5
31F
100
AcDbEntity
  8
0
100
AcDbPolyline
 62
7
  6
CONTINUOUS
 90
10
 70
0
 10
391.593016058
 20
238.41147417
 10
391.6257602321
 20
234.3344574333
 10
391.661439202
 20
230.1685588369
 10
391.7001688803
 20
225.9140284032
 10
391.7420552795
 20
221.5723818399
 10
391.7872275742
 20
217.1429415944
 10
391.8358449666
 20
212.6227972524
 10
391.8880495296
 20
208.0114561637
 10
391.9439593035
 20
203.3108942431
 10
392.0037061731
 20
198.5220665455
  0
LINE
  5
320
100
AcDbEntity
  8
0
100
AcDbLine
 62
7
  6
CONTINUOUS
 10
391.4628422624
 20
262.7235780907
 11
391.467247701
 21
262.1828674058
  0
LINE
  5
321
100
AcDbEntity
  8
0
100
AcDbLine
 62
7
  6
CONTINUOUS
 10
391.467247701
 20
262.1828674058
 11
391.4722129502
 21
261.5599761834
  0
LINE
  5
322
100
AcDbEntity
  8
0
100
AcDbLine
 62
7
  6
CONTINUOUS
 10
391.4722129502
 20
261.5599761834
 11
391.4776916485
 21
260.8554003811
  0
LWPOLYLINE
  5
323
100
AcDbEntity
  8
0
100
AcDbPolyline
 62
7
  6
CONTINUOUS
 90
3
 70
0
 10
391.4776916485
 20
260.8554003811
 10
391.4837005873
 20
260.0625858545
 10
391.486919411
 20
259.6285458768
  0
LWPOLYLINE
  5
324
100
AcDbEntity
  8
0
100
AcDbPolyline
 62
7
  6
CONTINUOUS
 90
3
 70
0
 10
391.486919411
 20
259.6285458768
 10
391.493790665
 20
258.6811676302
 10
391.4974438539
 20
258.1647070722
  0
LINE
  5
325
100
AcDbEntity
  8
0
100
AcDbLine
 62
7
  6
CONTINUOUS
 10
391.4974438539
 20
258.1647070722
 11
391.505182753
 21
257.0417438247
  0
LINE
  5
326
100
AcDbEntity
  8
0
100
AcDbLine
 62
7
  6
CONTINUOUS
 10
391.505182753
 20
257.0417438247
 11
391.5134802732
 21
255.7902794992
  0
LINE
  5
327
100
AcDbEntity
  8
0
100
AcDbLine
 62
7
  6
CONTINUOUS
 10
391.3800025847
 20
291.1656413911
 11
391.3799986354
 21
291.1662451597
  0
LWPOLYLINE
  5
328
100
AcDbEntity
  8
0
100
AcDbPolyline
 62
7
  6
CONTINUOUS
 90
17
 70
0
 10
391.5134802732
 20
255.7902794992
 10
391.5222734188
 20
254.4028914163
 10
391.5268516532
 20
253.656105164
 10
391.5315099483
 20
252.8731034331
 10
391.5362712589
 20
252.049856336
 10
391.5411140185
 20
251.1898895039
 10
391.5459238292
 20
250.3046515914
 10
391.5507209523
 20
249.3878440565
 10
391.5554766185
 20
248.4484439088
 10
391.5599901341
 20
247.5222726547
 10
391.5641930648
 20
246.6202957166
 10
391.5681303154
 20
245.7381239978
 10
391.5717636756
 20
244.8891670625
 10
391.575062509
 20
244.0808212546
 10
391.578038482
 20
243.3136669071
 10
391.5807181198
 20
242.5904508189
 10
391.5830903441
 20
241.9161529293
  0
LINE
  5
329
100
AcDbEntity
  8
0
100
AcDbLine
 62
7
  6
CONTINUOUS
 10
391.4236953225
 20
267.7338505491
 11
391.4284153573
 21
266.4882177964
  0
LINE
  5
32A
100
AcDbEntity
  8
0
100
AcDbLine
 62
7
  6
CONTINUOUS
 10
391.419430219
 20
268.9157215687
 11
391.4236953225
 21
267.7338505491
  0
LINE
  5
32B
100
AcDbEntity
  8
0
100
AcDbLine
 62
7
  6
CONTINUOUS
 10
391.415582343
 20
270.0354381478
 11
391.419430219
 21
268.9157215687
  0
LINE
  5
32C
100
AcDbEntity
  8
0
100
AcDbLine
 62
7
  6
CONTINUOUS
 10
391.4121070268
 20
271.0975565432
 11
391.415582343
 21
270.0354381478
  0
LINE
  5
32D
100
AcDbEntity
  8
0
100
AcDbLine
 62
7
  6
CONTINUOUS
 10
391.5830903441
 20
241.9161529293
 11
391.5869541549
 21
240.7250725986
  0
LWPOLYLINE
  5
32E
100
AcDbEntity
  8
0
100
AcDbPolyline
 62
7
  6
CONTINUOUS
 90
3
 70
0
 10
391.4075145895
 20
272.5894876414
 10
391.408967454
 20
272.1054181558
 10
391.4121070268
 20
271.0975565432
  0
LINE
  5
32F
100
AcDbEntity
  8
0
100
AcDbLine
 62
7
  6
CONTINUOUS
 10
391.4048199872
 20
273.5209369041
 11
391.4075145895
 21
272.5894876414
  0
LINE
  5
330
100
AcDbEntity
  8
0
100
AcDbLine
 62
7
  6
CONTINUOUS
 10
391.5869541549
 20
240.7250725986
 11
391.5897504146
 21
239.7562722242
  0
LWPOLYLINE
  5
331
100
AcDbEntity
  8
0
100
AcDbPolyline
 62
7
  6
CONTINUOUS
 90
3
 70
0
 10
391.4012603124
 20
274.829482103
 10
391.4023872412
 20
274.4045451028
 10
391.4048199872
 20
273.5209369041
  0
LWPOLYLINE
  5
332
100
AcDbEntity
  8
0
100
AcDbPolyline
 62
7
  6
CONTINUOUS
 90
3
 70
0
 10
391.3982051956
 20
276.0394980517
 10
391.3991723757
 20
275.646519669
 10
391.4012603124
 20
274.829482103
  0
LWPOLYLINE
  5
333
100
AcDbEntity
  8
0
100
AcDbPolyline
 62
7
  6
CONTINUOUS
 90
3
 70
0
 10
391.5897504146
 20
239.7562722242
 10
391.5915840891
 20
239.0544750733
 10
391.5921518664
 20
238.8081163928
  0
LWPOLYLINE
  5
334
100
AcDbEntity
  8
0
100
AcDbPolyline
 62
7
  6
CONTINUOUS
 90
3
 70
0
 10
391.3955832609
 20
277.1587164273
 10
391.3964132837
 20
276.7951938266
 10
391.3982051956
 20
276.0394980517
  0
LWPOLYLINE
  5
335
100
AcDbEntity
  8
0
100
AcDbPolyline
 62
7
  6
CONTINUOUS
 90
3
 70
0
 10
391.3933332822
 20
278.1942206221
 10
391.3940455286
 20
277.8578602653
 10
391.3955832609
 20
277.1587164273
  0
LWPOLYLINE
  5
336
100
AcDbEntity
  8
0
100
AcDbPolyline
 62
7
  6
CONTINUOUS
 90
3
 70
0
 10
391.5921518664
 20
238.8081163928
 10
391.5930170673
 20
238.4276422444
 10
391.593016058
 20
238.41147417
  0
LWPOLYLINE
  5
337
100
AcDbEntity
  8
0
100
AcDbPolyline
 62
7
  6
CONTINUOUS
 90
3
 70
0
 10
391.3914027236
 20
279.1525045939
 10
391.3920138253
 20
278.8412033668
 10
391.3933332822
 20
278.1942206221
  0
LWPOLYLINE
  5
338
100
AcDbEntity
  8
0
100
AcDbPolyline
 62
7
  6
CONTINUOUS
 90
4
 70
0
 10
391.3892487261
 20
280.3202055856
 10
391.3897464929
 20
280.0395262502
 10
391.3902707268
 20
279.751354016
 10
391.3914027236
 20
279.1525045939
  0
LWPOLYLINE
  5
339
100
AcDbEntity
  8
0
100
AcDbPolyline
 62
7
  6
CONTINUOUS
 90
4
 70
0
 10
391.3874931672
 20
281.3741328
 10
391.3878989816
 20
281.1206520686
 10
391.3883258753
 20
280.8607563716
 10
391.3892487261
 20
280.3202055856
  0
LWPOLYLINE
  5
33A
100
AcDbEntity
  8
0
100
AcDbPolyline
 62
7
  6
CONTINUOUS
 90
5
 70
0
 10
391.3857494483
 20
282.5484919993
 10
391.3860631855
 20
282.3255425643
 10
391.386393689
 20
282.0966832977
 10
391.3867416037
 20
281.8619165084
 10
391.3874931672
 20
281.3741328
  0
LWPOLYLINE
  5
33B
100
AcDbEntity
  8
0
100
AcDbPolyline
 62
7
  6
CONTINUOUS
 90
5
 70
0
 10
391.3844010835
 20
283.5824131568
 10
391.3846437191
 20
283.3859883335
 10
391.3848991967
 20
283.1845123708
 10
391.3851680304
 20
282.977968973
 10
391.3857494483
 20
282.5484919993
  0
LWPOLYLINE
  5
33C
100
AcDbEntity
  8
0
100
AcDbPolyline
 62
7
  6
CONTINUOUS
 90
6
 70
0
 10
391.3831818998
 20
284.6615075161
 10
391.3833597519
 20
284.4928243512
 10
391.3835470688
 20
284.3198203024
 10
391.3837442314
 20
284.1424819111
 10
391.3839520084
 20
283.9604690102
 10
391.3844010835
 20
283.5824131568
  0
LWPOLYLINE
  5
33D
100
AcDbEntity
  8
0
100
AcDbPolyline
 62
7
  6
CONTINUOUS
 90
7
 70
0
 10
391.3821657234
 20
285.7297398819
 10
391.3822891373
 20
285.5885010735
 10
391.3824192601
 20
285.4435597
 10
391.3825563543
 20
285.2949189546
 10
391.382700702
 20
285.1425679111
 10
391.3828528683
 20
284.9862160825
 10
391.3831818998
 20
284.6615075161
  0
LINE
  5
33E
100
AcDbEntity
  8
0
100
AcDbLine
 62
7
  6
CONTINUOUS
 10
391.3799793445
 20
290.7687109724
 11
391.3821657234
 21
285.7297398819
  0
LINE
  5
33F
100
AcDbEntity
  8
0
100
AcDbLine
 62
7
  6
CONTINUOUS
 10
391.3799793445
 20
290.7687109724
 11
391.3799941021
 21
291.1704476239
  0
LINE
  5
340
100
AcDbEntity
  8
0
100
AcDbLine
 62
7
  6
CONTINUOUS
 10
391.4798751608
 20
305.3530797566
 11
391.4692322836
 21
303.6845409615
  0
LINE
  5
341
100
AcDbEntity
  8
0
100
AcDbLine
 62
7
  6
CONTINUOUS
 10
391.4692322836
 20
303.6845409615
 11
391.4549196313
 21
301.5230523988
  0
LINE
  5
342
100
AcDbEntity
  8
0
100
AcDbLine
 62
7
  6
CONTINUOUS
 10
391.4549196313
 20
301.5230523988
 11
391.4464690953
 21
300.2847095613
  0
LINE
  5
343
100
AcDbEntity
  8
0
100
AcDbLine
 62
7
  6
CONTINUOUS
 10
391.4464690953
 20
300.2847095613
 11
391.4319965419
 21
298.2197008864
  0
LINE
  5
344
100
AcDbEntity
  8
0
100
AcDbLine
 62
7
  6
CONTINUOUS
 10
391.4319965419
 20
298.2197008864
 11
391.4203748111
 21
296.6026700989
  0
LINE
  5
345
100
AcDbEntity
  8
0
100
AcDbLine
 62
7
  6
CONTINUOUS
 10
391.4203748111
 20
296.6026700989
 11
391.4073776752
 21
294.8283810805
  0
LINE
  5
346
100
AcDbEntity
  8
0
100
AcDbLine
 62
7
  6
CONTINUOUS
 10
391.4073776752
 20
294.8283810805
 11
391.3919424614
 21
292.7547727437
  0
LINE
  5
347
100
AcDbEntity
  8
0
100
AcDbLine
 62
7
  6
CONTINUOUS
 10
391.3919424614
 20
292.7547727437
 11
391.3807056299
 21
291.2592637163
  0
LWPOLYLINE
  5
348
100
AcDbEntity
  8
0
100
AcDbPolyline
 62
7
  6
CONTINUOUS
 90
3
 70
0
 10
391.3807056299
 20
291.2592637163
 10
391.3805555508
 20
291.2393394171
 10
391.3804309061
 20
291.2226576431
  0
LWPOLYLINE
  5
349
100
AcDbEntity
  8
0
100
AcDbPolyline
 62
7
  6
CONTINUOUS
 90
3
 70
0
 10
391.3804309061
 20
291.2226576431
 10
391.3800418287
 20
291.1714304073
 10
391.3800219848
 20
291.1681618397
  0
LWPOLYLINE
  5
34A
100
AcDbEntity
  8
0
100
AcDbPolyline
 62
7
  6
CONTINUOUS
 90
10
 70
0
 10
392.0037014232
 20
383.0150058532
 10
391.9449369785
 20
378.3067674113
 10
391.8898844156
 20
373.6839634066
 10
391.8384181337
 20
369.1475029997
 10
391.7904260507
 20
364.6992997997
 10
391.7457724436
 20
360.3388583343
 10
391.7043045897
 20
356.063322435
 10
391.6658990962
 20
351.8720242497
 10
391.6304552917
 20
347.76644619
 10
391.5978627002
 20
343.7468365827
  0
LWPOLYLINE
  5
34B
100
AcDbEntity
  8
0
100
AcDbPolyline
 62
7
  6
CONTINUOUS
 90
10
 70
0
 10
341.8094622364
 20
245.0652103252
 10
341.8250236558
 20
245.084050364
 10
341.8389539113
 20
245.1040228016
 10
341.8511983264
 20
245.1250230207
 10
341.8617164689
 20
245.1469794262
 10
341.8704318135
 20
245.1697518788
 10
341.8772602847
 20
245.1931207579
 10
341.8821652483
 20
245.2169306471
 10
341.8851289587
 20
245.2411012496
 10
341.8861222248
 20
245.2655181659
  0
LWPOLYLINE
  5
34C
100
AcDbEntity
  8
0
100
AcDbPolyline
 62
7
  6
CONTINUOUS
 90
58
 70
0
 10
341.6994567069
 20
244.9412306874
 10
341.6739176068
 20
244.912077176
 10
341.6458029838
 20
244.8798150039
 10
341.6153251353
 20
244.8446371247
 10
341.5827172327
 20
244.8067604416
 10
341.5478942134
 20
244.7660295187
 10
341.5106070518
 20
244.722085538
 10
341.4708069431
 20
244.6747911297
 10
341.4287573476
 20
244.6243732548
 10
341.3846936261
 20
244.5710264022
 10
341.3391752572
 20
244.5153452929
 10
341.2918634083
 20
244.4568282015
 10
341.2417109108
 20
244.3940523645
 10
341.1883463905
 20
244.3263744228
 10
341.1325730628
 20
244.2546207455
 10
341.0751473681
 20
244.1795911395
 10
341.0169639444
 20
244.1023116881
 10
340.9574756771
 20
244.0219065961
 10
340.8953718413
 20
243.9363642721
 10
340.8303735656
 20
243.844956236
 10
340.7634855377
 20
243.7487268032
 10
340.6954277613
 20
243.6483699791
 10
340.6269934047
 20
243.5447443514
 10
340.5580155865
 20
243.4372728298
 10
340.4878686046
 20
243.3245396639
 10
340.4168272807
 20
243.2064307762
 10
340.3455771867
 20
243.0835009659
 10
340.274291701
 20
242.9554226608
 10
340.2035417664
 20
242.8225388799
 10
340.133786514
 20
242.6850025815
 10
340.0651537614
 20
242.5422639747
 10
339.9985072545
 20
242.3952849098
 10
339.9340459184
 20
242.2436538148
 10
339.8712478223
 20
242.0849371471
 10
339.8103714169
 20
241.9180800819
 10
339.7527623949
 20
241.7450255636
 10
339.6995424787
 20
241.5678655455
 10
339.6516140991
 20
241.3890578455
 10
339.6085241735
 20
241.206586285
 10
339.5695399664
 20
241.0159821717
 10
339.5346564663
 20
240.8145303545
 10
339.5048535369
 20
240.6059663708
 10
339.4805841902
 20
240.3953959268
 10
339.4614310007
 20
240.1860672235
 10
339.446716815
 20
239.9744249108
 10
339.4366297899
 20
239.7551559454
 10
339.4319195646
 20
239.5231466557
 10
339.4337045511
 20
239.2828644709
 10
339.4423525377
 20
239.0430503768
 10
339.4575414728
 20
238.8071723733
 10
339.4794040316
 20
238.5696833218
 10
339.5085116403
 20
238.3254602082
 10
339.5460984358
 20
238.0678158009
 10
339.59197782
 20
237.8006177049
 10
339.6438878516
 20
237.5349912745
 10
339.7001988339
 20
237.2745592902
 10
339.7610682425
 20
237.0146577106
 10
339.8259140193
 20
236.7549339648
  0
LWPOLYLINE
  5
34D
100
AcDbEntity
  8
0
100
AcDbPolyline
 62
7
  6
CONTINUOUS
 90
25
 70
0
 10
329.5362246022
 20
292.9542412547
 10
329.6808945836
 20
292.9473594978
 10
329.8316817914
 20
292.9270930302
 10
329.9872222255
 20
292.8940037424
 10
330.1453800554
 20
292.8488998631
 10
330.3056163715
 20
292.792187068
 10
330.4690859391
 20
292.7232910112
 10
330.6344299219
 20
292.6422922255
 10
330.8003650298
 20
292.549221509
 10
330.9680088986
 20
292.4424230702
 10
331.1377568363
 20
292.3198286885
 10
331.3051554633
 20
292.1825155221
 10
331.4641105919
 20
292.0339269807
 10
331.6131004896
 20
291.8746774532
 10
331.7510847887
 20
291.7065338077
 10
331.8741552702
 20
291.5361244446
 10
331.9811259452
 20
291.3681665281
 10
332.0742539977
 20
291.2020760744
 10
332.1552697917
 20
291.0366463702
 10
332.2241600562
 20
290.8731463348
 10
332.2808454959
 20
290.7129548737
 10
332.3259230119
 20
290.5548729306
 10
332.3589924512
 20
290.3994246596
 10
332.3792443677
 20
290.2487584255
 10
332.3861206031
 20
290.104235192
  0
LINE
  5
34E
100
AcDbEntity
  8
0
100
AcDbLine
 62
7
  6
CONTINUOUS
 10
391.5978627002
 20
343.7468365827
 11
391.5981079306
 21
343.7117860838
  0
LWPOLYLINE
  5
34F
100
AcDbEntity
  8
0
100
AcDbPolyline
 62
7
  6
CONTINUOUS
 90
33
 70
0
 10
391.5989324032
 20
343.3112073097
 10
391.6003408245
 20
342.5362009633
 10
391.6010094539
 20
342.0023093261
 10
391.6015736659
 20
341.3788058432
 10
391.602045223
 20
340.6748108062
 10
391.6022548233
 20
339.8786509063
 10
391.6021879661
 20
338.9986568154
 10
391.6018588966
 20
338.0451472179
 10
391.6011419172
 20
337.0096004046
 10
391.6000259825
 20
335.8989073826
 10
391.5985269802
 20
334.7235081387
 10
391.5965623245
 20
333.4804546397
 10
391.5941307305
 20
332.1781173392
 10
391.5912477888
 20
330.8251348321
 10
391.5878606807
 20
329.4193165088
 10
391.5839783453
 20
327.968760046
 10
391.579619183
 20
326.4819889883
 10
391.574750411
 20
324.9578895719
 10
391.5693492488
 20
323.3959320065
 10
391.5634833621
 20
321.8137457286
 10
391.5572570445
 20
320.2366407538
 10
391.5506167287
 20
318.659390812
 10
391.5436677927
 20
317.1002833094
 10
391.5367329984
 20
315.6127036896
 10
391.5298811883
 20
314.2103576554
 10
391.5230579104
 20
312.8762950436
 10
391.5163750602
 20
311.6121898463
 10
391.5098507717
 20
310.4175744941
 10
391.5034687554
 20
309.2882655451
 10
391.4972781485
 20
308.2196808371
 10
391.4912864048
 20
307.2100920297
 10
391.4854808032
 20
306.2565691993
 10
391.4798751608
 20
305.3530797566
  0
LINE
  5
350
100
AcDbEntity
  8
0
100
AcDbLine
 62
7
  6
CONTINUOUS
 10
391.5981079306
 20
343.7117860838
 11
391.5989324032
 21
343.3112073097
  0
LWPOLYLINE
  5
351
100
AcDbEntity
  8
0
100
AcDbPolyline
 62
7
  6
CONTINUOUS
 90
3
 70
0
 10
391.3800219848
 20
291.1681618397
 10
391.380014349
 20
291.1679975644
 10
391.3800078906
 20
291.1674094624
  0
LINE
  5
352
100
AcDbEntity
  8
0
100
AcDbLine
 62
7
  6
CONTINUOUS
 10
341.7598624966
 20
245.00962089
 11
341.6994567069
 21
244.9412306874
  0
LINE
  5
353
100
AcDbEntity
  8
0
100
AcDbLine
 62
7
  6
CONTINUOUS
 10
341.8094661916
 20
245.0652067769
 11
341.7598624966
 21
245.00962089
  0
LINE
  5
354
100
AcDbEntity
  8
0
100
AcDbLine
 62
7
  6
CONTINUOUS
 10
322.2864183996
 20
292.9542481647
 11
329.5362246022
 21
292.9542412547
  0
LINE
  5
355
100
AcDbEntity
  8
DATUM_AXIS
100
AcDbLine
 62
7
  6
CONTINUOUS
 10
344.7361565301
 20
292.9542330259
 11
346.3663675634
 21
292.9542328812
  0
LINE
  5
356
100
AcDbEntity
  8
0
100
AcDbLine
 62
7
  6
CONTINUOUS
 10
366.516366708
 20
292.9542237523
 11
346.1663675634
 21
292.954232932
  0
LINE
  5
357
100
AcDbEntity
  8
DATUM_AXIS
100
AcDbLine
 62
7
  6
CONTINUOUS
 10
372.3163675683
 20
292.9542329789
 11
391.3934358519
 21
292.9542330123
  0
LINE
  5
358
100
AcDbEntity
  8
0
100
AcDbLine
 62
7
  6
CONTINUOUS
 10
370.9814627494
 20
293.4722973012
 11
372.0163675626
 21
293.4542329721
  0
LINE
  5
359
100
AcDbEntity
  8
0
100
AcDbLine
 62
7
  6
CONTINUOUS
 10
400.5163677119
 20
197.403699564
 11
400.5163677469
 21
197.492592437
  0
LINE
  5
35A
100
AcDbEntity
  8
0
100
AcDbLine
 62
7
  6
CONTINUOUS
 10
403.5163677541
 20
197.4798741842
 11
403.5163674217
 21
384.1857381813
  0
LINE
  5
35B
100
AcDbEntity
  8
0
100
AcDbLine
 62
7
  6
CONTINUOUS
 10
382.0163676178
 20
264.7042329981
 11
382.516367617
 21
265.204232999
  0
LINE
  5
35C
100
AcDbEntity
  8
0
100
AcDbLine
 62
40
  6
CONTINUOUS
 10
321.0453139378
 20
316.2544558713
 11
320.9521481205
 21
316.2542328928
  0
LINE
  5
35D
100
AcDbEntity
  8
0
100
AcDbLine
 62
40
  6
CONTINUOUS
 10
320.9521489336
 20
318.6542328928
 11
321.0453147508
 21
318.6540098713
  0
LINE
  5
35E
100
AcDbEntity
  8
0
100
AcDbLine
 62
7
  6
CONTINUOUS
 10
370.9814626749
 20
341.4361686398
 11
372.0163674881
 21
341.4542329721
  0
LINE
  5
35F
100
AcDbEntity
  8
0
100
AcDbLine
 62
7
  6
CONTINUOUS
 10
355.6463408578
 20
341.9542329467
 11
322.2861570569
 21
341.9542328949
  0
LINE
  5
360
100
AcDbEntity
  8
DATUM_AXIS
100
AcDbLine
 62
7
  6
CONTINUOUS
 10
372.3163674824
 20
341.9542329789
 11
391.6010529584
 21
341.9542330127
  0
LWPOLYLINE
  5
361
100
AcDbEntity
  8
0
100
AcDbPolyline
 62
7
  6
CONTINUOUS
 90
13
 70
0
 10
322.2861570569
 20
341.9542328949
 10
322.2245836396
 20
341.9504271252
 10
322.1629234399
 20
341.938808457
 10
322.1027141543
 20
341.9193658879
 10
322.0459352778
 20
341.8927457185
 10
321.9934256281
 20
341.8595825096
 10
321.9450757662
 20
341.8198331583
 10
321.9020711326
 20
341.77435475
 10
321.8653486308
 20
341.7242704253
 10
321.8348574105
 20
341.6694737564
 10
321.8112885818
 20
341.6107574318
 10
321.795424129
 20
341.5500514355
 10
321.7873596525
 20
341.4888904853
  0
LWPOLYLINE
  5
362
100
AcDbEntity
  8
0
100
AcDbPolyline
 62
7
  6
CONTINUOUS
 90
13
 70
0
 10
400.5163677469
 20
197.492592437
 10
400.5201351854
 20
197.4956997679
 10
400.5314138909
 20
197.4985913017
 10
400.5500823433
 20
197.5012670302
 10
400.575918575
 20
197.5037714465
 10
400.6085661242
 20
197.5060600411
 10
400.6475064322
 20
197.5079993015
 10
400.6921836445
 20
197.5095719659
 10
400.7418987691
 20
197.5107952831
 10
400.7957109862
 20
197.5115875087
 10
400.8527001835
 20
197.5119213926
 10
400.9120317853
 20
197.5118241785
 10
400.9727898805
 20
197.5112958645
  0
LINE
  5
363
100
AcDbEntity
  8
0
100
AcDbLine
 62
7
  6
CONTINUOUS
 10
403.5163674217
 20
384.1857381813
 11
393.0036199029
 21
384.0022374745
  0
LINE
  5
364
100
AcDbEntity
  8
0
100
AcDbLine
 62
7
  6
CONTINUOUS
 10
30.228959559
 20
70.6235019979
 11
30.4126417657
 21
81.1464449135
  0
LWPOLYLINE
  5
365
100
AcDbEntity
  8
0
100
AcDbPolyline
 62
7
  6
CONTINUOUS
 90
3
 70
0
 10
30.4172589841
 20
81.2449046261
 10
30.4124244919
 20
81.1535388828
 10
30.4124354634
 20
81.1379300582
  0
LINE
  5
366
100
AcDbEntity
  8
0
100
AcDbLine
 62
7
  6
CONTINUOUS
 10
30.4126417657
 20
81.1464449135
 11
30.4125596277
 21
81.1450434306
  0
LINE
  5
367
100
AcDbEntity
  8
0
100
AcDbLine
 62
7
  6
CONTINUOUS
 10
30.4302807776
 20
81.3347011877
 11
30.4172589841
 21
81.2449046261
  0
LINE
  5
368
100
AcDbEntity
  8
0
100
AcDbLine
 62
7
  6
CONTINUOUS
 10
30.4126491369
 20
81.1465633218
 11
30.4126392165
 21
81.1464964147
  0
LWPOLYLINE
  5
369
100
AcDbEntity
  8
0
100
AcDbPolyline
 62
7
  6
CONTINUOUS
 90
3
 70
0
 10
102.3013260647
 20
132.6178738026
 10
102.0818829536
 20
132.5200572103
 10
101.8584435088
 20
132.4377657491
  0
LINE
  5
36A
100
AcDbEntity
  8
0
100
AcDbLine
 62
7
  6
CONTINUOUS
 10
101.8058437436
 20
132.4207824593
 11
102.0633933881
 21
132.5126055842
  0
LWPOLYLINE
  5
36B
100
AcDbEntity
  8
0
100
AcDbPolyline
 62
7
  6
CONTINUOUS
 90
6
 70
0
 10
101.7237725825
 20
132.3960349575
 10
101.8335209933
 20
132.4296082911
 10
101.9386561611
 20
132.4653896013
 10
102.0394212621
 20
132.5031205061
 10
102.1360900116
 20
132.5425950603
 10
102.2283984541
 20
132.5834016249
  0
LWPOLYLINE
  5
36C
100
AcDbEntity
  8
0
100
AcDbPolyline
 62
7
  6
CONTINUOUS
 90
5
 70
0
 10
101.8584435088
 20
132.4377657491
 10
101.6317773542
 20
132.3707813613
 10
101.4036895891
 20
132.3191553428
 10
101.1754233436
 20
132.2826486489
 10
100.9476129669
 20
132.260911261
  0
LINE
  5
36D
100
AcDbEntity
  8
0
100
AcDbLine
 62
7
  6
CONTINUOUS
 10
97.5076865882
 20
139.7353663485
 11
97.6320978215
 21
139.9794533182
  0
LINE
  5
36E
100
AcDbEntity
  8
0
100
AcDbLine
 62
7
  6
CONTINUOUS
 10
97.6320978215
 20
139.9794533182
 11
97.6681173937
 21
140.037608027
  0
LINE
  5
36F
100
AcDbEntity
  8
DATUM_AXIS
100
AcDbLine
 62
7
  6
CONTINUOUS
 10
76.2210766914
 20
101.8235015828
 11
76.2210765012
 21
82.6755308016
  0
LINE
  5
370
100
AcDbEntity
  8
0
100
AcDbLine
 62
7
  6
CONTINUOUS
 10
76.2210765022
 20
82.6755308016
 11
76.2210766925
 21
101.8235015828
  0
LINE
  5
371
100
AcDbEntity
  8
0
100
AcDbLine
 62
7
  6
CONTINUOUS
 10
76.7391851148
 20
103.1584063905
 11
76.7211207738
 21
102.1235015778
  0
LINE
  5
372
100
AcDbEntity
  8
0
100
AcDbLine
 62
7
  6
CONTINUOUS
 10
97.4019194354
 20
139.4750812836
 11
97.5076865882
 21
139.7353663485
  0
LWPOLYLINE
  5
373
100
AcDbEntity
  8
0
100
AcDbPolyline
 62
7
  6
CONTINUOUS
 90
18
 70
0
 10
97.5377605616
 20
139.7992050751
 10
97.459467265
 20
139.6246613311
 10
97.3971945992
 20
139.4617311911
 10
97.3449089784
 20
139.299504695
 10
97.3016404533
 20
139.1389618765
 10
97.2654826626
 20
138.977586521
 10
97.2354999199
 20
138.8150542834
 10
97.211103457
 20
138.652485041
 10
97.1914705788
 20
138.4892342251
 10
97.1759916998
 20
138.3254333655
 10
97.164123752
 20
138.1615524418
 10
97.1553065575
 20
137.9973696346
 10
97.1490548797
 20
137.833229233
 10
97.1448956678
 20
137.669287028
 10
97.1423719945
 20
137.5049941113
 10
97.1410678866
 20
137.3403051062
 10
97.1405792839
 20
137.1756933227
 10
97.1405042439
 20
137.011368514
  0
LWPOLYLINE
  5
374
100
AcDbEntity
  8
0
100
AcDbPolyline
 62
7
  6
CONTINUOUS
 90
5
 70
0
 10
103.8001805929
 20
134.0104002488
 10
103.8453734536
 20
134.0921350787
 10
103.8878470903
 20
134.1743646014
 10
103.9273738977
 20
134.2564689819
 10
103.9639440309
 20
134.3381620801
  0
LINE
  5
375
100
AcDbEntity
  8
0
100
AcDbLine
 62
40
  6
CONTINUOUS
 10
78.9711915499
 20
152.5037682661
 11
78.9711915499
 21
152.5029457984
  0
LINE
  5
376
100
AcDbEntity
  8
0
100
AcDbLine
 62
40
  6
CONTINUOUS
 10
82.4711915499
 20
152.7063796772
 11
82.4711915499
 21
152.705558179
  0
LINE
  5
377
100
AcDbEntity
  8
0
100
AcDbLine
 62
7
  6
CONTINUOUS
 10
104.0287726821
 20
134.5004546047
 11
104.0802301689
 21
134.6516105781
  0
LWPOLYLINE
  5
378
100
AcDbEntity
  8
0
100
AcDbPolyline
 62
7
  6
CONTINUOUS
 90
3
 70
0
 10
103.9639440309
 20
134.3381620801
 10
103.9977183306
 20
134.419522126
 10
104.0287726821
 20
134.5004546047
  0
LINE
  5
379
100
AcDbEntity
  8
0
100
AcDbLine
 62
7
  6
CONTINUOUS
 10
88.4716704632
 20
92.1235013472
 11
87.9716704582
 21
91.6235013521
  0
LINE
  5
37A
100
AcDbEntity
  8
0
100
AcDbLine
 62
7
  6
CONTINUOUS
 10
88.774661075
 20
102.1060516009
 11
88.7216705774
 21
103.6235013447
  0
LINE
  5
37B
100
AcDbEntity
  8
DATUM_AXIS
100
AcDbLine
 62
7
  6
CONTINUOUS
 10
90.731470598
 20
101.133499059
 11
90.9116704634
 21
92.12350131
  0
LINE
  5
37C
100
AcDbEntity
  8
0
100
AcDbLine
 62
7
  6
CONTINUOUS
 10
87.9716703683
 20
82.5755609346
 11
87.9716704582
 21
91.6235013521
  0
LINE
  5
37D
100
AcDbEntity
  8
0
100
AcDbLine
 62
40
  6
CONTINUOUS
 10
92.7211207738
 20
153.0966546762
 11
92.7211207738
 21
153.0945533331
  0
LINE
  5
37E
100
AcDbEntity
  8
0
100
AcDbLine
 62
7
  6
CONTINUOUS
 10
88.7216705774
 20
103.6235013447
 11
88.7541999698
 21
104.5550209987
  0
LINE
  5
37F
100
AcDbEntity
  8
0
100
AcDbLine
 62
7
  6
CONTINUOUS
 10
104.1524003771
 20
134.9178384075
 11
104.1574348032
 21
134.9398048806
  0
LINE
  5
380
100
AcDbEntity
  8
0
100
AcDbLine
 62
7
  6
CONTINUOUS
 10
104.1561667162
 20
134.9342186719
 11
104.1497227217
 21
134.9063797677
  0
LWPOLYLINE
  5
381
100
AcDbEntity
  8
0
100
AcDbPolyline
 62
7
  6
CONTINUOUS
 90
6
 70
0
 10
104.1524003771
 20
134.9178384075
 10
104.1368032321
 20
134.8531271172
 10
104.1165191069
 20
134.7755435829
 10
104.0872285357
 20
134.6742254036
 10
104.046760719
 20
134.5505663976
 10
103.9944128997
 20
134.4115595622
  0
LWPOLYLINE
  5
382
100
AcDbEntity
  8
0
100
AcDbPolyline
 62
7
  6
CONTINUOUS
 90
3
 70
0
 10
104.0802301689
 20
134.6516105781
 10
104.1158706079
 20
134.7731718854
 10
104.1393177835
 20
134.8632396495
  0
LINE
  5
383
100
AcDbEntity
  8
0
100
AcDbLine
 62
7
  6
CONTINUOUS
 10
104.0547089378
 20
134.5766421574
 11
104.1274306694
 21
134.81642968
  0
LWPOLYLINE
  5
384
100
AcDbEntity
  8
0
100
AcDbPolyline
 62
7
  6
CONTINUOUS
 90
33
 70
0
 10
97.1405619109
 20
136.8461578208
 10
97.141002912
 20
136.6805430781
 10
97.1422370726
 20
136.5147381541
 10
97.1446787911
 20
136.3491858017
 10
97.1487550984
 20
136.183882355
 10
97.1549305956
 20
136.0183907432
 10
97.1636884169
 20
135.8528602235
 10
97.175523258
 20
135.6876518051
 10
97.1909905332
 20
135.5226843849
 10
97.2106279678
 20
135.3584665656
 10
97.2350453903
 20
135.1950885791
 10
97.2650563091
 20
135.0319200105
 10
97.3012315565
 20
134.8701115582
 10
97.3444995954
 20
134.70929491
 10
97.3967796315
 20
134.5468588645
 10
97.4590420152
 20
134.3837762826
 10
97.5318948239
 20
134.2203774966
 10
97.6177198409
 20
134.0537417845
 10
97.7177136233
 20
133.8845908399
 10
97.8324969744
 20
133.7146651616
 10
97.9644225917
 20
133.5434121468
 10
98.1156000149
 20
133.3715223899
 10
98.2858263842
 20
133.2025133172
 10
98.4737506536
 20
133.040312756
 10
98.6798806567
 20
132.8867734535
 10
98.9035743464
 20
132.7446482073
 10
99.1407809659
 20
132.617939225
 10
99.3915734038
 20
132.5075458305
 10
99.6541653329
 20
132.4152449511
 10
99.9206242836
 20
132.3439201001
 10
100.1871075772
 20
132.293705187
 10
100.4544017754
 20
132.2636936695
 10
100.7211207738
 20
132.2536615804
  0
LINE
  5
385
100
AcDbEntity
  8
0
100
AcDbLine
 62
7
  6
CONTINUOUS
 10
97.1405619109
 20
136.8461578208
 11
97.1406685089
 21
137.226981609
  0
LINE
  5
386
100
AcDbEntity
  8
0
100
AcDbLine
 62
7
  6
CONTINUOUS
 10
100.7212184476
 20
132.2468947841
 11
100.7211207738
 21
129.4037122441
  0
LINE
  5
387
100
AcDbEntity
  8
0
100
AcDbLine
 62
7
  6
CONTINUOUS
 10
97.018012842
 20
73.5955590451
 11
96.994692841
 21
72.2599614576
  0
LINE
  5
388
100
AcDbEntity
  8
0
100
AcDbLine
 62
7
  6
CONTINUOUS
 10
96.4597065288
 20
70.6235011954
 11
96.6822404956
 21
73.1670790646
  0
LINE
  5
389
100
AcDbEntity
  8
0
100
AcDbLine
 62
7
  6
CONTINUOUS
 10
104.7621040195
 20
73.1670789843
 11
104.9846385098
 21
70.6235011107
  0
LINE
  5
38A
100
AcDbEntity
  8
0
100
AcDbLine
 62
7
  6
CONTINUOUS
 10
104.4494325884
 20
72.259980463
 11
104.4261258939
 21
73.5956244879
  0
LINE
  5
38B
100
AcDbEntity
  8
0
100
AcDbLine
 62
7
  6
CONTINUOUS
 10
100.7211207738
 20
132.2536831013
 11
100.7212184476
 21
132.2468947841
  0
LWPOLYLINE
  5
38C
100
AcDbEntity
  8
0
100
AcDbPolyline
 62
7
  6
CONTINUOUS
 90
9
 70
0
 10
104.3017362072
 20
137.0458444284
 10
104.3009350909
 20
137.3822423862
 10
104.2963750919
 20
137.7147573633
 10
104.2849823901
 20
138.0385769819
 10
104.2640552327
 20
138.3513654114
 10
104.2311026511
 20
138.6527486524
 10
104.1840018996
 20
138.9411883897
 10
104.1211873277
 20
139.2146028526
 10
104.0409363821
 20
139.4733562035
  0
LINE
  5
38D
100
AcDbEntity
  8
0
100
AcDbLine
 62
40
  6
CONTINUOUS
 10
108.7211207738
 20
153.0966546762
 11
108.7211207738
 21
153.0945541463
  0
LWPOLYLINE
  5
38E
100
AcDbEntity
  8
0
100
AcDbPolyline
 62
7
  6
CONTINUOUS
 90
34
 70
0
 10
104.3017373038
 20
137.011368514
 10
104.3016796368
 20
136.846157864
 10
104.301238636
 20
136.6805431649
 10
104.3000044764
 20
136.5147382846
 10
104.2975627599
 20
136.3491859758
 10
104.2934864559
 20
136.1838825726
 10
104.2873109637
 20
136.0183910041
 10
104.2785531495
 20
135.8528605276
 10
104.2667183182
 20
135.6876521518
 10
104.2512510558
 20
135.5226847743
 10
104.2316136375
 20
135.3584669965
 10
104.2071962356
 20
135.1950890509
 10
104.1771853428
 20
135.0319205245
 10
104.1410101277
 20
134.8701121148
 10
104.0977421285
 20
134.7092955095
 10
104.0454621428
 20
134.5468595101
 10
103.9831998196
 20
134.3837769776
 10
103.9103470812
 20
134.2203782425
 10
103.8245221474
 20
134.0537425831
 10
103.7245284632
 20
133.8845916928
 10
103.6097452253
 20
133.7146660663
 10
103.477819735
 20
133.5434130943
 10
103.3266424534
 20
133.3715233692
 10
103.1564162389
 20
133.2025143139
 10
102.9684921293
 20
133.0403137483
 10
102.7623622895
 20
132.8867744178
 10
102.5386687639
 20
132.7446491196
 10
102.3014622994
 20
132.6179400609
 10
102.0506700814
 20
132.5075465966
 10
101.788078361
 20
132.4152456139
 10
101.5216193549
 20
132.3439205755
 10
101.2551356448
 20
132.2937054382
 10
100.987840748
 20
132.2636937425
 10
100.7211207738
 20
132.2536615804
  0
LINE
  5
38F
100
AcDbEntity
  8
0
100
AcDbLine
 62
7
  6
CONTINUOUS
 10
104.3013498857
 20
136.7065854954
 11
104.3017362072
 21
137.0458444284
  0
LINE
  5
390
100
AcDbEntity
  8
0
100
AcDbLine
 62
7
  6
CONTINUOUS
 10
104.9710865772
 20
70.6235011303
 11
96.473029181
 21
70.6235012147
  0
LINE
  5
391
100
AcDbEntity
  8
0
100
AcDbLine
 62
7
  6
CONTINUOUS
 10
96.4597065288
 20
70.6235011954
 11
30.2283176694
 21
70.6235019997
  0
LINE
  5
392
100
AcDbEntity
  8
0
100
AcDbLine
 62
7
  6
CONTINUOUS
 10
104.9846385098
 20
70.6235011107
 11
171.2141736556
 21
70.6235005987
  0
LINE
  5
393
100
AcDbEntity
  8
0
100
AcDbLine
 62
7
  6
CONTINUOUS
 10
97.1803380201
 20
73.6235011882
 11
104.2640068458
 21
73.6235011179
  0
LINE
  5
394
100
AcDbEntity
  8
0
100
AcDbLine
 62
7
  6
CONTINUOUS
 10
112.7216705774
 20
103.6235011062
 11
112.6891412036
 21
104.5550207591
  0
LINE
  5
395
100
AcDbEntity
  8
0
100
AcDbLine
 62
7
  6
CONTINUOUS
 10
113.4716703683
 20
82.5755648131
 11
113.4716704582
 21
91.6235010988
  0
LINE
  5
396
100
AcDbEntity
  8
DATUM_AXIS
100
AcDbLine
 62
7
  6
CONTINUOUS
 10
110.7118705074
 20
101.1334988608
 11
110.5316704629
 21
92.1235011151
  0
LINE
  5
397
100
AcDbEntity
  8
0
100
AcDbLine
 62
7
  6
CONTINUOUS
 10
112.6686800497
 20
102.1060513658
 11
112.7216705774
 21
103.6235011062
  0
LWPOLYLINE
  5
398
100
AcDbEntity
  8
0
100
AcDbPolyline
 62
7
  6
CONTINUOUS
 90
5
 70
0
 10
114.6434970713
 20
82.5971395403
 10
114.6440715539
 20
82.5971854475
 10
114.6441191119
 20
82.5971894789
 10
114.6421773446
 20
82.597057487
 10
114.6389061488
 20
82.5968529332
  0
LINE
  5
399
100
AcDbEntity
  8
0
100
AcDbLine
 62
7
  6
CONTINUOUS
 10
114.6389061488
 20
82.5968529332
 11
114.6286353145
 21
82.5962806728
  0
LINE
  5
39A
100
AcDbEntity
  8
0
100
AcDbLine
 62
7
  6
CONTINUOUS
 10
114.6286353145
 20
82.5962806728
 11
114.613955224
 21
82.5955653117
  0
LINE
  5
39B
100
AcDbEntity
  8
0
100
AcDbLine
 62
7
  6
CONTINUOUS
 10
114.613955224
 20
82.5955653117
 11
114.5952473419
 21
82.594758365
  0
LINE
  5
39C
100
AcDbEntity
  8
0
100
AcDbLine
 62
7
  6
CONTINUOUS
 10
114.5952473419
 20
82.594758365
 11
114.5603526424
 21
82.5934481511
  0
LINE
  5
39D
100
AcDbEntity
  8
0
100
AcDbLine
 62
7
  6
CONTINUOUS
 10
114.5603526424
 20
82.5934481511
 11
114.5176066787
 21
82.5920639862
  0
LINE
  5
39E
100
AcDbEntity
  8
0
100
AcDbLine
 62
7
  6
CONTINUOUS
 10
114.5176066787
 20
82.5920639862
 11
114.4672393426
 21
82.5906366931
  0
LINE
  5
39F
100
AcDbEntity
  8
0
100
AcDbLine
 62
7
  6
CONTINUOUS
 10
114.4672393426
 20
82.5906366931
 11
114.4093367001
 21
82.5891853694
  0
LINE
  5
3A0
100
AcDbEntity
  8
0
100
AcDbLine
 62
7
  6
CONTINUOUS
 10
114.4093367001
 20
82.5891853694
 11
114.3438709725
 21
82.58772196
  0
LINE
  5
3A1
100
AcDbEntity
  8
0
100
AcDbLine
 62
7
  6
CONTINUOUS
 10
114.3438709725
 20
82.58772196
 11
114.2446729293
 21
82.585765626
  0
LINE
  5
3A2
100
AcDbEntity
  8
0
100
AcDbLine
 62
7
  6
CONTINUOUS
 10
114.2446729293
 20
82.585765626
 11
114.1315931563
 21
82.5838148834
  0
LWPOLYLINE
  5
3A3
100
AcDbEntity
  8
0
100
AcDbPolyline
 62
7
  6
CONTINUOUS
 90
10
 70
0
 10
31.3964484814
 20
82.1463137688
 10
36.1342590268
 20
82.2212095775
 10
41.0589041481
 20
82.2949896725
 10
46.164479866
 20
82.3668028183
 10
51.4340282858
 20
82.4355962907
 10
56.876842053
 20
82.5006075576
 10
62.5270659656
 20
82.5612024987
 10
68.4058811827
 20
82.6163685218
 10
74.4921567661
 20
82.6645716212
 10
80.7598075515
 20
82.7043006581
  0
LINE
  5
3A4
100
AcDbEntity
  8
0
100
AcDbLine
 62
7
  6
CONTINUOUS
 10
114.1315931563
 20
82.5838148834
 11
114.0042835632
 21
82.581877962
  0
LINE
  5
3A5
100
AcDbEntity
  8
0
100
AcDbLine
 62
7
  6
CONTINUOUS
 10
114.0042835632
 20
82.581877962
 11
113.8623569767
 21
82.5799596117
  0
LINE
  5
3A6
100
AcDbEntity
  8
0
100
AcDbLine
 62
7
  6
CONTINUOUS
 10
113.8623569767
 20
82.5799596117
 11
113.7053743439
 21
82.5780613256
  0
LINE
  5
3A7
100
AcDbEntity
  8
0
100
AcDbLine
 62
7
  6
CONTINUOUS
 10
113.7053743439
 20
82.5780613256
 11
113.5329115259
 21
82.5761850952
  0
LINE
  5
3A8
100
AcDbEntity
  8
0
100
AcDbLine
 62
7
  6
CONTINUOUS
 10
113.5329115259
 20
82.5761850952
 11
113.3445600578
 21
82.5743385759
  0
LINE
  5
3A9
100
AcDbEntity
  8
0
100
AcDbLine
 62
7
  6
CONTINUOUS
 10
113.3445600578
 20
82.5743385759
 11
113.1398855742
 21
82.5725288169
  0
LINE
  5
3AA
100
AcDbEntity
  8
0
100
AcDbLine
 62
7
  6
CONTINUOUS
 10
113.1398855742
 20
82.5725288169
 11
112.9184431086
 21
82.5707609605
  0
LINE
  5
3AB
100
AcDbEntity
  8
0
100
AcDbLine
 62
7
  6
CONTINUOUS
 10
112.9184431086
 20
82.5707609605
 11
112.679783921
 21
82.5690379667
  0
LINE
  5
3AC
100
AcDbEntity
  8
0
100
AcDbLine
 62
7
  6
CONTINUOUS
 10
112.679783921
 20
82.5690379667
 11
112.3565577994
 21
82.5669476573
  0
LINE
  5
3AD
100
AcDbEntity
  8
0
100
AcDbLine
 62
7
  6
CONTINUOUS
 10
112.3565577994
 20
82.5669476573
 11
112.2193412668
 21
82.566130446
  0
LINE
  5
3AE
100
AcDbEntity
  8
0
100
AcDbLine
 62
7
  6
CONTINUOUS
 10
112.2193412668
 20
82.566130446
 11
111.9310648072
 21
82.5645315233
  0
LINE
  5
3AF
100
AcDbEntity
  8
0
100
AcDbLine
 62
7
  6
CONTINUOUS
 10
111.9310648072
 20
82.5645315233
 11
111.7025941404
 21
82.5633679657
  0
LINE
  5
3B0
100
AcDbEntity
  8
0
100
AcDbLine
 62
7
  6
CONTINUOUS
 10
80.7598075515
 20
82.7043006581
 11
87.2070234662
 21
82.7342696648
  0
LINE
  5
3B1
100
AcDbEntity
  8
0
100
AcDbLine
 62
7
  6
CONTINUOUS
 10
111.7025941404
 20
82.5633679657
 11
111.3814546615
 21
82.5618701513
  0
LINE
  5
3B2
100
AcDbEntity
  8
0
100
AcDbLine
 62
7
  6
CONTINUOUS
 10
111.3814546615
 20
82.5618701513
 11
111.2137649812
 21
82.5611456596
  0
LINE
  5
3B3
100
AcDbEntity
  8
0
100
AcDbLine
 62
7
  6
CONTINUOUS
 10
111.2137649812
 20
82.5611456596
 11
110.9532892354
 21
82.560090324
  0
LINE
  5
3B4
100
AcDbEntity
  8
0
100
AcDbLine
 62
7
  6
CONTINUOUS
 10
110.9532892354
 20
82.560090324
 11
110.4952306031
 21
82.5584141312
  0
LINE
  5
3B5
100
AcDbEntity
  8
0
100
AcDbLine
 62
7
  6
CONTINUOUS
 10
110.4952306031
 20
82.5584141312
 11
110.0072183099
 21
82.5568363151
  0
LINE
  5
3B6
100
AcDbEntity
  8
0
100
AcDbLine
 62
7
  6
CONTINUOUS
 10
87.2070234662
 20
82.7342696648
 11
87.9716703699
 21
82.736452767
  0
LINE
  5
3B7
100
AcDbEntity
  8
0
100
AcDbLine
 62
7
  6
CONTINUOUS
 10
110.0072183099
 20
82.5568363151
 11
109.4894390196
 21
82.5553676486
  0
LINE
  5
3B8
100
AcDbEntity
  8
0
100
AcDbLine
 62
7
  6
CONTINUOUS
 10
109.4894390196
 20
82.5553676486
 11
108.9422448297
 21
82.5540208402
  0
LINE
  5
3B9
100
AcDbEntity
  8
0
100
AcDbLine
 62
7
  6
CONTINUOUS
 10
108.9422448297
 20
82.5540208402
 11
108.3661377159
 21
82.5527974284
  0
LINE
  5
3BA
100
AcDbEntity
  8
0
100
AcDbLine
 62
7
  6
CONTINUOUS
 10
108.3661377159
 20
82.5527974284
 11
107.2585211784
 21
82.5508786309
  0
LINE
  5
3BB
100
AcDbEntity
  8
0
100
AcDbLine
 62
7
  6
CONTINUOUS
 10
107.2585211784
 20
82.5508786309
 11
106.3373953055
 21
82.5496604914
  0
LINE
  5
3BC
100
AcDbEntity
  8
0
100
AcDbLine
 62
7
  6
CONTINUOUS
 10
106.3373953055
 20
82.5496604914
 11
105.2256775933
 21
82.5485672146
  0
LINE
  5
3BD
100
AcDbEntity
  8
0
100
AcDbLine
 62
7
  6
CONTINUOUS
 10
105.2256775933
 20
82.5485672146
 11
103.6057773726
 21
82.5475163614
  0
LINE
  5
3BE
100
AcDbEntity
  8
0
100
AcDbLine
 62
7
  6
CONTINUOUS
 10
103.6057773726
 20
82.5475163614
 11
101.581195806
 21
82.5469268327
  0
LINE
  5
3BF
100
AcDbEntity
  8
0
100
AcDbLine
 62
7
  6
CONTINUOUS
 10
101.581195806
 20
82.5469268327
 11
100.1421596347
 21
82.5469025439
  0
LINE
  5
3C0
100
AcDbEntity
  8
0
100
AcDbLine
 62
7
  6
CONTINUOUS
 10
100.1421596347
 20
82.5469025439
 11
98.2765099241
 21
82.5473308924
  0
LINE
  5
3C1
100
AcDbEntity
  8
0
100
AcDbLine
 62
7
  6
CONTINUOUS
 10
98.2765099241
 20
82.5473308924
 11
97.137454791
 21
82.5478997548
  0
LINE
  5
3C2
100
AcDbEntity
  8
0
100
AcDbLine
 62
7
  6
CONTINUOUS
 10
97.137454791
 20
82.5478997548
 11
95.7413246951
 21
82.5489919813
  0
LINE
  5
3C3
100
AcDbEntity
  8
0
100
AcDbLine
 62
7
  6
CONTINUOUS
 10
95.7413246951
 20
82.5489919813
 11
94.574204943
 21
82.5503365743
  0
LINE
  5
3C4
100
AcDbEntity
  8
0
100
AcDbLine
 62
7
  6
CONTINUOUS
 10
94.574204943
 20
82.5503365743
 11
93.7490330419
 21
82.5515676193
  0
LINE
  5
3C5
100
AcDbEntity
  8
0
100
AcDbLine
 62
7
  6
CONTINUOUS
 10
93.7490330419
 20
82.5515676193
 11
92.9694094135
 21
82.5530111764
  0
LINE
  5
3C6
100
AcDbEntity
  8
0
100
AcDbLine
 62
7
  6
CONTINUOUS
 10
92.9694094135
 20
82.5530111764
 11
92.355834551
 21
82.5543682749
  0
LINE
  5
3C7
100
AcDbEntity
  8
0
100
AcDbLine
 62
7
  6
CONTINUOUS
 10
92.355834551
 20
82.5543682749
 11
91.7759651358
 21
82.555850601
  0
LINE
  5
3C8
100
AcDbEntity
  8
0
100
AcDbLine
 62
7
  6
CONTINUOUS
 10
114.2356186067
 20
82.7342693908
 11
113.4716703699
 21
82.7364505138
  0
LINE
  5
3C9
100
AcDbEntity
  8
0
100
AcDbLine
 62
7
  6
CONTINUOUS
 10
91.7759651358
 20
82.555850601
 11
91.1252444374
 21
82.557808486
  0
LINE
  5
3CA
100
AcDbEntity
  8
0
100
AcDbLine
 62
7
  6
CONTINUOUS
 10
91.1252444374
 20
82.557808486
 11
90.6208486281
 21
82.5595898022
  0
LINE
  5
3CB
100
AcDbEntity
  8
0
100
AcDbLine
 62
7
  6
CONTINUOUS
 10
90.6208486281
 20
82.5595898022
 11
90.1509577432
 21
82.5614917154
  0
LINE
  5
3CC
100
AcDbEntity
  8
0
100
AcDbLine
 62
7
  6
CONTINUOUS
 10
120.6828351757
 20
82.7043002499
 11
114.2356186067
 21
82.7342693908
  0
LINE
  5
3CD
100
AcDbEntity
  8
0
100
AcDbLine
 62
7
  6
CONTINUOUS
 10
90.1509577432
 20
82.5614917154
 11
89.7154655719
 21
82.5634968378
  0
LINE
  5
3CE
100
AcDbEntity
  8
0
100
AcDbLine
 62
7
  6
CONTINUOUS
 10
89.7154655719
 20
82.5634968378
 11
89.3915766419
 21
82.5651772881
  0
LINE
  5
3CF
100
AcDbEntity
  8
0
100
AcDbLine
 62
7
  6
CONTINUOUS
 10
89.3915766419
 20
82.5651772881
 11
89.0891561074
 21
82.5669252276
  0
LINE
  5
3D0
100
AcDbEntity
  8
0
100
AcDbLine
 62
7
  6
CONTINUOUS
 10
89.0891561074
 20
82.5669252276
 11
88.8078522352
 21
82.5687357507
  0
LINE
  5
3D1
100
AcDbEntity
  8
0
100
AcDbLine
 62
7
  6
CONTINUOUS
 10
88.8078522352
 20
82.5687357507
 11
88.5472729253
 21
82.5706003184
  0
LINE
  5
3D2
100
AcDbEntity
  8
0
100
AcDbLine
 62
7
  6
CONTINUOUS
 10
88.5472729253
 20
82.5706003184
 11
88.3070052035
 21
82.5725078345
  0
LINE
  5
3D3
100
AcDbEntity
  8
0
100
AcDbLine
 62
7
  6
CONTINUOUS
 10
88.3070052035
 20
82.5725078345
 11
88.0865835839
 21
82.5744536817
  0
LINE
  5
3D4
100
AcDbEntity
  8
0
100
AcDbLine
 62
7
  6
CONTINUOUS
 10
88.0865835839
 20
82.5744536817
 11
87.8854491563
 21
82.576437933
  0
LINE
  5
3D5
100
AcDbEntity
  8
0
100
AcDbLine
 62
7
  6
CONTINUOUS
 10
87.8854491563
 20
82.576437933
 11
87.7030246393
 21
82.5784574191
  0
LINE
  5
3D6
100
AcDbEntity
  8
0
100
AcDbLine
 62
7
  6
CONTINUOUS
 10
87.7030246393
 20
82.5784574191
 11
87.538730189
 21
82.5805057869
  0
LINE
  5
3D7
100
AcDbEntity
  8
0
100
AcDbLine
 62
7
  6
CONTINUOUS
 10
87.538730189
 20
82.5805057869
 11
87.3919839672
 21
82.5825738846
  0
LWPOLYLINE
  5
3D8
100
AcDbEntity
  8
0
100
AcDbPolyline
 62
7
  6
CONTINUOUS
 90
10
 70
0
 10
170.0461921315
 20
82.1463123914
 10
165.3083840828
 20
82.2212082558
 10
160.3837406709
 20
82.294988426
 10
155.278165909
 20
82.3668016643
 10
150.0086175133
 20
82.4355952466
 10
144.5658030864
 20
82.5006066352
 10
138.9155784762
 20
82.5612017014
 10
133.0367627284
 20
82.6163678512
 10
126.9504865734
 20
82.6645710806
 10
120.6828351757
 20
82.7043002499
  0
LINE
  5
3D9
100
AcDbEntity
  8
0
100
AcDbLine
 62
7
  6
CONTINUOUS
 10
87.3919839672
 20
82.5825738846
 11
87.2622043976
 21
82.5846500704
  0
LINE
  5
3DA
100
AcDbEntity
  8
0
100
AcDbLine
 62
7
  6
CONTINUOUS
 10
87.2622043976
 20
82.5846500704
 11
87.1756770804
 21
82.5862051543
  0
LINE
  5
3DB
100
AcDbEntity
  8
0
100
AcDbLine
 62
7
  6
CONTINUOUS
 10
87.1756770804
 20
82.5862051543
 11
87.098152658
 21
82.5877548157
  0
LINE
  5
3DC
100
AcDbEntity
  8
0
100
AcDbLine
 62
7
  6
CONTINUOUS
 10
87.098152658
 20
82.5877548157
 11
87.0294112929
 21
82.5892943656
  0
LINE
  5
3DD
100
AcDbEntity
  8
0
100
AcDbLine
 62
7
  6
CONTINUOUS
 10
87.0294112929
 20
82.5892943656
 11
86.9692795232
 21
82.5908159391
  0
LINE
  5
3DE
100
AcDbEntity
  8
0
100
AcDbLine
 62
7
  6
CONTINUOUS
 10
86.9692795232
 20
82.5908159391
 11
86.9176568842
 21
82.5923065119
  0
LINE
  5
3DF
100
AcDbEntity
  8
0
100
AcDbLine
 62
7
  6
CONTINUOUS
 10
86.9176568842
 20
82.5923065119
 11
86.8745328148
 21
82.5937448655
  0
LINE
  5
3E0
100
AcDbEntity
  8
0
100
AcDbLine
 62
7
  6
CONTINUOUS
 10
86.8745328148
 20
82.5937448655
 11
86.8506778598
 21
82.5946532497
  0
LINE
  5
3E1
100
AcDbEntity
  8
0
100
AcDbLine
 62
7
  6
CONTINUOUS
 10
86.8506778598
 20
82.5946532497
 11
86.83090228
 21
82.5954978957
  0
LINE
  5
3E2
100
AcDbEntity
  8
0
100
AcDbLine
 62
7
  6
CONTINUOUS
 10
86.83090228
 20
82.5954978957
 11
86.8154515091
 21
82.596245393
  0
LINE
  5
3E3
100
AcDbEntity
  8
0
100
AcDbLine
 62
7
  6
CONTINUOUS
 10
86.8154515091
 20
82.596245393
 11
86.8071322239
 21
82.5966985313
  0
LINE
  5
3E4
100
AcDbEntity
  8
0
100
AcDbLine
 62
7
  6
CONTINUOUS
 10
97.389094688
 20
134.5720535647
 11
97.3102703272
 21
134.8340165898
  0
LWPOLYLINE
  5
3E5
100
AcDbEntity
  8
0
100
AcDbPolyline
 62
7
  6
CONTINUOUS
 90
3
 70
0
 10
97.3620113787
 20
134.6516105785
 10
97.3263709396
 20
134.773171886
 10
97.302923764
 20
134.8632396501
  0
LWPOLYLINE
  5
3E6
100
AcDbEntity
  8
0
100
AcDbPolyline
 62
7
  6
CONTINUOUS
 90
5
 70
0
 10
97.305438316
 20
134.8531271157
 10
97.3257224414
 20
134.7755435806
 10
97.3550130129
 20
134.6742254005
 10
97.39548083
 20
134.5505663934
 10
97.4485951123
 20
134.4095242576
  0
LINE
  5
3E7
100
AcDbEntity
  8
0
100
AcDbLine
 62
7
  6
CONTINUOUS
 10
97.305438316
 20
134.8531271157
 11
97.2898411705
 21
134.917838408
  0
LINE
  5
3E8
100
AcDbEntity
  8
0
100
AcDbLine
 62
7
  6
CONTINUOUS
 10
97.2848067443
 20
134.9398048809
 11
97.2925188261
 21
134.9063797669
  0
LINE
  5
3E9
100
AcDbEntity
  8
0
100
AcDbLine
 62
7
  6
CONTINUOUS
 10
97.2850141369
 20
134.9388887731
 11
97.2848067443
 21
134.9398048809
  0
LINE
  5
3EA
100
AcDbEntity
  8
0
100
AcDbLine
 62
40
  6
CONTINUOUS
 10
118.9710499929
 20
152.7063796775
 11
118.9710499929
 21
152.7055576703
  0
LINE
  5
3EB
100
AcDbEntity
  8
0
100
AcDbLine
 62
40
  6
CONTINUOUS
 10
122.4710499929
 20
152.5037682664
 11
122.4710499929
 21
152.5029463079
  0
LWPOLYLINE
  5
3EC
100
AcDbEntity
  8
0
100
AcDbPolyline
 62
7
  6
CONTINUOUS
 90
3
 70
0
 10
31.3806706288
 20
82.1459349435
 10
31.3490877548
 20
82.1444259545
 10
31.3081391663
 20
82.1409741613
  0
LWPOLYLINE
  5
3ED
100
AcDbEntity
  8
0
100
AcDbPolyline
 62
7
  6
CONTINUOUS
 90
6
 70
0
 10
31.384424421
 20
82.146025302
 10
31.3771291071
 20
82.1458204263
 10
31.3592850993
 20
82.1450303048
 10
31.339507182
 20
82.1437810551
 10
31.316423028
 20
82.1418242828
 10
31.2859161952
 20
82.1384088727
  0
LWPOLYLINE
  5
3EE
100
AcDbEntity
  8
0
100
AcDbPolyline
 62
7
  6
CONTINUOUS
 90
3
 70
0
 10
170.0857073147
 20
82.1449004196
 10
170.0676431297
 20
82.1457411408
 10
170.0537030373
 20
82.1461570322
  0
LWPOLYLINE
  5
3EF
100
AcDbEntity
  8
0
100
AcDbPolyline
 62
7
  6
CONTINUOUS
 90
6
 70
0
 10
170.1816251553
 20
82.1348895886
 10
170.1408735587
 20
82.1402835254
 10
170.1065935659
 20
82.1435094454
 10
170.0776951157
 20
82.1453074876
 10
170.0554319119
 20
82.1461210738
 10
170.0537030373
 20
82.1461570322
  0
LWPOLYLINE
  5
3F0
100
AcDbEntity
  8
0
100
AcDbPolyline
 62
7
  6
CONTINUOUS
 90
4
 70
0
 10
170.1923620705
 20
82.1332066163
 10
170.1563658397
 20
82.138451323
 10
170.12765684
 20
82.1416817742
 10
170.1053100458
 20
82.1436172745
  0
LINE
  5
3F1
100
AcDbEntity
  8
0
100
AcDbLine
 62
7
  6
CONTINUOUS
 10
112.9716704632
 20
92.1235011038
 11
113.4716704582
 21
91.6235010988
  0
LWPOLYLINE
  5
3F2
100
AcDbEntity
  8
0
100
AcDbPolyline
 62
7
  6
CONTINUOUS
 90
3
 70
0
 10
97.483754138
 20
134.3255804278
 10
97.4470388873
 20
134.4132398181
 10
97.4134688655
 20
134.5004546047
  0
LINE
  5
3F3
100
AcDbEntity
  8
0
100
AcDbLine
 62
7
  6
CONTINUOUS
 10
97.4134688655
 20
134.5004546047
 11
97.3620113787
 21
134.6516105785
  0
LINE
  5
3F4
100
AcDbEntity
  8
0
100
AcDbLine
 62
7
  6
CONTINUOUS
 10
124.7030564534
 20
103.1584059141
 11
124.7211207738
 21
102.123501101
  0
LWPOLYLINE
  5
3F5
100
AcDbEntity
  8
_SURFACE
100
AcDbPolyline
 62
7
  6
CONTINUOUS
 90
63
 70
0
 10
125.2210266967
 20
151.8537246689
 10
125.2209830184
 20
151.860331751
 10
125.2205686684
 20
151.8751193022
 10
125.2197214568
 20
151.8898268039
 10
125.2184486075
 20
151.9044313591
 10
125.2167590116
 20
151.9189096247
 10
125.2146582375
 20
151.933269453
 10
125.2121552747
 20
151.9474905441
 10
125.2092606426
 20
151.9615521604
 10
125.205978934
 20
151.9754633328
 10
125.2023202825
 20
151.9892062825
 10
125.1982962519
 20
152.0027627604
 10
125.1939102678
 20
152.0161423308
 10
125.1891731249
 20
152.0293295366
 10
125.1840969906
 20
152.0423083975
 10
125.1786841506
 20
152.0550883709
 10
125.1729453303
 20
152.0676568905
 10
125.166893347
 20
152.0799991375
 10
125.160530888
 20
152.0921214536
 10
125.1538666283
 20
152.1040171184
 10
125.1469158792
 20
152.1156690855
 10
125.1396903212
 20
152.1270687775
 10
125.1322046772
 20
152.1382043054
 10
125.1244713591
 20
152.1490688206
 10
125.1164983464
 20
152.159662102
 10
125.1082995299
 20
152.1699762687
 10
125.0998886958
 20
152.1800047629
 10
125.0912727091
 20
152.1897496785
 10
125.0824648799
 20
152.1992057404
 10
125.0734793477
 20
152.2083677103
 10
125.064323242
 20
152.2172379158
 10
125.0550095934
 20
152.2258129362
 10
125.0455522134
 20
152.2340893805
 10
125.0359585563
 20
152.2420697935
 10
125.0262411925
 20
152.2497524808
 10
125.0164134265
 20
152.257135772
 10
125.0064830849
 20
152.2642224511
 10
124.9964619873
 20
152.2710125057
 10
124.9863629019
 20
152.2775057621
 10
124.9761944532
 20
152.2837050534
 10
124.9659657826
 20
152.2896129316
 10
124.9556907594
 20
152.2952295382
 10
124.9453847123
 20
152.3005549629
 10
124.9350562518
 20
152.3055932998
 10
124.9247182166
 20
152.310346804
 10
124.9143920694
 20
152.3148146402
 10
124.9040868555
 20
152.3190022704
 10
124.8938129888
 20
152.3229147413
 10
124.8835936456
 20
152.3265529583
 10
124.8734359599
 20
152.3299244339
 10
124.8633495667
 20
152.3330358555
 10
124.8533607874
 20
152.3358895071
 10
124.8434708812
 20
152.3384956563
 10
124.833692114
 20
152.3408614599
 10
124.8240663685
 20
152.3429882476
 10
124.8145922758
 20
152.3448883812
 10
124.805280815
 20
152.3465713501
 10
124.7961908304
 20
152.3480396159
 10
124.787296175
 20
152.3493107711
 10
124.778627913
 20
152.3503932195
 10
124.7703274811
 20
152.3512860246
 10
124.762317128
 20
152.3520150387
 10
124.7554185668
 20
152.3525389428
  0
LINE
  5
3F6
100
AcDbEntity
  8
DATUM_AXIS
100
AcDbLine
 62
7
  6
CONTINUOUS
 10
125.2210766914
 20
101.823501096
 11
125.2210765012
 21
82.6755334046
  0
LINE
  5
3F7
100
AcDbEntity
  8
0
100
AcDbLine
 62
7
  6
CONTINUOUS
 10
125.2210765002
 20
82.6755334046
 11
125.2210766904
 21
101.823501096
  0
LINE
  5
3F8
100
AcDbEntity
  8
_SURFACE
100
AcDbLine
 62
7
  6
CONTINUOUS
 10
125.2211039384
 20
107.6235001782
 11
125.2210499983
 21
151.8537244381
  0
LWPOLYLINE
  5
3F9
100
AcDbEntity
  8
0
100
AcDbPolyline
 62
7
  6
CONTINUOUS
 90
18
 70
0
 10
31.2859161952
 20
82.1384088727
 10
31.2463585126
 20
82.1325584881
 10
31.199701112
 20
82.1235571256
 10
31.1473173846
 20
82.1106647349
 10
31.0889192621
 20
82.0926735548
 10
31.0257895123
 20
82.0686817242
 10
30.9616203493
 20
82.0390737673
 10
30.8976824198
 20
82.0037982233
 10
30.8339271044
 20
81.9621399958
 10
30.7718424415
 20
81.9143485424
 10
30.712160654
 20
81.8603465644
 10
30.655580718
 20
81.8000626501
 10
30.6033492827
 20
81.7341774008
 10
30.5561939289
 20
81.6630731813
 10
30.5146528733
 20
81.5869501349
 10
30.4794713215
 20
81.5065005435
 10
30.4511804577
 20
81.4222242653
 10
30.4302807776
 20
81.3347011877
  0
LWPOLYLINE
  5
3FA
100
AcDbEntity
  8
0
100
AcDbPolyline
 62
7
  6
CONTINUOUS
 90
18
 70
0
 10
31.3081391663
 20
82.1409741613
 10
31.2571845428
 20
82.1342948562
 10
31.1973762636
 20
82.1230111743
 10
31.1316327083
 20
82.1061647226
 10
31.0601764214
 20
82.0822891827
 10
30.984376788
 20
82.0501230495
 10
30.9087711772
 20
82.0102552744
 10
30.8349969874
 20
81.9627715345
 10
30.7632822399
 20
81.906973304
 10
30.6956239845
 20
81.8435567562
 10
30.6331134262
 20
81.7728813861
 10
30.5765151
 20
81.6950671244
 10
30.527031985
 20
81.6109830953
 10
30.4855486174
 20
81.5214170377
 10
30.4527192897
 20
81.426907156
 10
30.4292385871
 20
81.3281914311
 10
30.4157632377
 20
81.2261258616
 10
30.412588926
 20
81.1431138394
  0
LINE
  5
3FB
100
AcDbEntity
  8
0
100
AcDbLine
 62
7
  6
CONTINUOUS
 10
87.9716704582
 20
91.6235013521
 11
113.4716704582
 21
91.6235010988
  0
LINE
  5
3FC
100
AcDbEntity
  8
0
100
AcDbLine
 62
7
  6
CONTINUOUS
 10
88.4716704632
 20
92.1235013472
 11
112.9716704632
 21
92.1235011038
  0
LWPOLYLINE
  5
3FD
100
AcDbEntity
  8
0
100
AcDbPolyline
 62
7
  6
CONTINUOUS
 90
4
 70
0
 10
97.6138942113
 20
134.0606953894
 10
97.5670915508
 20
134.1491790691
 10
97.5237054277
 20
134.2375930314
 10
97.483754138
 20
134.3255804278
  0
LWPOLYLINE
  5
3FE
100
AcDbEntity
  8
0
100
AcDbPolyline
 62
7
  6
CONTINUOUS
 90
20
 70
0
 10
103.904480977
 20
139.7992050939
 10
103.9477902652
 20
139.7060801144
 10
104.0103514515
 20
139.5557432433
 10
104.0635367673
 20
139.4075819564
 10
104.1089109548
 20
139.2593001065
 10
104.1473708839
 20
139.110968563
 10
104.179622843
 20
138.9633847656
 10
104.2067414096
 20
138.8150555945
 10
104.2293315048
 20
138.6657993587
 10
104.2478196374
 20
138.5163359983
 10
104.2627419472
 20
138.366383515
 10
104.2745336149
 20
138.2161075913
 10
104.2836010677
 20
138.0657817357
 10
104.2903529712
 20
137.915241675
 10
104.2951511166
 20
137.7647561111
 10
104.2983502224
 20
137.6144302509
 10
104.3002942875
 20
137.4638263691
 10
104.3013005889
 20
137.3129042894
 10
104.3016787707
 20
137.162031346
 10
104.3017373038
 20
137.011368514
  0
LINE
  5
3FF
100
AcDbEntity
  8
0
100
AcDbLine
 62
7
  6
CONTINUOUS
 10
104.0409363821
 20
139.4733562035
 11
103.9417061371
 21
139.7196387668
  0
LWPOLYLINE
  5
400
100
AcDbEntity
  8
0
100
AcDbPolyline
 62
7
  6
CONTINUOUS
 90
10
 70
0
 10
104.7445709119
 20
105.4895595235
 10
104.2956482179
 20
105.469228804
 10
103.8424389393
 20
105.451112727
 10
103.3879564582
 20
105.4354545481
 10
102.9324036457
 20
105.422260412
 10
102.475979138
 20
105.4115350867
 10
102.0188766577
 20
105.4032820916
 10
101.5612963371
 20
105.397503935
 10
101.1034399358
 20
105.3942019715
 10
100.7217571399
 20
105.3933419683
  0
LWPOLYLINE
  5
401
100
AcDbEntity
  8
0
100
AcDbPolyline
 62
7
  6
CONTINUOUS
 90
12
 70
0
 10
106.0189452974
 20
105.5201208644
 10
105.9532862974
 20
105.5200209295
 10
105.8390240208
 20
105.5193954839
 10
105.7221900294
 20
105.5182022358
 10
105.6032007366
 20
105.5164486998
 10
105.4824605326
 20
105.5141463296
 10
105.36039523
 20
105.511307262
 10
105.2374119595
 20
105.5079439373
 10
105.1139105018
 20
105.5040710205
 10
104.9903170809
 20
105.499704017
 10
104.8670554238
 20
105.4948596731
 10
104.7445709119
 20
105.4895595235
  0
LINE
  5
402
100
AcDbEntity
  8
0
100
AcDbLine
 62
7
  6
CONTINUOUS
 10
112.1691165286
 20
101.6235011117
 11
103.4910090281
 21
101.6235011802
  0
LINE
  5
403
100
AcDbEntity
  8
0
100
AcDbLine
 62
7
  6
CONTINUOUS
 10
97.9525169714
 20
101.6235012352
 11
89.274224769
 21
101.6235013392
  0
LINE
  5
404
100
AcDbEntity
  8
0
100
AcDbLine
 62
7
  6
CONTINUOUS
 10
76.5210766954
 20
102.1235015798
 11
88.7746610752
 21
102.1235014212
  0
LINE
  5
405
100
AcDbEntity
  8
0
100
AcDbLine
 62
7
  6
CONTINUOUS
 10
112.6686800499
 20
102.1235011838
 11
124.9210765043
 21
102.123501099
  0
LINE
  5
406
100
AcDbEntity
  8
0
100
AcDbLine
 62
7
  6
CONTINUOUS
 10
88.7216705774
 20
103.6235013447
 11
112.7216705774
 21
103.6235011062
  0
LINE
  5
407
100
AcDbEntity
  8
0
100
AcDbLine
 62
7
  6
CONTINUOUS
 10
89.7556877859
 20
105.5201214962
 11
105.9597271652
 21
105.5201213517
  0
LINE
  5
408
100
AcDbEntity
  8
0
100
AcDbLine
 62
7
  6
CONTINUOUS
 10
106.0189297811
 20
105.5201213174
 11
111.6876494859
 21
105.5201212783
  0
LWPOLYLINE
  5
409
100
AcDbEntity
  8
0
100
AcDbPolyline
 62
7
  6
CONTINUOUS
 90
9
 70
0
 10
100.7217571399
 20
105.3933419685
 10
100.3337652697
 20
105.394230646
 10
99.8759106391
 20
105.3975667488
 10
99.4183355255
 20
105.4033790343
 10
98.9612421229
 20
105.4116661174
 10
98.5048304477
 20
105.4224254595
 10
98.0492942562
 20
105.4356535112
 10
97.5948321683
 20
105.4513454737
 10
97.1416470497
 20
105.469495171
  0
LWPOLYLINE
  5
40A
100
AcDbEntity
  8
0
100
AcDbPolyline
 62
7
  6
CONTINUOUS
 90
12
 70
0
 10
97.1416470497
 20
105.469495171
 10
96.6942248848
 20
105.4897730525
 10
96.5716135929
 20
105.4950597956
 10
96.4482686743
 20
105.499887963
 10
96.3246271513
 20
105.5042368564
 10
96.2011091996
 20
105.5080904485
 10
96.0781485996
 20
105.5114329358
 10
95.9561488707
 20
105.5142499922
 10
95.8355112614
 20
105.5165298014
 10
95.7166542648
 20
105.5182602928
 10
95.5999826178
 20
105.5194305834
 10
95.4859185365
 20
105.5200337006
  0
LINE
  5
40B
100
AcDbEntity
  8
0
100
AcDbLine
 62
7
  6
CONTINUOUS
 10
103.82529133
 20
139.9522718351
 11
103.7762176092
 21
140.0336974115
  0
LWPOLYLINE
  5
40C
100
AcDbEntity
  8
_SURFACE
100
AcDbPolyline
 62
7
  6
CONTINUOUS
 90
13
 70
0
 10
103.9023052942
 20
139.7981536291
 10
103.7642829132
 20
140.0559925582
 10
103.6049943192
 20
140.2989447644
 10
103.4245643317
 20
140.5278808372
 10
103.2229341421
 20
140.7428301781
 10
103.0014980125
 20
140.941540848
 10
102.7633841577
 20
141.1208983949
 10
102.5111883076
 20
141.2791584987
 10
102.2455351827
 20
141.4160463175
 10
101.9674558669
 20
141.5310128415
 10
101.6792107248
 20
141.6231923518
 10
101.3837699307
 20
141.6915454427
 10
101.0839411834
 20
141.7351777644
  0
LINE
  5
40D
100
AcDbEntity
  8
0
100
AcDbLine
 62
7
  6
CONTINUOUS
 10
103.9417061371
 20
139.7196387668
 11
103.82529133
 21
139.9522718351
  0
LINE
  5
40E
100
AcDbEntity
  8
0
100
AcDbLine
 62
7
  6
CONTINUOUS
 10
76.7198992055
 20
107.1235013394
 11
124.7223477291
 21
107.1235013394
  0
LWPOLYLINE
  5
40F
100
AcDbEntity
  8
0
100
AcDbPolyline
 62
7
  6
CONTINUOUS
 90
6
 70
0
 10
99.7706758693
 20
132.3813848033
 10
99.6504508564
 20
132.4163943409
 10
99.5352854113
 20
132.4542209992
 10
99.4254912438
 20
132.4943319866
 10
99.3207379063
 20
132.5364282629
 10
99.2204465166
 20
132.5803788456
  0
LWPOLYLINE
  5
410
100
AcDbEntity
  8
0
100
AcDbPolyline
 62
7
  6
CONTINUOUS
 90
5
 70
0
 10
99.5837980552
 20
132.4377657436
 10
99.8104642113
 20
132.3707813567
 10
100.0385519758
 20
132.3191553395
 10
100.2668182177
 20
132.2826486472
 10
100.4946285887
 20
132.2609112605
  0
LINE
  5
411
100
AcDbEntity
  8
0
100
AcDbLine
 62
7
  6
CONTINUOUS
 10
99.5670733366
 20
132.4433523584
 11
99.2949005363
 21
132.5474036801
  0
LWPOLYLINE
  5
412
100
AcDbEntity
  8
0
100
AcDbPolyline
 62
7
  6
CONTINUOUS
 90
3
 70
0
 10
99.1409154968
 20
132.6178737959
 10
99.3603586089
 20
132.5200572043
 10
99.5837980552
 20
132.4377657436
  0
LWPOLYLINE
  5
413
100
AcDbEntity
  8
0
100
AcDbPolyline
 62
7
  6
CONTINUOUS
 90
4
 70
0
 10
100.9977554581
 20
132.2644490042
 10
101.271662761
 20
132.2962240147
 10
101.5414259255
 20
132.3484823989
 10
101.8058437436
 20
132.4207824593
  0
LWPOLYLINE
  5
414
100
AcDbEntity
  8
0
100
AcDbPolyline
 62
7
  6
CONTINUOUS
 90
7
 70
0
 10
100.985982848
 20
132.2635552972
 10
101.115612726
 20
132.2755320581
 10
101.2436725344
 20
132.2920043531
 10
101.3695451472
 20
132.3127431288
 10
101.4916742148
 20
132.3372447233
 10
101.6096599502
 20
132.3650953728
 10
101.7237725825
 20
132.3960349575
  0
LINE
  5
415
100
AcDbEntity
  8
0
100
AcDbLine
 62
7
  6
CONTINUOUS
 10
100.8544357932
 20
132.2561986225
 11
100.985982848
 21
132.2635552972
  0
LINE
  5
416
100
AcDbEntity
  8
0
100
AcDbLine
 62
7
  6
CONTINUOUS
 10
100.7211207738
 20
132.2536616816
 11
100.9977554581
 21
132.2644490042
  0
LINE
  5
417
100
AcDbEntity
  8
0
100
AcDbLine
 62
7
  6
CONTINUOUS
 10
100.9476129669
 20
132.260911261
 11
100.9267804606
 21
132.2602444461
  0
LINE
  5
418
100
AcDbEntity
  8
0
100
AcDbLine
 62
7
  6
CONTINUOUS
 10
100.4946285887
 20
132.2609112605
 11
100.5186456459
 21
132.2601425133
  0
LINE
  5
419
100
AcDbEntity
  8
0
100
AcDbLine
 62
7
  6
CONTINUOUS
 10
100.7211207738
 20
132.2536616816
 11
100.4260896085
 21
132.2659229208
  0
LINE
  5
41A
100
AcDbEntity
  8
0
100
AcDbLine
 62
7
  6
CONTINUOUS
 10
100.5775268205
 20
132.2565998264
 11
100.4361031099
 21
132.2651088266
  0
LWPOLYLINE
  5
41B
100
AcDbEntity
  8
0
100
AcDbPolyline
 62
7
  6
CONTINUOUS
 90
6
 70
0
 10
100.4361031099
 20
132.2651088266
 10
100.2970336491
 20
132.2789274412
 10
100.1599128741
 20
132.2978906194
 10
100.0254740478
 20
132.3217009501
 10
99.8955553186
 20
132.3497134494
 10
99.7706758693
 20
132.3813848033
  0
LWPOLYLINE
  5
41C
100
AcDbEntity
  8
0
100
AcDbPolyline
 62
7
  6
CONTINUOUS
 90
4
 70
0
 10
100.4260896085
 20
132.2659229208
 10
100.1343094205
 20
132.302024364
 10
99.8474936873
 20
132.3613453433
 10
99.5670733366
 20
132.4433523584
  0
LINE
  5
41D
100
AcDbEntity
  8
0
100
AcDbLine
 62
7
  6
CONTINUOUS
 10
171.0299739726
 20
81.1602974275
 11
171.0217797079
 21
81.2749373491
  0
LINE
  5
41E
100
AcDbEntity
  8
0
100
AcDbLine
 62
7
  6
CONTINUOUS
 10
171.2136773745
 20
70.6235005977
 11
171.0299988266
 21
81.1464435166
  0
LWPOLYLINE
  5
41F
100
AcDbEntity
  8
0
100
AcDbPolyline
 62
7
  6
CONTINUOUS
 90
3
 70
0
 10
171.0301808425
 20
81.1376939585
 10
171.02983908
 20
81.1740024374
 10
171.0229332893
 20
81.2669300688
  0
LWPOLYLINE
  5
420
100
AcDbEntity
  8
0
100
AcDbPolyline
 62
7
  6
CONTINUOUS
 90
13
 70
0
 10
100.358300181
 20
141.7351777455
 10
100.0584731807
 20
141.6915457372
 10
99.763033747
 20
141.6231931563
 10
99.4747895636
 20
141.5310142619
 10
99.1967107975
 20
141.4160483703
 10
98.9310578465
 20
141.2791611244
 10
98.6788618695
 20
141.1209014784
 10
98.4407476588
 20
140.9415442402
 10
98.2193109618
 20
140.7428336573
 10
98.0176799997
 20
140.5278840734
 10
97.8372490981
 20
140.29894736
 10
97.6779595551
 20
140.0559941077
 10
97.5399362707
 20
139.7981536651
  0
LWPOLYLINE
  5
421
100
AcDbEntity
  8
0
100
AcDbPolyline
 62
7
  6
CONTINUOUS
 90
16
 70
0
 10
100.3582957069
 20
141.7352380495
 10
100.1854884838
 20
141.7134612648
 10
99.918738882
 20
141.6630604236
 10
99.652494706
 20
141.5916483784
 10
99.3904462514
 20
141.4994179996
 10
99.1401334786
 20
141.3891553591
 10
98.9032231856
 20
141.2625564739
 10
98.6797672883
 20
141.1205581071
 10
98.4738208462
 20
140.9671533587
 10
98.286019194
 20
140.805075089
 10
98.1158691069
 20
140.6361735042
 10
97.9647539434
 20
140.4644004358
 10
97.8328876028
 20
140.293286164
 10
97.7181482341
 20
140.1235062533
 10
97.6181769489
 20
139.9544956518
 10
97.5377605616
 20
139.7992050751
  0
LINE
  5
422
100
AcDbEntity
  8
0
100
AcDbLine
 62
7
  6
CONTINUOUS
 10
100.1383518013
 20
141.7060506896
 11
100.4283810273
 21
141.74167576
  0
LWPOLYLINE
  5
423
100
AcDbEntity
  8
0
100
AcDbPolyline
 62
7
  6
CONTINUOUS
 90
3
 70
0
 10
100.7211207738
 20
141.7537481552
 10
100.4534118078
 20
141.7436418983
 10
100.3582957069
 20
141.7352380495
  0
LWPOLYLINE
  5
424
100
AcDbEntity
  8
0
100
AcDbPolyline
 62
7
  6
CONTINUOUS
 90
3
 70
0
 10
100.7211207738
 20
141.7537481552
 10
100.9661125742
 20
141.7452749767
 10
101.0839457182
 20
141.7352380619
  0
LINE
  5
425
100
AcDbEntity
  8
0
100
AcDbLine
 62
7
  6
CONTINUOUS
 10
101.2678019874
 20
141.7117812174
 11
100.9955849961
 21
141.7431285952
  0
LWPOLYLINE
  5
426
100
AcDbEntity
  8
0
100
AcDbPolyline
 62
7
  6
CONTINUOUS
 90
18
 70
0
 10
101.0839457182
 20
141.7352380619
 10
101.2117631203
 20
141.7199439536
 10
101.4570005941
 20
141.6775645643
 10
101.7023736688
 20
141.6174814694
 10
101.9449914189
 20
141.5397482909
 10
102.1788595618
 20
141.4462931411
 10
102.4026539644
 20
141.3382256511
 10
102.6161468539
 20
141.2161870024
 10
102.8157460973
 20
141.0830893529
 10
103.0009011517
 20
140.9407446436
 10
103.1717111853
 20
140.7906342734
 10
103.3263714389
 20
140.6361745698
 10
103.4646040861
 20
140.4799723782
 10
103.5877529093
 20
140.3229014887
 10
103.6968787945
 20
140.1658474429
 10
103.7923197683
 20
140.0106864643
 10
103.8752828473
 20
139.857969325
 10
103.904480977
 20
139.7992050939
  0
LWPOLYLINE
  5
427
100
AcDbEntity
  8
0
100
AcDbPolyline
 62
7
  6
CONTINUOUS
 90
15
 70
0
 10
171.0217797079
 20
81.2749373491
 10
171.0009260744
 20
81.3861021641
 10
170.968286504
 20
81.4924877539
 10
170.924848068
 20
81.5929501191
 10
170.8720625967
 20
81.6859280967
 10
170.8111772169
 20
81.7708359986
 10
170.7435457178
 20
81.8471191045
 10
170.6712219806
 20
81.9138531638
 10
170.5952250306
 20
81.9714240627
 10
170.5171881553
 20
82.0197755479
 10
170.4404931087
 20
82.0583348405
 10
170.3658050913
 20
82.0883962816
 10
170.2946980751
 20
82.1107906454
 10
170.2321929439
 20
82.1258005747
 10
170.1816251553
 20
82.1348895886
  0
LWPOLYLINE
  5
428
100
AcDbEntity
  8
0
100
AcDbPolyline
 62
7
  6
CONTINUOUS
 90
18
 70
0
 10
171.0229332893
 20
81.2669300688
 10
171.0076590671
 20
81.3576507338
 10
170.9844673779
 20
81.4454528029
 10
170.9539499058
 20
81.5294797227
 10
170.9167016299
 20
81.6091995356
 10
170.8733527364
 20
81.6841415968
 10
170.8247085904
 20
81.7537154754
 10
170.7714406292
 20
81.817698121
 10
170.7142651597
 20
81.8758765153
 10
170.6541707059
 20
81.9279007585
 10
170.5915380382
 20
81.9740374389
 10
170.5273207649
 20
82.0141302834
 10
170.4635607789
 20
82.0476678218
 10
170.4003975454
 20
82.0753989412
 10
170.338961139
 20
82.0975842895
 10
170.2830393988
 20
82.1139519764
 10
170.2344722878
 20
82.1253571006
 10
170.1923620705
 20
82.1332066163
  0
LWPOLYLINE
  5
429
100
AcDbEntity
  8
0
100
AcDbPolyline
 62
40
  6
CONTINUOUS
 90
4
 70
0
 10
122.4710499929
 20
152.5029463079
 10
122.4696952334
 20
152.5028741609
 10
122.4656416441
 20
152.5029582464
 10
122.4589052586
 20
152.5031978723
  0
LWPOLYLINE
  5
42A
100
AcDbEntity
  8
0
100
AcDbPolyline
 62
40
  6
CONTINUOUS
 90
6
 70
0
 10
118.9710499929
 20
152.7055576703
 10
118.9711682657
 20
152.7055063898
 10
118.9715228135
 20
152.7054414181
 10
118.9721132299
 20
152.7053627848
 10
118.9729391089
 20
152.7052705193
 10
118.9740000442
 20
152.7051646513
  0
LWPOLYLINE
  5
42B
100
AcDbEntity
  8
0
100
AcDbPolyline
 62
40
  6
CONTINUOUS
 90
3
 70
0
 10
82.4711915499
 20
152.705558179
 10
82.4698369542
 20
152.7053292883
 10
82.4657836849
 20
152.7049441846
  0
LWPOLYLINE
  5
42C
100
AcDbEntity
  8
0
100
AcDbPolyline
 62
40
  6
CONTINUOUS
 90
6
 70
0
 10
82.4682414974
 20
152.7051646518
 10
82.4693024335
 20
152.7052705198
 10
82.4701283128
 20
152.7053627851
 10
82.4707187294
 20
152.7054414183
 10
82.4710732771
 20
152.7055063898
 10
82.4711915499
 20
152.70555767
  0
LINE
  5
42D
100
AcDbEntity
  8
0
100
AcDbLine
 62
40
  6
CONTINUOUS
 10
82.4636524093
 20
152.7047657279
 11
82.4669459107
 21
152.7050452109
  0
LINE
  5
42E
100
AcDbEntity
  8
0
100
AcDbLine
 62
40
  6
CONTINUOUS
 10
82.4569624286
 20
152.7042454443
 11
82.4657836849
 21
152.7049441846
  0
LWPOLYLINE
  5
42F
100
AcDbEntity
  8
0
100
AcDbPolyline
 62
7
  6
CONTINUOUS
 90
83
 70
0
 10
76.6868229789
 20
152.3525389426
 10
76.6819408939
 20
152.3521781089
 10
76.6752417012
 20
152.3516046463
 10
76.6685257325
 20
152.3509385005
 10
76.6616987342
 20
152.3501673232
 10
76.6547701415
 20
152.3492873013
 10
76.647737267
 20
152.3482931849
 10
76.6406053171
 20
152.3471806767
 10
76.6333961013
 20
152.34594856
 10
76.6261109242
 20
152.3445927829
 10
76.6187524256
 20
152.3431094784
 10
76.6113449596
 20
152.341499652
 10
76.60389284
 20
152.3397608493
 10
76.5963968748
 20
152.3378898274
 10
76.5888765194
 20
152.335888343
 10
76.5813420652
 20
152.3337566172
 10
76.573789124
 20
152.3314908855
 10
76.5662153275
 20
152.3290875784
 10
76.5586231622
 20
152.3265444511
 10
76.5510166897
 20
152.3238598152
 10
76.5433960962
 20
152.3210306041
 10
76.5357647787
 20
152.3180548368
 10
76.5281266031
 20
152.3149307627
 10
76.5204826741
 20
152.3116554878
 10
76.5128370736
 20
152.3082273244
 10
76.5051937249
 20
152.30464458
 10
76.4975537357
 20
152.300904209
 10
76.4899214669
 20
152.2970046701
 10
76.4823013409
 20
152.2929445321
 10
76.4746948316
 20
152.2887207715
 10
76.4671060734
 20
152.2843317347
 10
76.4595405199
 20
152.2797766121
 10
76.4520018794
 20
152.275053636
 10
76.4444951079
 20
152.2701618502
 10
76.4370255167
 20
152.2651006463
 10
76.4295975468
 20
152.2598689306
 10
76.4222167334
 20
152.2544664692
 10
76.4148883736
 20
152.2488930071
 10
76.4076167373
 20
152.2431476021
 10
76.4004076062
 20
152.2372305888
 10
76.3932665126
 20
152.2311422849
 10
76.3861975537
 20
152.2248818859
 10
76.3792067082
 20
152.2184503301
 10
76.3722996969
 20
152.2118485437
 10
76.3654804493
 20
152.2050758533
 10
76.3587550887
 20
152.1981338333
 10
76.3521294712
 20
152.191024052
 10
76.3456073682
 20
152.1837459661
 10
76.3391949901
 20
152.1763018165
 10
76.33289827
 20
152.1686938444
 10
76.3267208325
 20
152.1609216439
 10
76.3206689116
 20
152.1529881493
 10
76.3147484535
 20
152.1448963025
 10
76.3089629459
 20
152.1366458509
 10
76.3033176795
 20
152.1282390792
 10
76.2978194987
 20
152.1196809893
 10
76.2924742765
 20
152.1109756971
 10
76.2872880529
 20
152.1021281506
 10
76.282266026
 20
152.0931424406
 10
76.2774126745
 20
152.0840217659
 10
76.2727344262
 20
152.0747735703
 10
76.268235131
 20
152.065400987
 10
76.2639157837
 20
152.0559009127
 10
76.2597816946
 20
152.0462793111
 10
76.2558377382
 20
152.036541969
 10
76.2520851155
 20
152.0266856017
 10
76.2485289929
 20
152.0167168124
 10
76.2451741049
 20
152.0066420609
 10
76.2420219217
 20
151.9964580332
 10
76.239077397
 20
151.9861720258
 10
76.2363450461
 20
151.9757912192
 10
76.2338266293
 20
151.9653124296
 10
76.2315267937
 20
151.95474369
 10
76.2294497324
 20
151.9440929449
 10
76.2275974756
 20
151.9333573044
 10
76.2259742452
 20
151.9225455685
 10
76.2245837846
 20
151.9116664702
 10
76.2234283299
 20
151.9007175724
 10
76.2225115361
 20
151.8897084487
 10
76.2218365473
 20
151.8786486199
 10
76.2214056992
 20
151.867536241
 10
76.2212219192
 20
151.8563816349
 10
76.2211376092
 20
107.6235001782
  0
LINE
  5
430
100
AcDbEntity
  8
0
100
AcDbLine
 62
40
  6
CONTINUOUS
 10
82.4590475182
 20
152.7044040157
 11
82.4375895974
 21
152.7028630735
  0
LINE
  5
431
100
AcDbEntity
  8
0
100
AcDbLine
 62
7
  6
CONTINUOUS
 10
79.1782584496
 20
152.5167353898
 11
76.6868231183
 21
152.3525416123
  0
LINE
  5
432
100
AcDbEntity
  8
0
100
AcDbLine
 62
40
  6
CONTINUOUS
 10
82.4375895974
 20
152.7028630735
 11
82.3856753923
 21
152.6994173662
  0
LINE
  5
433
100
AcDbEntity
  8
0
100
AcDbLine
 62
40
  6
CONTINUOUS
 10
82.3856753923
 20
152.6994173662
 11
82.2806395508
 21
152.6927737829
  0
LINE
  5
434
100
AcDbEntity
  8
0
100
AcDbLine
 62
40
  6
CONTINUOUS
 10
82.2806395508
 20
152.6927737829
 11
82.0958040138
 21
152.6814287507
  0
LINE
  5
435
100
AcDbEntity
  8
0
100
AcDbLine
 62
40
  6
CONTINUOUS
 10
82.0958040138
 20
152.6814287507
 11
81.8580450026
 21
152.6671099234
  0
LINE
  5
436
100
AcDbEntity
  8
0
100
AcDbLine
 62
40
  6
CONTINUOUS
 10
81.8580450026
 20
152.6671099234
 11
81.5159068409
 21
152.6467880785
  0
LINE
  5
437
100
AcDbEntity
  8
0
100
AcDbLine
 62
40
  6
CONTINUOUS
 10
81.5159068409
 20
152.6467880785
 11
81.1297386086
 21
152.6241101521
  0
LINE
  5
438
100
AcDbEntity
  8
0
100
AcDbLine
 62
40
  6
CONTINUOUS
 10
81.1297386086
 20
152.6241101521
 11
80.7208840328
 21
152.6003314774
  0
LINE
  5
439
100
AcDbEntity
  8
0
100
AcDbLine
 62
40
  6
CONTINUOUS
 10
80.7208840328
 20
152.6003314774
 11
80.3120700535
 21
152.5767747941
  0
LINE
  5
43A
100
AcDbEntity
  8
0
100
AcDbLine
 62
40
  6
CONTINUOUS
 10
80.3120700535
 20
152.5767747941
 11
79.9878525823
 21
152.5582604583
  0
LINE
  5
43B
100
AcDbEntity
  8
0
100
AcDbLine
 62
40
  6
CONTINUOUS
 10
79.9878525823
 20
152.5582604583
 11
79.6918887334
 21
152.5415190333
  0
LINE
  5
43C
100
AcDbEntity
  8
0
100
AcDbLine
 62
40
  6
CONTINUOUS
 10
79.6918887334
 20
152.5415190333
 11
79.4355990496
 21
152.5271955059
  0
LINE
  5
43D
100
AcDbEntity
  8
0
100
AcDbLine
 62
40
  6
CONTINUOUS
 10
79.4355990496
 20
152.5271955059
 11
79.2287147172
 21
152.5158316871
  0
LINE
  5
43E
100
AcDbEntity
  8
0
100
AcDbLine
 62
40
  6
CONTINUOUS
 10
79.2287147172
 20
152.5158316871
 11
79.1041911022
 21
152.5091682474
  0
LWPOLYLINE
  5
43F
100
AcDbEntity
  8
0
100
AcDbPolyline
 62
7
  6
CONTINUOUS
 90
3
 70
0
 10
84.6364201886
 20
152.8140747677
 10
81.9085711994
 20
152.6761868237
 10
79.1782584496
 20
152.5167353898
  0
LINE
  5
440
100
AcDbEntity
  8
0
100
AcDbLine
 62
40
  6
CONTINUOUS
 10
79.1041911022
 20
152.5091682474
 11
79.0194698775
 21
152.5048424869
  0
LWPOLYLINE
  5
441
100
AcDbEntity
  8
0
100
AcDbPolyline
 62
40
  6
CONTINUOUS
 90
6
 70
0
 10
79.0194698775
 20
152.5048424869
 10
78.9927337184
 20
152.5035920961
 10
78.9833329636
 20
152.5031977426
 10
78.9765983755
 20
152.5029582013
 10
78.9725459167
 20
152.5028741603
 10
78.9711915499
 20
152.5029463076
  0
LWPOLYLINE
  5
442
100
AcDbEntity
  8
0
100
AcDbPolyline
 62
7
  6
CONTINUOUS
 90
4
 70
0
 10
92.803672785
 20
153.0985656403
 10
90.0841599808
 20
153.0252442172
 10
87.3616731408
 20
152.9304205923
 10
84.6364201886
 20
152.8140747677
  0
LWPOLYLINE
  5
443
100
AcDbEntity
  8
0
100
AcDbPolyline
 62
7
  6
CONTINUOUS
 90
4
 70
0
 10
100.7211207738
 20
153.1898211679
 10
98.2331449797
 20
153.1807943102
 10
95.5200436988
 20
153.1504076533
 10
92.803672785
 20
153.0985656403
  0
LWPOLYLINE
  5
444
100
AcDbEntity
  8
0
100
AcDbPolyline
 62
40
  6
CONTINUOUS
 90
7
 70
0
 10
100.7211207738
 20
153.1877207443
 10
99.3876868542
 20
153.1851268074
 10
98.0542701781
 20
153.1773498454
 10
96.7208879887
 20
153.1643970174
 10
95.3875575293
 20
153.1462754823
 10
94.0542960432
 20
153.1229923991
 10
92.7211207738
 20
153.094554927
  0
LWPOLYLINE
  5
445
100
AcDbEntity
  8
_SURFACE
100
AcDbPolyline
 62
7
  6
CONTINUOUS
 90
4
 70
0
 10
108.6385687627
 20
153.0985656403
 10
105.9221978489
 20
153.1504076533
 10
103.209096568
 20
153.1807943102
 10
100.7211207738
 20
153.1898211679
  0
LWPOLYLINE
  5
446
100
AcDbEntity
  8
0
100
AcDbPolyline
 62
40
  6
CONTINUOUS
 90
7
 70
0
 10
108.7211207738
 20
153.094554927
 10
107.3879455044
 20
153.1229923991
 10
106.0546840184
 20
153.1462754823
 10
104.721353559
 20
153.1643970174
 10
103.3879713696
 20
153.1773498454
 10
102.0545546934
 20
153.1851268074
 10
100.7211207738
 20
153.1877207443
  0
LINE
  5
447
100
AcDbEntity
  8
_SURFACE
100
AcDbLine
 62
7
  6
CONTINUOUS
 10
111.3580815668
 20
153.0252442172
 11
108.6385687627
 21
153.0985656403
  0
LINE
  5
448
100
AcDbEntity
  8
0
100
AcDbLine
 62
40
  6
CONTINUOUS
 10
122.4589052586
 20
152.5031978723
 11
122.4374482336
 21
152.5041409766
  0
LINE
  5
449
100
AcDbEntity
  8
0
100
AcDbLine
 62
40
  6
CONTINUOUS
 10
122.4374482336
 20
152.5041409766
 11
122.3855425655
 21
152.5067048815
  0
LWPOLYLINE
  5
44A
100
AcDbEntity
  8
_SURFACE
100
AcDbPolyline
 62
7
  6
CONTINUOUS
 90
4
 70
0
 10
119.5336703483
 20
152.6761868237
 10
116.805821359
 20
152.8140747677
 10
114.0805684068
 20
152.9304205923
 10
111.3580815668
 20
153.0252442172
  0
LINE
  5
44B
100
AcDbEntity
  8
0
100
AcDbLine
 62
40
  6
CONTINUOUS
 10
122.3855425655
 20
152.5067048815
 11
122.2805398495
 21
152.5122196695
  0
LINE
  5
44C
100
AcDbEntity
  8
0
100
AcDbLine
 62
40
  6
CONTINUOUS
 10
122.2805398495
 20
152.5122196695
 11
122.0957849983
 21
152.5222693137
  0
LINE
  5
44D
100
AcDbEntity
  8
0
100
AcDbLine
 62
40
  6
CONTINUOUS
 10
122.0957849983
 20
152.5222693137
 11
121.8581454235
 21
152.53547062
  0
LINE
  5
44E
100
AcDbEntity
  8
0
100
AcDbLine
 62
40
  6
CONTINUOUS
 10
121.8581454235
 20
152.53547062
 11
121.6939334102
 21
152.5446964099
  0
LINE
  5
44F
100
AcDbEntity
  8
0
100
AcDbLine
 62
40
  6
CONTINUOUS
 10
121.6939334102
 20
152.5446964099
 11
121.5161703745
 21
152.5547517452
  0
LINE
  5
450
100
AcDbEntity
  8
0
100
AcDbLine
 62
40
  6
CONTINUOUS
 10
121.5161703745
 20
152.5547517452
 11
121.3913795393
 21
152.5618456585
  0
LINE
  5
451
100
AcDbEntity
  8
0
100
AcDbLine
 62
40
  6
CONTINUOUS
 10
121.3913795393
 20
152.5618456585
 11
121.1966631725
 21
152.5729648498
  0
LINE
  5
452
100
AcDbEntity
  8
0
100
AcDbLine
 62
40
  6
CONTINUOUS
 10
121.1966631725
 20
152.5729648498
 11
121.0629809125
 21
152.5806310981
  0
LINE
  5
453
100
AcDbEntity
  8
0
100
AcDbLine
 62
40
  6
CONTINUOUS
 10
121.0629809125
 20
152.5806310981
 11
120.9271795732
 21
152.5884439339
  0
LINE
  5
454
100
AcDbEntity
  8
0
100
AcDbLine
 62
40
  6
CONTINUOUS
 10
120.9271795732
 20
152.5884439339
 11
120.790104185
 21
152.5963547682
  0
LINE
  5
455
100
AcDbEntity
  8
0
100
AcDbLine
 62
40
  6
CONTINUOUS
 10
120.790104185
 20
152.5963547682
 11
120.6525998068
 21
152.6043149963
  0
LINE
  5
456
100
AcDbEntity
  8
0
100
AcDbLine
 62
40
  6
CONTINUOUS
 10
120.6525998068
 20
152.6043149963
 11
120.5155121546
 21
152.6122756531
  0
LINE
  5
457
100
AcDbEntity
  8
0
100
AcDbLine
 62
40
  6
CONTINUOUS
 10
120.5155121546
 20
152.6122756531
 11
120.3796876014
 21
152.6201874126
  0
LINE
  5
458
100
AcDbEntity
  8
0
100
AcDbLine
 62
40
  6
CONTINUOUS
 10
120.3796876014
 20
152.6201874126
 11
120.2459725486
 21
152.6280009331
  0
LINE
  5
459
100
AcDbEntity
  8
0
100
AcDbLine
 62
40
  6
CONTINUOUS
 10
120.2459725486
 20
152.6280009331
 11
120.0511920999
 21
152.6394298286
  0
LINE
  5
45A
100
AcDbEntity
  8
0
100
AcDbLine
 62
40
  6
CONTINUOUS
 10
120.0511920999
 20
152.6394298286
 11
119.9263510011
 21
152.646787115
  0
LINE
  5
45B
100
AcDbEntity
  8
0
100
AcDbLine
 62
40
  6
CONTINUOUS
 10
119.9263510011
 20
152.646787115
 11
119.6921140999
 21
152.6606709393
  0
LINE
  5
45C
100
AcDbEntity
  8
0
100
AcDbLine
 62
40
  6
CONTINUOUS
 10
119.6921140999
 20
152.6606709393
 11
119.4356873316
 21
152.6760279707
  0
LINE
  5
45D
100
AcDbEntity
  8
0
100
AcDbLine
 62
40
  6
CONTINUOUS
 10
119.4356873316
 20
152.6760279707
 11
119.2286869511
 21
152.6886230844
  0
LINE
  5
45E
100
AcDbEntity
  8
0
100
AcDbLine
 62
40
  6
CONTINUOUS
 10
119.2286869511
 20
152.6886230844
 11
119.1040988222
 21
152.6963799764
  0
LWPOLYLINE
  5
45F
100
AcDbEntity
  8
_SURFACE
100
AcDbPolyline
 62
7
  6
CONTINUOUS
 90
3
 70
0
 10
124.7554184293
 20
152.3525416123
 10
122.263983098
 20
152.5167353898
 10
119.5336703483
 20
152.6761868237
  0
LINE
  5
460
100
AcDbEntity
  8
0
100
AcDbLine
 62
40
  6
CONTINUOUS
 10
119.1040988222
 20
152.6963799764
 11
119.0193415682
 21
152.7018646358
  0
LINE
  5
461
100
AcDbEntity
  8
0
100
AcDbLine
 62
40
  6
CONTINUOUS
 10
118.9909008125
 20
152.7038315621
 11
119.0193415682
 21
152.7018646358
  0
LINE
  5
462
100
AcDbEntity
  8
0
100
AcDbLine
 62
40
  6
CONTINUOUS
 10
118.9805862252
 20
152.7046057449
 11
118.9925970259
 21
152.7037099516
  0
LWPOLYLINE
  5
463
100
AcDbEntity
  8
0
100
AcDbPolyline
 62
40
  6
CONTINUOUS
 90
4
 70
0
 10
118.9831938551
 20
152.7044040302
 10
118.9764577788
 20
152.7049441927
 10
118.9724045678
 20
152.7053292916
 10
118.9710499929
 20
152.7055581792
  0
LINE
  5
464
100
AcDbEntity
  8
0
100
AcDbLine
 62
40
  6
CONTINUOUS
 10
118.9752956297
 20
152.7050452103
 11
118.9768254591
 21
152.7049122259
  0
ARC
  5
465
100
AcDbEntity
  8
0
100
AcDbCircle
 62
7
  6
CONTINUOUS
 10
72.5756964886
 20
268.7039758254
 40
22.0
100
AcDbArc
 50
319.9878209255
 51
340.0132260325
  0
ARC
  5
466
100
AcDbEntity
  8
DATUM_AXIS
100
AcDbCircle
 62
7
  6
CONTINUOUS
 10
100.7211207738
 20
252.4542329721
 40
12.75
100
AcDbArc
 50
106.3115969452
 51
253.6884030548
  0
ARC
  5
467
100
AcDbEntity
  8
0
100
AcDbCircle
 62
7
  6
CONTINUOUS
 10
96.3750799138
 20
244.573424035
 40
3.0
100
AcDbArc
 50
241.1214552885
 51
280.0132260325
  0
ARC
  5
468
100
AcDbEntity
  8
0
100
AcDbCircle
 62
7
  6
CONTINUOUS
 10
91.723391281
 20
252.6302150913
 40
3.0
100
AcDbArc
 50
139.9878209255
 51
178.8795916695
  0
ARC
  5
469
100
AcDbEntity
  8
0
100
AcDbCircle
 62
7
  6
CONTINUOUS
 10
96.0699851618
 20
260.1588953847
 40
3.0
100
AcDbArc
 50
121.1214552885
 51
160.0132260325
  0
ARC
  5
46A
100
AcDbEntity
  8
0
100
AcDbCircle
 62
7
  6
CONTINUOUS
 10
100.7210764653
 20
317.4542330085
 40
25.2412724675
100
AcDbArc
 50
280.379116698
 51
259.6211456415
  0
ARC
  5
46B
100
AcDbEntity
  8
DATUM_AXIS
100
AcDbCircle
 62
7
  6
CONTINUOUS
 10
100.7211207738
 20
317.4542329721
 40
25.0
100
AcDbArc
 50
281.1402580709
 51
258.8597463559
  0
ARC
  5
46C
100
AcDbEntity
  8
0
100
AcDbCircle
 62
7
  6
CONTINUOUS
 10
100.7210766914
 20
317.4542329789
 40
24.5
100
AcDbArc
 50
284.4208706085
 51
359.8571733559
  0
ARC
  5
46D
100
AcDbEntity
  8
0
100
AcDbCircle
 62
7
  6
CONTINUOUS
 10
100.7210766914
 20
317.4542329789
 40
24.5
100
AcDbArc
 50
0.0515342494
 51
255.5801133512
  0
ARC
  5
46E
100
AcDbEntity
  8
0
100
AcDbCircle
 62
7
  6
CONTINUOUS
 10
100.7219675114
 20
219.9542329798
 40
22.0
100
AcDbArc
 50
79.9878209255
 51
80.633955089
  0
ARC
  5
46F
100
AcDbEntity
  8
0
100
AcDbCircle
 62
7
  6
CONTINUOUS
 10
100.7219675114
 20
219.9542329798
 40
22.0
100
AcDbArc
 50
99.3705108222
 51
100.0132260325
  0
ARC
  5
470
100
AcDbEntity
  8
0
100
AcDbCircle
 62
7
  6
CONTINUOUS
 10
100.7216703384
 20
252.4542330359
 40
13.00015194
100
AcDbArc
 50
105.9909422217
 51
254.0090623578
  0
ARC
  5
471
100
AcDbEntity
  8
0
100
AcDbCircle
 62
7
  6
CONTINUOUS
 10
100.7216703384
 20
252.4542330359
 40
13.00015194
100
AcDbArc
 50
285.9859248069
 51
74.0140797568
  0
ARC
  5
472
100
AcDbEntity
  8
0
100
AcDbCircle
 62
7
  6
CONTINUOUS
 10
100.7216704582
 20
252.4542329995
 40
12.75
100
AcDbArc
 50
106.3126657073
 51
253.6873331983
  0
ARC
  5
473
100
AcDbEntity
  8
0
100
AcDbCircle
 62
7
  6
CONTINUOUS
 10
100.7216704582
 20
252.4542329995
 40
12.75
100
AcDbArc
 50
286.3075127041
 51
73.6924861736
  0
ARC
  5
474
100
AcDbEntity
  8
0
100
AcDbCircle
 62
7
  6
CONTINUOUS
 10
100.7216704632
 20
252.4542329986
 40
12.25
100
AcDbArc
 50
106.9981814267
 51
253.0018200829
  0
ARC
  5
475
100
AcDbEntity
  8
0
100
AcDbCircle
 62
7
  6
CONTINUOUS
 10
100.7216704632
 20
252.4542329986
 40
12.25
100
AcDbArc
 50
286.9928122269
 51
73.0071892545
  0
ARC
  5
476
100
AcDbEntity
  8
0
100
AcDbCircle
 62
7
  6
CONTINUOUS
 10
100.7216705774
 20
252.4542329785
 40
12.0
100
AcDbArc
 50
178.8795916695
 51
241.1214552885
  0
ARC
  5
477
100
AcDbEntity
  8
0
100
AcDbCircle
 62
7
  6
CONTINUOUS
 10
100.7216705774
 20
252.4542329785
 40
12.0
100
AcDbArc
 50
107.3671682561
 51
121.1214552885
  0
ARC
  5
478
100
AcDbEntity
  8
0
100
AcDbCircle
 62
7
  6
CONTINUOUS
 10
100.7216705774
 20
252.4542329785
 40
12.0
100
AcDbArc
 50
58.8795916695
 51
72.6383211656
  0
ARC
  5
479
100
AcDbEntity
  8
0
100
AcDbCircle
 62
7
  6
CONTINUOUS
 10
100.7216705774
 20
252.4542329785
 40
12.0
100
AcDbArc
 50
298.8795916695
 51
1.1214552885
  0
ARC
  5
47A
100
AcDbEntity
  8
0
100
AcDbCircle
 62
7
  6
CONTINUOUS
 10
100.7216704632
 20
252.4542329986
 40
11.0
100
AcDbArc
 50
15.8867748806
 51
44.1142659803
  0
ARC
  5
47B
100
AcDbEntity
  8
0
100
AcDbCircle
 62
7
  6
CONTINUOUS
 10
100.7216704632
 20
252.4542329986
 40
11.0
100
AcDbArc
 50
135.8867778479
 51
164.1142748101
  0
ARC
  5
47C
100
AcDbEntity
  8
0
100
AcDbCircle
 62
7
  6
CONTINUOUS
 10
105.3732152059
 20
260.1589803831
 40
3.0
100
AcDbArc
 50
19.9878209255
 51
58.8795916695
  0
ARC
  5
47D
100
AcDbEntity
  8
0
100
AcDbCircle
 62
7
  6
CONTINUOUS
 10
109.7199466566
 20
252.6303795156
 40
3.0
100
AcDbArc
 50
1.1214552885
 51
40.0132260325
  0
ARC
  5
47E
100
AcDbEntity
  8
0
100
AcDbCircle
 62
7
  6
CONTINUOUS
 10
105.0684052453
 20
244.573503461
 40
3.0
100
AcDbArc
 50
259.9878209255
 51
298.8795916695
  0
ARC
  5
47F
100
AcDbEntity
  8
0
100
AcDbCircle
 62
7
  6
CONTINUOUS
 10
128.8673477322
 20
268.7044901302
 40
22.0
100
AcDbArc
 50
199.9878209255
 51
220.0132260325
  0
ARC
  5
480
100
AcDbEntity
  8
AXES_REF
100
AcDbCircle
 62
7
  6
CONTINUOUS
 10
368.455252061
 20
315.6613898254
 40
22.0
100
AcDbArc
 50
93.4272382233
 51
115.5426136515
  0
ARC
  5
481
100
AcDbEntity
  8
AXES_REF
100
AcDbCircle
 62
7
  6
CONTINUOUS
 10
368.4552520554
 20
319.2470761078
 40
22.0
100
AcDbArc
 50
266.2495149693
 51
266.5727619547
  0
ARC
  5
482
100
AcDbEntity
  8
0
100
AcDbCircle
 62
7
  6
CONTINUOUS
 10
367.0205098213
 20
339.6184663312
 40
2.0
100
AcDbArc
 50
273.4272381522
 51
357.3922402789
  0
ARC
  5
483
100
AcDbEntity
  8
0
100
AcDbCircle
 62
7
  6
CONTINUOUS
 10
367.0205098902
 20
295.2899995975
 40
2.0
100
AcDbArc
 50
2.6077598991
 51
86.5727620258
  0
ARC
  5
484
100
AcDbEntity
  8
0
100
AcDbCircle
 62
7
  6
CONTINUOUS
 10
371.0163675595
 20
295.4719926916
 40
2.0
100
AcDbArc
 50
182.6077586882
 51
269.0000000792
  0
ARC
  5
485
100
AcDbEntity
  8
0
100
AcDbCircle
 62
7
  6
CONTINUOUS
 10
371.0163674912
 20
339.4364732496
 40
2.0
100
AcDbArc
 50
91.0000000989
 51
177.3922414899
  0
ARC
  5
486
100
AcDbEntity
  8
0
100
AcDbCircle
 62
7
  6
CONTINUOUS
 10
369.6197474587
 20
263.4223127666
 40
1.0
100
AcDbArc
 50
92.0000001004
 51
180.0000001004
  0
ARC
  5
487
100
AcDbEntity
  8
0
100
AcDbCircle
 62
7
  6
CONTINUOUS
 10
393.0036247149
 20
198.534835351
 40
1.0
100
AcDbArc
 50
180.7316185675
 51
269.9999965696
  0
ARC
  5
488
100
AcDbEntity
  8
0
100
AcDbCircle
 62
7
  6
CONTINUOUS
 10
393.0036199399
 20
383.0022374094
 40
1.0
100
AcDbArc
 50
90.0000021353
 51
179.2684021622
  0
ARC
  5
489
100
AcDbEntity
  8
0
100
AcDbCircle
 62
7
  6
CONTINUOUS
 10
372.8541440702
 20
241.960888928
 40
0.5000042862
100
AcDbArc
 50
91.1470462111
 51
132.5620193518
  0
ARC
  5
48A
100
AcDbEntity
  8
0
100
AcDbCircle
 62
7
  6
CONTINUOUS
 10
373.0163676209
 20
262.9443329728
 40
0.5
100
AcDbArc
 50
180.0000001004
 51
268.8542372623
  0
ARC
  5
48B
100
AcDbEntity
  8
0
100
AcDbCircle
 62
7
  6
CONTINUOUS
 10
372.0163676193
 20
263.9015470547
 40
0.5
100
AcDbArc
 50
359.9999985889
 51
88.0000000427
  0
ARC
  5
48C
100
AcDbEntity
  8
0
100
AcDbCircle
 62
7
  6
CONTINUOUS
 10
372.0163676143
 20
242.126109964
 40
0.5
100
AcDbArc
 50
271.9999950858
 51
359.9998797879
  0
ARC
  5
48D
100
AcDbEntity
  8
0
100
AcDbCircle
 62
7
  6
CONTINUOUS
 10
366.5163675243
 20
318.1433856323
 40
0.5
100
AcDbArc
 50
0.000000089
 51
25.000000089
  0
ARC
  5
48E
100
AcDbEntity
  8
0
100
AcDbCircle
 62
7
  6
CONTINUOUS
 10
366.5163675626
 20
293.4542263946
 40
0.5
100
AcDbArc
 50
269.9999020634
 51
359.9996973064
  0
ARC
  5
48F
100
AcDbEntity
  8
0
100
AcDbCircle
 62
7
  6
CONTINUOUS
 10
355.6463411109
 20
341.4542324074
 40
0.5
100
AcDbArc
 50
25.0000682714
 51
90.0000289041
  0
ARC
  5
490
100
AcDbEntity
  8
0
100
AcDbCircle
 62
7
  6
CONTINUOUS
 10
372.3163674829
 20
341.6542329789
 40
0.3
100
AcDbArc
 50
90.0000001004
 51
180.0000053736
  0
ARC
  5
491
100
AcDbEntity
  8
0
100
AcDbCircle
 62
7
  6
CONTINUOUS
 10
372.3163675678
 20
293.2542329789
 40
0.3
100
AcDbArc
 50
179.9999948273
 51
270.0000001004
  0
ARC
  5
492
100
AcDbEntity
  8
0
100
AcDbCircle
 62
7
  6
CONTINUOUS
 10
31.4124875737
 20
81.1464449367
 40
1.0000000004
100
AcDbArc
 50
90.9190145422
 51
180.0000013327
  0
ARC
  5
493
100
AcDbEntity
  8
0
100
AcDbCircle
 62
7
  6
CONTINUOUS
 10
97.1803379022
 20
73.1235011882
 40
0.5
100
AcDbArc
 50
90.4265378437
 51
175.0368300252
  0
ARC
  5
494
100
AcDbEntity
  8
0
100
AcDbCircle
 62
7
  6
CONTINUOUS
 10
98.928277668
 20
105.6846168244
 40
22.0
100
AcDbArc
 50
3.4272375592
 51
3.7502970497
  0
ARC
  5
495
100
AcDbEntity
  8
AXES_REF
100
AcDbCircle
 62
7
  6
CONTINUOUS
 10
98.928277668
 20
105.6846168244
 40
22.0
100
AcDbArc
 50
3.4272375592
 51
3.750485021
  0
ARC
  5
496
100
AcDbEntity
  8
0
100
AcDbCircle
 62
7
  6
CONTINUOUS
 10
78.7388805048
 20
103.1235015578
 40
2.0
100
AcDbArc
 50
92.6077586354
 51
178.9999994308
  0
ARC
  5
497
100
AcDbEntity
  8
0
100
AcDbCircle
 62
7
  6
CONTINUOUS
 10
78.5568874566
 20
107.1193592292
 40
2.0
100
AcDbArc
 50
272.6077586354
 51
356.5727613024
  0
ARC
  5
498
100
AcDbEntity
  8
0
100
AcDbCircle
 62
7
  6
CONTINUOUS
 10
89.7535907966
 20
104.5201214958
 40
1.0
100
AcDbArc
 50
89.9999994308
 51
177.9999996487
  0
ARC
  5
499
100
AcDbEntity
  8
0
100
AcDbCircle
 62
7
  6
CONTINUOUS
 10
90.2315705626
 20
101.1235013297
 40
0.5
100
AcDbArc
 50
1.145731752
 51
89.9984703618
  0
ARC
  5
49A
100
AcDbEntity
  8
0
100
AcDbCircle
 62
7
  6
CONTINUOUS
 10
89.2743564889
 20
102.1235013392
 40
0.5
100
AcDbArc
 50
181.9999988469
 51
269.9999837156
  0
ARC
  5
49B
100
AcDbEntity
  8
0
100
AcDbCircle
 62
7
  6
CONTINUOUS
 10
76.7212092351
 20
107.6235013394
 40
0.5
100
AcDbArc
 50
180.0001330492
 51
270.000000043
  0
ARC
  5
49C
100
AcDbEntity
  8
0
100
AcDbCircle
 62
7
  6
CONTINUOUS
 10
76.5210766925
 20
101.8235015798
 40
0.3
100
AcDbArc
 50
89.9999994308
 51
179.9999994302
  0
ARC
  5
49D
100
AcDbEntity
  8
0
100
AcDbCircle
 62
7
  6
CONTINUOUS
 10
170.0300354607
 20
81.1464435148
 40
1.0000000001
100
AcDbArc
 50
0.0000001025
 51
89.0742500281
  0
ARC
  5
49E
100
AcDbEntity
  8
0
100
AcDbCircle
 62
7
  6
CONTINUOUS
 10
104.264006728
 20
73.1235011179
 40
0.5
100
AcDbArc
 50
4.9777262977
 51
89.7438049837
  0
ARC
  5
49F
100
AcDbEntity
  8
AXES_REF
100
AcDbCircle
 62
7
  6
CONTINUOUS
 10
102.5139639504
 20
105.6846167888
 40
22.0
100
AcDbArc
 50
176.2495148871
 51
176.5727613024
  0
ARC
  5
4A0
100
AcDbEntity
  8
0
100
AcDbCircle
 62
7
  6
CONTINUOUS
 10
122.7033610627
 20
103.123501121
 40
2.0
100
AcDbArc
 50
0.9999994308
 51
87.3922402262
  0
ARC
  5
4A1
100
AcDbEntity
  8
0
100
AcDbCircle
 62
7
  6
CONTINUOUS
 10
122.8853541903
 20
107.1193587889
 40
2.0
100
AcDbArc
 50
183.4272375592
 51
267.3922402262
  0
ARC
  5
4A2
100
AcDbEntity
  8
0
100
AcDbCircle
 62
7
  6
CONTINUOUS
 10
111.689750376
 20
104.5201212779
 40
1.0
100
AcDbArc
 50
1.999999112
 51
89.9999994308
  0
ARC
  5
4A3
100
AcDbEntity
  8
0
100
AcDbCircle
 62
7
  6
CONTINUOUS
 10
111.2117705426
 20
101.1235011212
 40
0.5
100
AcDbArc
 50
90.0015267941
 51
178.8542670753
  0
ARC
  5
4A4
100
AcDbEntity
  8
0
100
AcDbCircle
 62
7
  6
CONTINUOUS
 10
112.1689846361
 20
102.1235011117
 40
0.5
100
AcDbArc
 50
270.0000221563
 51
358.0000002742
  0
ARC
  5
4A5
100
AcDbEntity
  8
0
100
AcDbCircle
 62
7
  6
CONTINUOUS
 10
124.7210326697
 20
107.6235013394
 40
0.5
100
AcDbArc
 50
269.9999999565
 51
359.9998669508
  0
ARC
  5
4A6
100
AcDbEntity
  8
0
100
AcDbCircle
 62
7
  6
CONTINUOUS
 10
124.9210766904
 20
101.823501099
 40
0.3
100
AcDbArc
 50
359.9999994311
 51
89.9999994308
  0
ENDSEC
  0
SECTION
  2
OBJECTS
  0
DICTIONARY
  5
C
100
AcDbDictionary
280
0
281
1
  3
ACAD_GROUP
350
D
  3
ACAD_MLINESTYLE
350
17
  3
ACAD_LAYOUT
350
1A
  3
ACAD_PLOTSETTINGS
350
19
  3
ACAD_PLOTSTYLENAME
350
E
  0
DICTIONARY
  5
D
102
{ACAD_REACTORS
330
C
102
}
100
AcDbDictionary
280
0
281
1
  0
ACDBDICTIONARYWDFLT
  5
E
102
{ACAD_REACTORS
330
C
102
}
100
AcDbDictionary
281
1
  3
Normal
350
F
100
AcDbDictionaryWithDefault
340
F
  0
DICTIONARY
  5
17
102
{ACAD_REACTORS
330
C
102
}
100
AcDbDictionary
280
0
281
1
  3
Standard
350
18
  0
DICTIONARY
  5
19
102
{ACAD_REACTORS
330
C
102
}
100
AcDbDictionary
281
1
  0
DICTIONARY
  5
1A
102
{ACAD_REACTORS
330
C
102
}
100
AcDbDictionary
281
1
  3
Model
350
4A7
  3
Layout1
350
4A8
  0
ACDBPLACEHOLDER
  5
F
102
{ACAD_REACTORS
330
E
102
}
  0
MLINESTYLE
  5
18
102
{ACAD_REACTORS
330
17
102
}
100
AcDbMlineStyle
  2
STANDARD
 70
0
  3

 62
256
 51
90.0
 52
90.0
 71
2
 49
0.5
 62
256
  6
BYLAYER
 49
-0.5
 62
256
  6
BYLAYER
  0
LAYOUT
  5
4A7
102
{ACAD_REACTORS
330
1A
102
}
100
AcDbPlotSettings
  1

  2
none_device
  4
ISO_A2_(594.00_x_420.00_MM)
  6

 40
0.0
 41
0.0
 42
0.0
 43
0.0
 44
594.0
 45
420.0
 46
0.0
 47
0.0
 48
0.0
 49
0.0
140
0.0
141
0.0
142
1.0
143
1.0
 70
1024
 72
1
 73
0
 74
0
  7

 75
0
147
1.0
148
0.0
149
0.0
100
AcDbLayout
  1
Model
 70
0
 71
0
 10
0.0
 20
0.0
 11
594.0
 21
420.0
 12
0.0
 22
0.0
 32
0.0
 14
0.0
 24
0.0
 34
0.0
 15
0.0
 25
0.0
 35
0.0
146
0.0
 13
0.0
 23
0.0
 33
0.0
 16
1.0
 26
0.0
 36
0.0
 17
0.0
 27
1.0
 37
0.0
 76
0
330
227
345
0
346
0
  0
LAYOUT
  5
4A8
102
{ACAD_REACTORS
330
1A
102
}
100
AcDbPlotSettings
  1

  2
none_device
  4
ISO_A2_(594.00_x_420.00_MM)
  6

 40
0.0
 41
0.0
 42
0.0
 43
0.0
 44
594.0
 45
420.0
 46
0.0
 47
0.0
 48
0.0
 49
0.0
140
0.0
141
0.0
142
1.0
143
1.0
 70
0
 72
1
 73
0
 74
0
  7

 75
0
147
1.0
148
0.0
149
0.0
100
AcDbLayout
  1
Layout1
 70
0
 71
1
 10
0.0
 20
0.0
 11
594.0
 21
420.0
 12
0.0
 22
0.0
 32
0.0
 14
0.0
 24
0.0
 34
0.0
 15
0.0
 25
0.0
 35
0.0
146
0.0
 13
0.0
 23
0.0
 33
0.0
 16
1.0
 26
0.0
 36
0.0
 17
0.0
 27
1.0
 37
0.0
 76
0
330
228
345
0
346
0
  0
ENDSEC
  0
EOF
