  0
SECTION
  2
HEADER
  9
$ACADVER
  1
AC1009
  9
$DWGCODEPAGE
  3
ansi_1252
  9
$INSBASE
 10
0.0
 20
0.0
 30
0.0
  9
$EXTMIN
 10
-142.1499796549479
 20
-98.59846055772569
 30
0.0
  9
$EXTMAX
 10
150.4481811523438
 20
28.01603325737847
 30
0.0
  9
$LIMMIN
 10
0.0
 20
0.0
  9
$LIMMAX
 10
144.0
 20
108.0
  9
$ORTHOMODE
 70
     0
  9
$REGENMODE
 70
     1
  9
$FILLMODE
 70
     1
  9
$QTEXTMODE
 70
     0
  9
$MIRRTEXT
 70
     1
  9
$DRAGMODE
 70
     2
  9
$LTSCALE
 40
4.0
  9
$OSMODE
 70
    37
  9
$ATTMODE
 70
     1
  9
$TEXTSIZE
 40
0.003
  9
$TRACEWID
 40
0.05
  9
$TEXTSTYLE
  7
STANDARD
  9
$CLAYER
  8
0
  9
$CELTYPE
  6
CONTINUOUS
  9
$CECOLOR
 62
   256
  9
$DIMSCALE
 40
1.0
  9
$DIMASZ
 40
0.18
  9
$DIMEXO
 40
0.0625
  9
$DIMDLI
 40
0.38
  9
$DIMRND
 40
0.0
  9
$DIMDLE
 40
0.0
  9
$DIMEXE
 40
0.18
  9
$DIMTP
 40
0.0
  9
$DIMTM
 40
0.0
  9
$DIMTXT
 40
0.18
  9
$DIMCEN
 40
0.09
  9
$DIMTSZ
 40
0.0
  9
$DIMTOL
 70
     0
  9
$DIMLIM
 70
     0
  9
$DIMTIH
 70
     1
  9
$DIMTOH
 70
     1
  9
$DIMSE1
 70
     0
  9
$DIMSE2
 70
     0
  9
$DIMTAD
 70
     0
  9
$DIMZIN
 70
     0
  9
$DIMBLK
  1

  9
$DIMASO
 70
     1
  9
$DIMSHO
 70
     1
  9
$DIMPOST
  1

  9
$DIMAPOST
  1

  9
$DIMALT
 70
     0
  9
$DIMALTD
 70
     2
  9
$DIMALTF
 40
25.4
  9
$DIMLFAC
 40
1.0
  9
$DIMTOFL
 70
     0
  9
$DIMTVP
 40
0.0
  9
$DIMTIX
 70
     0
  9
$DIMSOXD
 70
     0
  9
$DIMSAH
 70
     0
  9
$DIMBLK1
  1

  9
$DIMBLK2
  1

  9
$DIMSTYLE
  2
STANDARD
  9
$DIMCLRD
 70
     0
  9
$DIMCLRE
 70
     0
  9
$DIMCLRT
 70
     0
  9
$DIMTFAC
 40
1.0
  9
$DIMGAP
 40
0.09
  9
$LUNITS
 70
     2
  9
$LUPREC
 70
     4
  9
$SKETCHINC
 40
0.1
  9
$FILLETRAD
 40
0.0
  9
$AUNITS
 70
     0
  9
$AUPREC
 70
     0
  9
$MENU
  1
acad
  9
$ELEVATION
 40
0.0
  9
$PELEVATION
 40
0.0
  9
$THICKNESS
 40
0.0
  9
$LIMCHECK
 70
     0
  9
$CHAMFERA
 40
0.0
  9
$CHAMFERB
 40
0.0
  9
$SKPOLY
 70
     0
  9
$TDCREATE
 40
2453711.567955231
  9
$TDUPDATE
 40
2453720.49300919
  9
$TDINDWG
 40
0.0115424074
  9
$TDUSRTIMER
 40
0.0115424074
  9
$USRTIMER
 70
     1
  9
$ANGBASE
 50
0.0
  9
$ANGDIR
 70
     0
  9
$PDMODE
 70
     3
  9
$PDSIZE
 40
-2.0
  9
$PLINEWID
 40
0.0
  9
$COORDS
 70
     1
  9
$SPLFRAME
 70
     0
  9
$SPLINETYPE
 70
     6
  9
$SPLINESEGS
 70
     8
  9
$ATTDIA
 70
     0
  9
$ATTREQ
 70
     1
  9
$HANDLING
 70
     1
  9
$HANDSEED
  5
141
  9
$SURFTAB1
 70
     6
  9
$SURFTAB2
 70
     6
  9
$SURFTYPE
 70
     6
  9
$SURFU
 70
     6
  9
$SURFV
 70
     6
  9
$UCSNAME
  2

  9
$UCSORG
 10
0.0
 20
0.0
 30
0.0
  9
$UCSXDIR
 10
1.0
 20
0.0
 30
0.0
  9
$UCSYDIR
 10
0.0
 20
1.0
 30
0.0
  9
$PUCSNAME
  2

  9
$PUCSORG
 10
0.0
 20
0.0
 30
0.0
  9
$PUCSXDIR
 10
1.0
 20
0.0
 30
0.0
  9
$PUCSYDIR
 10
0.0
 20
1.0
 30
0.0
  9
$USERI1
 70
     0
  9
$USERI2
 70
     0
  9
$USERI3
 70
     0
  9
$USERI4
 70
     0
  9
$USERI5
 70
     0
  9
$USERR1
 40
0.0
  9
$USERR2
 40
0.0
  9
$USERR3
 40
0.0
  9
$USERR4
 40
0.0
  9
$USERR5
 40
0.0
  9
$WORLDVIEW
 70
     1
  9
$SHADEDGE
 70
     3
  9
$SHADEDIF
 70
    70
  9
$TILEMODE
 70
     1
  9
$MAXACTVP
 70
    16
  9
$PLIMCHECK
 70
     0
  9
$PEXTMIN
 10
1.000000000000000E+20
 20
1.000000000000000E+20
 30
1.000000000000000E+20
  9
$PEXTMAX
 10
-1.000000000000000E+20
 20
-1.000000000000000E+20
 30
-1.000000000000000E+20
  9
$PLIMMIN
 10
0.0
 20
0.0
  9
$PLIMMAX
 10
12.0
 20
9.0
  9
$UNITMODE
 70
     0
  9
$VISRETAIN
 70
     0
  9
$PLINEGEN
 70
     1
  9
$PSLTSCALE
 70
     0
  0
ENDSEC
  0
SECTION
  2
TABLES
  0
TABLE
  2
VPORT
 70
     1
  0
VPORT
  2
*ACTIVE
 70
     0
 10
0.0
 20
0.0
 11
1.0
 21
1.0
 12
-32.19383144383306
 22
-7.963034133070181
 13
0.0
 23
0.0
 14
1.0
 24
1.0
 15
0.0
 25
0.0
 16
0.0
 26
0.0
 36
1.0
 17
0.0
 27
0.0
 37
0.0
 40
488.8129118208769
 41
1.583243823845328
 42
50.0
 43
0.0
 44
0.0
 50
0.0
 51
0.0
 71
     0
 72
   100
 73
     1
 74
     1
 75
     0
 76
     0
 77
     0
 78
     0
  0
ENDTAB
  0
TABLE
  2
LTYPE
 70
     1
  0
LTYPE
  2
CONTINUOUS
 70
     0
  3
Solid line
 72
    65
 73
     0
 40
0.0
  0
ENDTAB
  0
TABLE
  2
LAYER
 70
     1
  0
LAYER
  2
0
 70
     0
 62
     7
  6
CONTINUOUS
  0
ENDTAB
  0
TABLE
  2
STYLE
 70
     1
  0
STYLE
  2
STANDARD
 70
     0
 40
0.0
 41
1.0
 50
0.0
 71
     0
 42
0.003
  3
txt
  4

  0
ENDTAB
  0
TABLE
  2
VIEW
 70
     0
  0
ENDTAB
  0
TABLE
  2
UCS
 70
     0
  0
ENDTAB
  0
TABLE
  2
APPID
 70
     1
  0
APPID
  2
ACAD
 70
     0
  0
ENDTAB
  0
TABLE
  2
DIMSTYLE
 70
     1
  0
DIMSTYLE
  2
STANDARD
 70
     0
  3

  4

  5

  6

  7

 40
1.0
 41
0.18
 42
0.0625
 43
0.38
 44
0.18
 45
0.0
 46
0.0
 47
0.0
 48
0.0
140
0.18
141
0.09
142
0.0
143
25.4
144
1.0
145
0.0
146
1.0
147
0.09
 71
     0
 72
     0
 73
     1
 74
     1
 75
     0
 76
     0
 77
     0
 78
     0
170
     0
171
     2
172
     0
173
     0
174
     0
175
     0
176
     0
177
     0
178
     0
  0
ENDTAB
  0
ENDSEC
  0
SECTION
  2
BLOCKS
  0
BLOCK
  8
0
  2
$MODEL_SPACE
 70
     2
 10
0.0
 20
0.0
 30
0.0
  3
$MODEL_SPACE
  1

  0
ENDBLK
  5
B
  8
0
  0
BLOCK
 67
     1
  8
0
  2
$PAPER_SPACE
 70
     0
 10
0.0
 20
0.0
 30
0.0
  3
$PAPER_SPACE
  1

  0
ENDBLK
  5
10
 67
     1
  8
0
  0
ENDSEC
  0
SECTION
  2
ENTITIES
  0
LINE
  5
2A
  8
0
 10
106.1852498372396
 20
-29.41698133680555
 30
0.0
 11
101.7875854492187
 21
-26.48365478515626
 31
0.0
  0
LINE
  5
2B
  8
0
 10
115.7333319769965
 20
-31.31298963758681
 30
0.0
 11
106.1852498372396
 21
-29.41698133680555
 31
0.0
  0
LINE
  5
2C
  8
0
 10
125.2817586263021
 20
-29.41698133680555
 30
0.0
 11
115.7333319769965
 21
-31.31298963758681
 31
0.0
  0
LINE
  5
2D
  8
0
 10
129.4234524197049
 20
-26.65435926649306
 30
0.0
 11
125.2817586263021
 21
-29.41698133680555
 31
0.0
  0
LINE
  5
2E
  8
0
 10
126.1736938476562
 20
18.75613335503471
 30
0.0
 11
131.7248175499106
 21
15.05336746317684
 31
0.0
  0
LINE
  5
2F
  8
0
 10
115.7333319769965
 20
20.82921956380207
 30
0.0
 11
126.1736938476562
 21
18.75613335503471
 31
0.0
  0
LINE
  5
30
  8
0
 10
105.2933146158854
 20
18.75613335503471
 30
0.0
 11
115.7333319769965
 21
20.82921956380207
 31
0.0
  0
LINE
  5
31
  8
0
 10
99.48626776704094
 20
14.88265905368016
 30
0.0
 11
105.2933146158854
 21
18.75613335503471
 31
0.0
  0
LINE
  5
32
  8
0
 10
96.44286431206598
 20
-25.66217176649306
 30
0.0
 11
94.74029812282987
 21
-23.11814100477432
 31
0.0
  0
LINE
  5
33
  8
0
 10
105.2933146158854
 20
-31.56568739149307
 30
0.0
 11
96.44286431206598
 21
-25.66217176649306
 31
0.0
  0
LINE
  5
34
  8
0
 10
115.7333319769965
 20
-33.63877360026044
 30
0.0
 11
105.2933146158854
 21
-31.56568739149307
 31
0.0
  0
LINE
  5
35
  8
0
 10
126.1736938476562
 20
-31.56568739149307
 30
0.0
 11
115.7333319769965
 21
-33.63877360026044
 31
0.0
  0
LINE
  5
36
  8
0
 10
135.0241441514757
 20
-25.66217176649306
 30
0.0
 11
126.1736938476562
 21
-31.56568739149307
 31
0.0
  0
LINE
  5
37
  8
0
 10
136.1562025282118
 20
-23.97045762803819
 30
0.0
 11
135.0241441514757
 21
-25.66217176649306
 31
0.0
  0
POLYLINE
  5
38
  8
0
 66
     1
 10
0.0
 20
0.0
 30
0.0
 70
     1
  0
VERTEX
  5
10E
  8
0
 10
116.0716403537326
 20
17.9219034830729
 30
0.0
  0
VERTEX
  5
10F
  8
0
 10
133.2599107530382
 20
14.7720526801215
 30
0.0
  0
VERTEX
  5
110
  8
0
 10
145.8427775065104
 20
6.166204155815962
 30
0.0
  0
VERTEX
  5
111
  8
0
 10
150.4481811523438
 20
-5.5896674262153
 30
0.0
  0
VERTEX
  5
112
  8
0
 10
145.8427775065104
 20
-17.34553900824653
 30
0.0
  0
VERTEX
  5
113
  8
0
 10
133.2599107530382
 20
-25.9513875325521
 30
0.0
  0
VERTEX
  5
114
  8
0
 10
116.0716403537326
 20
-29.10141059027779
 30
0.0
  0
VERTEX
  5
115
  8
0
 10
98.88268093532986
 20
-25.9513875325521
 30
0.0
  0
VERTEX
  5
116
  8
0
 10
86.30015869140624
 20
-17.34553900824653
 30
0.0
  0
VERTEX
  5
117
  8
0
 10
81.69441053602429
 20
-5.5896674262153
 30
0.0
  0
VERTEX
  5
118
  8
0
 10
86.30015869140624
 20
6.166204155815962
 30
0.0
  0
VERTEX
  5
119
  8
0
 10
98.88268093532986
 20
14.7720526801215
 30
0.0
  0
SEQEND
  5
10D
  8
0
  0
POLYLINE
  5
39
  8
0
 66
     1
 10
0.0
 20
0.0
 30
0.0
 70
     1
  0
VERTEX
  5
11B
  8
0
 10
116.0716349346171
 20
16.39692543518407
 30
0.0
  0
VERTEX
  5
11C
  8
0
 10
132.6761192940421
 20
13.35405682903033
 30
0.0
  0
VERTEX
  5
11D
  8
0
 10
144.6146455816654
 20
5.188894561347979
 30
0.0
  0
VERTEX
  5
11E
  8
0
 10
148.8371847892422
 20
-5.5896674262153
 30
0.0
  0
VERTEX
  5
11F
  8
0
 10
144.6146455816654
 20
-16.36822941377855
 30
0.0
  0
VERTEX
  5
120
  8
0
 10
132.6761130207922
 20
-24.53339597194889
 30
0.0
  0
VERTEX
  5
121
  8
0
 10
116.0716349343303
 20
-27.57642983275952
 30
0.0
  0
VERTEX
  5
122
  8
0
 10
99.46648390562825
 20
-24.5333946295099
 30
0.0
  0
VERTEX
  5
123
  8
0
 10
87.52827721808168
 20
-16.36822739092287
 30
0.0
  0
VERTEX
  5
124
  8
0
 10
83.30542293384423
 20
-5.589667426215272
 30
0.0
  0
VERTEX
  5
125
  8
0
 10
87.52827721808166
 20
5.188892538492269
 30
0.0
  0
VERTEX
  5
126
  8
0
 10
99.4664776326417
 20
13.35405548665398
 30
0.0
  0
SEQEND
  5
11A
  8
0
  0
LINE
  5
3A
  8
0
 10
145.8427775065104
 20
-17.34553900824653
 30
0.0
 11
133.2599107530382
 21
-25.9513875325521
 31
0.0
  0
LINE
  5
3B
  8
0
 10
86.30015869140624
 20
6.166204155815962
 30
0.0
 11
81.69441053602429
 21
-5.5896674262153
 31
0.0
  0
LINE
  5
3C
  8
0
 10
-117.6591403537326
 20
-29.41698133680555
 30
0.0
 11
-122.0566064805328
 21
-26.48377766802497
 31
0.0
  0
LINE
  5
3D
  8
0
 10
-108.1108859592014
 20
-31.31298963758681
 30
0.0
 11
-117.6591403537326
 21
-29.41698133680555
 31
0.0
  0
LINE
  5
3E
  8
0
 10
-98.56263156467013
 20
-29.41698133680555
 30
0.0
 11
-108.1108859592014
 21
-31.31298963758681
 31
0.0
  0
LINE
  5
3F
  8
0
 10
-94.42112181453216
 20
-26.65450602872735
 30
0.0
 11
-98.56263156467013
 21
-29.41698133680555
 31
0.0
  0
LINE
  5
40
  8
0
 10
8.95053032769097
 20
-86.29878065321181
 30
0.0
 11
8.95053032769097
 21
-90.7729261610243
 31
0.0
  0
LINE
  5
41
  8
0
 10
8.95053032769097
 20
-26.97750922309029
 30
0.0
 11
8.95053032769097
 21
-86.29878065321181
 31
0.0
  0
LINE
  5
42
  8
0
 10
9.659657083201168
 20
-25.4321719268896
 30
0.0
 11
8.95053032769097
 21
-26.97750922309029
 31
0.0
  0
LINE
  5
43
  8
0
 10
-8.773796929253464
 20
-89.21402045355903
 30
0.0
 11
-8.773796929253464
 21
-90.7729261610243
 31
0.0
  0
LINE
  5
44
  8
0
 10
-8.773796929253464
 20
-80.84553900824653
 30
0.0
 11
-8.773796929253464
 21
-89.21402045355903
 31
0.0
  0
LINE
  5
45
  8
0
 10
-8.773796929253464
 20
-26.97750922309029
 30
0.0
 11
-8.773796929253464
 21
-80.84553900824653
 31
0.0
  0
LINE
  5
46
  8
0
 10
-9.458237100861254
 20
-25.48604975081992
 30
0.0
 11
-8.773796929253464
 21
-26.97750922309029
 31
0.0
  0
LINE
  5
47
  8
0
 10
9.060773383246527
 20
-90.52108968098959
 30
0.0
 11
8.95053032769097
 21
-90.19166150008674
 31
0.0
  0
POLYLINE
  5
48
  8
0
 66
     1
 10
0.0
 20
0.0
 30
0.0
 70
   132
 75
     6
  0
VERTEX
  5
49
  8
0
 10
-8.883867730034723
 20
-90.52108968098959
 30
0.0
 70
    16
  0
VERTEX
  5
4A
  8
0
 10
-8.883867730034723
 20
-90.52108968098959
 30
0.0
 70
     8
  0
VERTEX
  5
4B
  8
0
 10
-8.376495161321415
 20
-91.85556653826326
 30
0.0
 70
     8
  0
VERTEX
  5
4C
  8
0
 10
-7.847635491689047
 20
-92.97250344664963
 30
0.0
 70
     8
  0
VERTEX
  5
4D
  8
0
 10
-7.301026178730851
 20
-93.89654528697331
 30
0.0
 70
     8
  0
VERTEX
  5
4E
  8
0
 10
-6.740404680040143
 20
-94.65233694005894
 30
0.0
 70
     8
  0
VERTEX
  5
4F
  8
0
 10
-6.169508453210185
 20
-95.26452328673113
 30
0.0
 70
     8
  0
VERTEX
  5
50
  8
0
 10
-5.592074955834292
 20
-95.75774920781451
 30
0.0
 70
     8
  0
VERTEX
  5
51
  8
0
 10
-5.011841645505697
 20
-96.15665958413369
 30
0.0
 70
     8
  0
VERTEX
  5
52
  8
0
 10
-4.432545979817718
 20
-96.48589929651331
 30
0.0
 70
     8
  0
VERTEX
  5
53
  8
0
 10
-3.857205220946568
 20
-96.76630567753757
 30
0.0
 70
     8
  0
VERTEX
  5
54
  8
0
 10
-3.285955849400281
 20
-97.0034858668292
 30
0.0
 70
     8
  0
VERTEX
  5
55
  8
0
 10
-2.718214150269844
 20
-97.19923945577057
 30
0.0
 70
     8
  0
VERTEX
  5
56
  8
0
 10
-2.153396408646202
 20
-97.355366035744
 30
0.0
 70
     8
  0
VERTEX
  5
57
  8
0
 10
-1.590918909620356
 20
-97.47366519813184
 30
0.0
 70
     8
  0
VERTEX
  5
58
  8
0
 10
-1.030197938283294
 20
-97.55593653431644
 30
0.0
 70
     8
  0
VERTEX
  5
59
  8
0
 10
-0.4706497797259743
 20
-97.60397963568016
 30
0.0
 70
     8
  0
VERTEX
  5
5A
  8
0
 10
0.088309280960658
 20
-97.61959409360533
 30
0.0
 70
     8
  0
VERTEX
  5
5B
  8
0
 10
0.6472634633382342
 20
-97.60397963568018
 30
0.0
 70
     8
  0
VERTEX
  5
5C
  8
0
 10
1.206799005579072
 20
-97.55593653431646
 30
0.0
 70
     8
  0
VERTEX
  5
5D
  8
0
 10
1.767502650508192
 20
-97.47366519813185
 30
0.0
 70
     8
  0
VERTEX
  5
5E
  8
0
 10
2.32996114095053
 20
-97.35536603574401
 30
0.0
 70
     8
  0
VERTEX
  5
5F
  8
0
 10
2.89476121973108
 20
-97.19923945577058
 30
0.0
 70
     8
  0
VERTEX
  5
60
  8
0
 10
3.462489629674863
 20
-97.00348586682922
 30
0.0
 70
     8
  0
VERTEX
  5
61
  8
0
 10
4.033733113606772
 20
-96.76630567753757
 30
0.0
 70
     8
  0
VERTEX
  5
62
  8
0
 10
4.609078414351856
 20
-96.48589929651331
 30
0.0
 70
     8
  0
VERTEX
  5
63
  8
0
 10
5.188391294302775
 20
-96.15665958413372
 30
0.0
 70
     8
  0
VERTEX
  5
64
  8
0
 10
5.768653594122995
 20
-95.75774920781454
 30
0.0
 70
     8
  0
VERTEX
  5
65
  8
0
 10
6.346126174043732
 20
-95.26452328673115
 30
0.0
 70
     8
  0
VERTEX
  5
66
  8
0
 10
6.917069894296148
 20
-94.65233694005896
 30
0.0
 70
     8
  0
VERTEX
  5
67
  8
0
 10
7.477745615111459
 20
-93.89654528697331
 30
0.0
 70
     8
  0
VERTEX
  5
68
  8
0
 10
8.024414196720827
 20
-92.97250344664961
 30
0.0
 70
     8
  0
VERTEX
  5
69
  8
0
 10
8.553336499355467
 20
-91.85556653826323
 30
0.0
 70
     8
  0
VERTEX
  5
6A
  8
0
 10
9.060773383246527
 20
-90.52108968098958
 30
0.0
 70
     8
  0
VERTEX
  5
6B
  8
0
 10
-7.562845865885407
 20
-94.39165445963542
 30
0.0
 70
    16
  0
VERTEX
  5
6C
  8
0
 10
-4.382678222656253
 20
-96.96617431640625
 30
0.0
 70
    16
  0
VERTEX
  5
6D
  8
0
 10
0.0883666992187528
 20
-97.94630398220487
 30
0.0
 70
    16
  0
VERTEX
  5
6E
  8
0
 10
4.559067111545147
 20
-96.96617431640625
 30
0.0
 70
    16
  0
VERTEX
  5
6F
  8
0
 10
7.739579264322913
 20
-94.39165445963542
 30
0.0
 70
    16
  0
VERTEX
  5
70
  8
0
 10
9.060773383246527
 20
-90.52108968098959
 30
0.0
 70
    16
  0
SEQEND
  5
71
  8
0
  0
LINE
  5
72
  8
0
 10
-8.883867730034723
 20
-90.52108968098959
 30
0.0
 11
-8.77379692925345
 21
-90.1920837882665
 31
0.0
  0
LINE
  5
73
  8
0
 10
8.950530327690984
 20
-86.11207393579821
 30
0.0
 11
9.116928439670147
 21
-86.24675971137152
 31
0.0
  0
LINE
  5
74
  8
0
 10
-8.940022786458329
 20
-86.24675971137152
 30
0.0
 11
-8.773796929253464
 21
-86.11221336206691
 31
0.0
  0
POLYLINE
  5
75
  8
0
 66
     1
 10
0.0
 20
0.0
 30
0.0
 70
   132
 75
     6
  0
VERTEX
  5
76
  8
0
 10
9.116928439670147
 20
-86.24675971137152
 30
0.0
 70
    16
  0
VERTEX
  5
77
  8
0
 10
9.116928439670147
 20
-86.24675971137152
 30
0.0
 70
     8
  0
VERTEX
  5
78
  8
0
 10
9.555891303221387
 20
-87.75113483932283
 30
0.0
 70
     8
  0
VERTEX
  5
79
  8
0
 10
9.815915436214866
 20
-89.07389254040187
 30
0.0
 70
     8
  0
VERTEX
  5
7A
  8
0
 10
9.918970387511777
 20
-90.23345162736045
 30
0.0
 70
     8
  0
VERTEX
  5
7B
  8
0
 10
9.887025705973301
 20
-91.24823091295031
 30
0.0
 70
     8
  0
VERTEX
  5
7C
  8
0
 10
9.742050940460629
 20
-92.13664920992321
 30
0.0
 70
     8
  0
VERTEX
  5
7D
  8
0
 10
9.506015639834928
 20
-92.91712533103095
 30
0.0
 70
     8
  0
VERTEX
  5
7E
  8
0
 10
9.20088935295739
 20
-93.60807808902527
 30
0.0
 70
     8
  0
VERTEX
  5
7F
  8
0
 10
8.848641628689236
 20
-94.22792629665798
 30
0.0
 70
     8
  0
VERTEX
  5
80
  8
0
 10
8.467608628891142
 20
-94.79250427219603
 30
0.0
 70
     8
  0
VERTEX
  5
81
  8
0
 10
8.06159296742193
 20
-95.30730835596721
 30
0.0
 70
     8
  0
VERTEX
  5
82
  8
0
 10
7.630763871139962
 20
-95.77525039381452
 30
0.0
 70
     8
  0
VERTEX
  5
83
  8
0
 10
7.17529056690357
 20
-96.19924223158094
 30
0.0
 70
     8
  0
VERTEX
  5
84
  8
0
 10
6.695342281571143
 20
-96.58219571510951
 30
0.0
 70
     8
  0
VERTEX
  5
85
  8
0
 10
6.191088242000987
 20
-96.92702269024319
 30
0.0
 70
     8
  0
VERTEX
  5
86
  8
0
 10
5.662697675051518
 20
-97.23663500282498
 30
0.0
 70
     8
  0
VERTEX
  5
87
  8
0
 10
5.110339807581028
 20
-97.51394449869791
 30
0.0
 70
     8
  0
VERTEX
  5
88
  8
0
 10
4.534651511245315
 20
-97.76123708619012
 30
0.0
 70
     8
  0
VERTEX
  5
89
  8
0
 10
3.938140236889879
 20
-97.97829492357042
 30
0.0
 70
     8
  0
VERTEX
  5
8A
  8
0
 10
3.323781080157673
 20
-98.16427423159281
 30
0.0
 70
     8
  0
VERTEX
  5
8B
  8
0
 10
2.69454913669162
 20
-98.31833123101129
 30
0.0
 70
     8
  0
VERTEX
  5
8C
  8
0
 10
2.053419502134688
 20
-98.43962214257982
 30
0.0
 70
     8
  0
VERTEX
  5
8D
  8
0
 10
1.403367272129771
 20
-98.52730318705241
 30
0.0
 70
     8
  0
VERTEX
  5
8E
  8
0
 10
0.7473675423198358
 20
-98.58053058518304
 30
0.0
 70
     8
  0
VERTEX
  5
8F
  8
0
 10
0.0883954083477931
 20
-98.59846055772569
 30
0.0
 70
     8
  0
VERTEX
  5
90
  8
0
 10
-0.5705742023609304
 20
-98.58053058518304
 30
0.0
 70
     8
  0
VERTEX
  5
91
  8
0
 10
-1.226567035251193
 20
-98.52730318705241
 30
0.0
 70
     8
  0
VERTEX
  5
92
  8
0
 10
-1.876609003985365
 20
-98.43962214257982
 30
0.0
 70
     8
  0
VERTEX
  5
93
  8
0
 10
-2.517726022225844
 20
-98.31833123101129
 30
0.0
 70
     8
  0
VERTEX
  5
94
  8
0
 10
-3.146944003634999
 20
-98.16427423159281
 30
0.0
 70
     8
  0
VERTEX
  5
95
  8
0
 10
-3.761288861875173
 20
-97.97829492357042
 30
0.0
 70
     8
  0
VERTEX
  5
96
  8
0
 10
-4.357786510608804
 20
-97.76123708619012
 30
0.0
 70
     8
  0
VERTEX
  5
97
  8
0
 10
-4.933462863498264
 20
-97.51394449869791
 30
0.0
 70
     8
  0
VERTEX
  5
98
  8
0
 10
-5.485811422930823
 20
-97.23663634856543
 30
0.0
 70
     8
  0
VERTEX
  5
99
  8
0
 10
-6.014196046193447
 20
-96.92703345616658
 30
0.0
 70
     8
  0
VERTEX
  5
9A
  8
0
 10
-6.518448179297977
 20
-96.58223205010096
 30
0.0
 70
     8
  0
VERTEX
  5
9B
  8
0
 10
-6.998399268256293
 20
-96.19932835896809
 30
0.0
 70
     8
  0
VERTEX
  5
9C
  8
0
 10
-7.453880759080249
 20
-95.77541861136754
 30
0.0
 70
     8
  0
VERTEX
  5
9D
  8
0
 10
-7.8847240977817
 20
-95.30759903589885
 30
0.0
 70
     8
  0
VERTEX
  5
9E
  8
0
 10
-8.290760730372526
 20
-94.79296586116155
 30
0.0
 70
     8
  0
VERTEX
  5
9F
  8
0
 10
-8.671822102864581
 20
-94.22861531575521
 30
0.0
 70
     8
  0
VERTEX
  5
A0
  8
0
 10
-9.024104984601337
 20
-93.60904836787118
 30
0.0
 70
     8
  0
VERTEX
  5
A1
  8
0
 10
-9.329267438252757
 20
-92.91838494406805
 30
0.0
 70
     8
  0
VERTEX
  5
A2
  8
0
 10
-9.56533284982045
 20
-92.13814971049627
 30
0.0
 70
     8
  0
VERTEX
  5
A3
  8
0
 10
-9.710324605305999
 20
-91.2498673333062
 30
0.0
 70
     8
  0
VERTEX
  5
A4
  8
0
 10
-9.742266090710956
 20
-90.23506247864829
 30
0.0
 70
     8
  0
VERTEX
  5
A5
  8
0
 10
-9.639180692036945
 20
-89.07525981267293
 30
0.0
 70
     8
  0
VERTEX
  5
A6
  8
0
 10
-9.379091795285532
 20
-87.75198400153055
 30
0.0
 70
     8
  0
VERTEX
  5
A7
  8
0
 10
-8.940022786458329
 20
-86.24675971137152
 30
0.0
 70
     8
  0
VERTEX
  5
A8
  8
0
 10
10.54560953776041
 20
-90.51695556640625
 30
0.0
 70
    16
  0
VERTEX
  5
A9
  8
0
 10
9.116928439670147
 20
-94.78990749782986
 30
0.0
 70
    16
  0
VERTEX
  5
AA
  8
0
 10
5.364185926649313
 20
-97.82744818793402
 30
0.0
 70
    16
  0
VERTEX
  5
AB
  8
0
 10
0.0883666992187528
 20
-98.98396674262153
 30
0.0
 70
    16
  0
VERTEX
  5
AC
  8
0
 10
-5.187280273437494
 20
-97.82744818793402
 30
0.0
 70
    16
  0
VERTEX
  5
AD
  8
0
 10
-8.940022786458329
 20
-94.78990749782986
 30
0.0
 70
    16
  0
VERTEX
  5
AE
  8
0
 10
-10.36904839409722
 20
-90.51971164279514
 30
0.0
 70
    16
  0
VERTEX
  5
AF
  8
0
 10
-8.940022786458329
 20
-86.24675971137152
 30
0.0
 70
    16
  0
SEQEND
  5
B0
  8
0
  0
LINE
  5
B1
  8
0
 10
0.0
 20
-16.94556342230905
 30
0.0
 11
-8.487337239583326
 21
-14.67524549696182
 31
0.0
  0
LINE
  5
B2
  8
0
 10
8.487164984809027
 20
-14.67524549696182
 30
0.0
 11
0.0
 21
-16.94556342230905
 31
0.0
  0
LINE
  5
B3
  8
0
 10
14.70039469401041
 20
-8.472695583767376
 30
0.0
 11
8.487164984809027
 21
-14.67524549696182
 31
0.0
  0
LINE
  5
B4
  8
0
 10
16.97450222439237
 20
0.0
 30
0.0
 11
14.70039469401041
 21
-8.472695583767376
 31
0.0
  0
LINE
  5
B5
  8
0
 10
14.70039469401041
 20
8.472695583767347
 30
0.0
 11
16.97450222439237
 21
0.0
 31
0.0
  0
LINE
  5
B6
  8
0
 10
8.487164984809027
 20
14.67524549696179
 30
0.0
 11
14.70039469401041
 21
8.472695583767347
 31
0.0
  0
LINE
  5
B7
  8
0
 10
0.0
 20
16.94539116753472
 30
0.0
 11
8.487164984809027
 21
14.67524549696179
 31
0.0
  0
LINE
  5
B8
  8
0
 10
-8.487337239583326
 20
14.67524549696179
 30
0.0
 11
0.0
 21
16.94539116753472
 31
0.0
  0
LINE
  5
B9
  8
0
 10
-14.70039469401041
 20
8.472695583767347
 30
0.0
 11
-8.487337239583326
 21
14.67524549696179
 31
0.0
  0
LINE
  5
BA
  8
0
 10
-16.97467447916667
 20
0.0
 30
0.0
 11
-14.70039469401041
 21
8.472695583767347
 31
0.0
  0
LINE
  5
BB
  8
0
 10
-14.70039469401041
 20
-8.472695583767376
 30
0.0
 11
-16.97467447916667
 21
0.0
 31
0.0
  0
LINE
  5
BC
  8
0
 10
-8.487337239583326
 20
-14.67524549696182
 30
0.0
 11
-14.70039469401041
 21
-8.472695583767376
 31
0.0
  0
LINE
  5
BD
  8
0
 10
0.0
 20
-16.94556342230905
 30
0.0
 11
-8.487337239583326
 21
-14.67524549696182
 31
0.0
  0
LINE
  5
BE
  8
0
 10
-1.402326117621527
 20
2.424658203124977
 30
0.0
 11
0.0
 21
2.799829101562494
 31
0.0
  0
LINE
  5
BF
  8
0
 10
-2.428792317708329
 20
1.399914550781233
 30
0.0
 11
-1.402326117621527
 21
2.424658203124977
 31
0.0
  0
LINE
  5
C0
  8
0
 10
-2.804652235243054
 20
0.0
 30
0.0
 11
-2.428792317708329
 21
1.399914550781233
 31
0.0
  0
LINE
  5
C1
  8
0
 10
-2.428792317708329
 20
-1.399914550781261
 30
0.0
 11
-2.804652235243054
 21
0.0
 31
0.0
  0
LINE
  5
C2
  8
0
 10
-1.402326117621527
 20
-2.424658203125006
 30
0.0
 11
-2.428792317708329
 21
-1.399914550781261
 31
0.0
  0
LINE
  5
C3
  8
0
 10
0.0
 20
-2.799829101562523
 30
0.0
 11
-1.402326117621527
 21
-2.424658203125006
 31
0.0
  0
LINE
  5
C4
  8
0
 10
1.402326117621527
 20
-2.424658203125006
 30
0.0
 11
0.0
 21
-2.799829101562523
 31
0.0
  0
LINE
  5
C5
  8
0
 10
2.428792317708343
 20
-1.399914550781261
 30
0.0
 11
1.402326117621527
 21
-2.424658203125006
 31
0.0
  0
LINE
  5
C6
  8
0
 10
2.804652235243054
 20
0.0
 30
0.0
 11
2.428792317708343
 21
-1.399914550781261
 31
0.0
  0
LINE
  5
C7
  8
0
 10
2.428792317708343
 20
1.399914550781233
 30
0.0
 11
2.804652235243054
 21
0.0
 31
0.0
  0
LINE
  5
C8
  8
0
 10
1.402326117621527
 20
2.424658203124977
 30
0.0
 11
2.428792317708343
 21
1.399914550781233
 31
0.0
  0
LINE
  5
C9
  8
0
 10
0.0
 20
2.799829101562494
 30
0.0
 11
1.402326117621527
 21
2.424658203124977
 31
0.0
  0
LINE
  5
CA
  8
0
 10
-3.069407823350687
 20
5.307169596354157
 30
0.0
 11
0.0
 21
6.128308105468733
 31
0.0
  0
LINE
  5
CB
  8
0
 10
-5.316471354166666
 20
3.064067925347217
 30
0.0
 11
-3.069407823350687
 21
5.307169596354157
 31
0.0
  0
LINE
  5
CC
  8
0
 10
-6.138815646701389
 20
0.0
 30
0.0
 11
-5.316471354166666
 21
3.064067925347217
 31
0.0
  0
LINE
  5
CD
  8
0
 10
-5.316471354166666
 20
-3.064067925347246
 30
0.0
 11
-6.138815646701389
 21
0.0
 31
0.0
  0
LINE
  5
CE
  8
0
 10
-3.069407823350687
 20
-5.307169596354186
 30
0.0
 11
-5.316471354166666
 21
-3.064067925347246
 31
0.0
  0
LINE
  5
CF
  8
0
 10
0.0
 20
-6.128308105468761
 30
0.0
 11
-3.069407823350687
 21
-5.307169596354186
 31
0.0
  0
LINE
  5
D0
  8
0
 10
3.069407823350701
 20
-5.307169596354186
 30
0.0
 11
0.0
 21
-6.128308105468761
 31
0.0
  0
LINE
  5
D1
  8
0
 10
5.316299099392367
 20
-3.064067925347246
 30
0.0
 11
3.069407823350701
 21
-5.307169596354186
 31
0.0
  0
LINE
  5
D2
  8
0
 10
6.138987901475701
 20
0.0
 30
0.0
 11
5.316299099392367
 21
-3.064067925347246
 31
0.0
  0
LINE
  5
D3
  8
0
 10
5.316299099392367
 20
3.064067925347217
 30
0.0
 11
6.138987901475701
 21
0.0
 31
0.0
  0
LINE
  5
D4
  8
0
 10
3.069407823350701
 20
5.307169596354157
 30
0.0
 11
5.316299099392367
 21
3.064067925347217
 31
0.0
  0
LINE
  5
D5
  8
0
 10
0.0
 20
6.128308105468733
 30
0.0
 11
3.069407823350701
 21
5.307169596354157
 31
0.0
  0
LINE
  5
D6
  8
0
 10
-3.069407823350687
 20
5.307169596354157
 30
0.0
 11
0.0
 21
6.128308105468733
 31
0.0
  0
LINE
  5
D7
  8
0
 10
14.03204616970487
 20
-24.26260172526042
 30
0.0
 11
0.0
 21
-28.01603325737847
 31
0.0
  0
LINE
  5
D8
  8
0
 10
24.30428738064236
 20
-14.0079305013021
 30
0.0
 11
14.03204616970487
 21
-24.26260172526042
 31
0.0
  0
LINE
  5
D9
  8
0
 10
28.06426459418404
 20
0.0
 30
0.0
 11
24.30428738064236
 21
-14.0079305013021
 31
0.0
  0
LINE
  5
DA
  8
0
 10
24.30428738064236
 20
14.00793050130207
 30
0.0
 11
28.06426459418404
 21
0.0
 31
0.0
  0
LINE
  5
DB
  8
0
 10
14.03204616970487
 20
24.2626017252604
 30
0.0
 11
24.30428738064236
 21
14.00793050130207
 31
0.0
  0
LINE
  5
DC
  8
0
 10
0.0
 20
28.01603325737847
 30
0.0
 11
14.03204616970487
 21
24.2626017252604
 31
0.0
  0
LINE
  5
DD
  8
0
 10
-14.03204616970486
 20
24.2626017252604
 30
0.0
 11
0.0
 21
28.01603325737847
 31
0.0
  0
LINE
  5
DE
  8
0
 10
-24.30428738064235
 20
14.00793050130207
 30
0.0
 11
-14.03204616970486
 21
24.2626017252604
 31
0.0
  0
LINE
  5
DF
  8
0
 10
-28.06426459418402
 20
0.0
 30
0.0
 11
-24.30428738064235
 21
14.00793050130207
 31
0.0
  0
LINE
  5
E0
  8
0
 10
-24.30428738064235
 20
-14.0081027560764
 30
0.0
 11
-28.06426459418402
 21
0.0
 31
0.0
  0
LINE
  5
E1
  8
0
 10
-14.03204616970486
 20
-24.26260172526042
 30
0.0
 11
-24.30428738064235
 21
-14.0081027560764
 31
0.0
  0
LINE
  5
E2
  8
0
 10
0.0
 20
-28.01603325737847
 30
0.0
 11
-14.03204616970486
 21
-24.26260172526042
 31
0.0
  0
LINE
  5
E3
  8
0
 10
-97.67086859809027
 20
18.75613335503471
 30
0.0
 11
-92.11980431831248
 21
15.05340709974973
 31
0.0
  0
LINE
  5
E4
  8
0
 10
-108.1108859592014
 20
20.82921956380207
 30
0.0
 11
-97.67086859809027
 21
18.75613335503471
 31
0.0
  0
LINE
  5
E5
  8
0
 10
-118.5509033203125
 20
18.75613335503471
 30
0.0
 11
-108.1108859592014
 21
20.82921956380207
 31
0.0
  0
LINE
  5
E6
  8
0
 10
-124.3578826297973
 20
14.88270410445739
 30
0.0
 11
-118.5509033203125
 21
18.75613335503471
 31
0.0
  0
LINE
  5
E7
  8
0
 10
-127.4013536241319
 20
-25.66217176649306
 30
0.0
 11
-129.1040901130051
 21
-23.11823425269338
 31
0.0
  0
LINE
  5
E8
  8
0
 10
-118.5509033203125
 20
-31.56568739149307
 30
0.0
 11
-127.4013536241319
 21
-25.66217176649306
 31
0.0
  0
LINE
  5
E9
  8
0
 10
-108.1108859592014
 20
-33.63877360026044
 30
0.0
 11
-118.5509033203125
 21
-31.56568739149307
 31
0.0
  0
LINE
  5
EA
  8
0
 10
-97.67086859809027
 20
-31.56568739149307
 30
0.0
 11
-108.1108859592014
 21
-33.63877360026044
 31
0.0
  0
LINE
  5
EB
  8
0
 10
-88.82041829427082
 20
-25.66217176649306
 30
0.0
 11
-97.67086859809027
 21
-31.56568739149307
 31
0.0
  0
LINE
  5
EC
  8
0
 10
-87.68812743797648
 20
-23.97044723496455
 30
0.0
 11
-88.82041829427082
 21
-25.66217176649306
 31
0.0
  0
POLYLINE
  5
ED
  8
0
 66
     1
 10
0.0
 20
0.0
 30
0.0
 70
     1
  0
VERTEX
  5
128
  8
0
 10
-142.1499796549479
 20
-5.5896674262153
 30
0.0
  0
VERTEX
  5
129
  8
0
 10
-137.5444037543403
 20
6.166204155815962
 30
0.0
  0
VERTEX
  5
12A
  8
0
 10
-124.9617092556424
 20
14.7720526801215
 30
0.0
  0
VERTEX
  5
12B
  8
0
 10
-107.7729220920139
 20
17.9219034830729
 30
0.0
  0
VERTEX
  5
12C
  8
0
 10
-90.58447943793402
 20
14.7720526801215
 30
0.0
  0
VERTEX
  5
12D
  8
0
 10
-78.0017849392361
 20
6.166204155815962
 30
0.0
  0
VERTEX
  5
12E
  8
0
 10
-73.39620903862846
 20
-5.5896674262153
 30
0.0
  0
VERTEX
  5
12F
  8
0
 10
-78.0017849392361
 20
-17.34553900824653
 30
0.0
  0
VERTEX
  5
130
  8
0
 10
-90.58447943793402
 20
-25.9513875325521
 30
0.0
  0
VERTEX
  5
131
  8
0
 10
-107.7729220920139
 20
-29.10141059027779
 30
0.0
  0
VERTEX
  5
132
  8
0
 10
-124.9617092556424
 20
-25.9513875325521
 30
0.0
  0
VERTEX
  5
133
  8
0
 10
-137.5444037543403
 20
-17.34553900824653
 30
0.0
  0
SEQEND
  5
127
  8
0
  0
POLYLINE
  5
EE
  8
0
 66
     1
 10
0.0
 20
0.0
 30
0.0
 70
     1
  0
VERTEX
  5
135
  8
0
 10
-140.5389752746171
 20
-5.5896674262153
 30
0.0
  0
VERTEX
  5
136
  8
0
 10
-136.3162785287102
 20
5.188893549881925
 30
0.0
  0
VERTEX
  5
137
  8
0
 10
-124.377916327143
 20
13.35405537158985
 30
0.0
  0
VERTEX
  5
138
  8
0
 10
-107.7729248015716
 20
16.39692543519129
 30
0.0
  0
VERTEX
  5
139
  8
0
 10
-91.16827466556477
 20
13.35405694406515
 30
0.0
  0
VERTEX
  5
13A
  8
0
 10
-79.22991016486617
 20
5.188893549881925
 30
0.0
  0
VERTEX
  5
13B
  8
0
 10
-75.00721341895923
 20
-5.5896674262153
 30
0.0
  0
VERTEX
  5
13C
  8
0
 10
-79.22991016486617
 20
-16.3682284023125
 30
0.0
  0
VERTEX
  5
13D
  8
0
 10
-91.1682809387394
 20
-24.53339608699096
 30
0.0
  0
VERTEX
  5
13E
  8
0
 10
-107.772924801715
 20
-27.57642983276674
 30
0.0
  0
VERTEX
  5
13F
  8
0
 10
-124.3779100540812
 20
-24.5333945144385
 30
0.0
  0
VERTEX
  5
140
  8
0
 10
-136.3162785287102
 20
-16.36822840231255
 30
0.0
  0
SEQEND
  5
134
  8
0
  0
LINE
  5
EF
  8
0
 10
-142.1499796549479
 20
-5.5896674262153
 30
0.0
 11
-137.5444037543403
 21
6.166204155815962
 31
0.0
  0
LINE
  5
F0
  8
0
 10
-78.0017849392361
 20
-17.34553900824653
 30
0.0
 11
-90.58447943793402
 21
-25.9513875325521
 31
0.0
  0
ATTDEF
  5
F1
  8
0
  6
CONTINUOUS
 10
-0.0018
 20
-0.0065
 30
0.0
 40
0.003
  1
K-280-9B
  3

  2
MODELNUMBER
 70
     2
  0
ATTDEF
  5
F2
  8
0
  6
CONTINUOUS
 10
-0.0018
 20
-0.0098
 30
0.0
 40
0.003
  1
ANTIQUE
  3

  2
TRADENAME
 70
     2
  0
ATTDEF
  5
F3
  8
0
  6
CONTINUOUS
 10
-0.0018
 20
-0.0132
 30
0.0
 40
0.003
  1
FAUCET
  3

  2
PRODUCT
 70
     2
  0
ATTDEF
  5
F4
  8
0
  6
CONTINUOUS
 10
-0.0018
 20
-0.0165
 30
0.0
 40
0.003
  1
BRASS
  3

  2
MATERIAL
 70
     2
  0
ENDSEC
  0
EOF
