  0
SECTION
  2
HEADER
  9
$ACADVER
  1
AC1009
  9
$DWGCODEPAGE
  3
ansi_1252
  9
$INSBASE
 10
0.0
 20
0.0
 30
0.0
  9
$EXTMIN
 10
-142.1499796549479
 20
-0.0165
 30
0.0
  9
$EXTMAX
 10
150.4481811523438
 20
117.7523659469408
 30
0.0
  9
$LIMMIN
 10
0.0
 20
0.0
  9
$LIMMAX
 10
144.0
 20
108.0
  9
$ORTHOMODE
 70
     1
  9
$REGENMODE
 70
     1
  9
$FILLMODE
 70
     1
  9
$QTEXTMODE
 70
     0
  9
$MIRRTEXT
 70
     1
  9
$DRAGMODE
 70
     2
  9
$LTSCALE
 40
4.0
  9
$OSMODE
 70
    37
  9
$ATTMODE
 70
     1
  9
$TEXTSIZE
 40
0.003
  9
$TRACEWID
 40
0.05
  9
$TEXTSTYLE
  7
STANDARD
  9
$CLAYER
  8
0
  9
$CELTYPE
  6
CONTINUOUS
  9
$CECOLOR
 62
   256
  9
$DIMSCALE
 40
1.0
  9
$DIMASZ
 40
0.18
  9
$DIMEXO
 40
0.0625
  9
$DIMDLI
 40
0.38
  9
$DIMRND
 40
0.0
  9
$DIMDLE
 40
0.0
  9
$DIMEXE
 40
0.18
  9
$DIMTP
 40
0.0
  9
$DIMTM
 40
0.0
  9
$DIMTXT
 40
0.18
  9
$DIMCEN
 40
0.09
  9
$DIMTSZ
 40
0.0
  9
$DIMTOL
 70
     0
  9
$DIMLIM
 70
     0
  9
$DIMTIH
 70
     1
  9
$DIMTOH
 70
     1
  9
$DIMSE1
 70
     0
  9
$DIMSE2
 70
     0
  9
$DIMTAD
 70
     0
  9
$DIMZIN
 70
     0
  9
$DIMBLK
  1

  9
$DIMASO
 70
     1
  9
$DIMSHO
 70
     1
  9
$DIMPOST
  1

  9
$DIMAPOST
  1

  9
$DIMALT
 70
     0
  9
$DIMALTD
 70
     2
  9
$DIMALTF
 40
25.4
  9
$DIMLFAC
 40
1.0
  9
$DIMTOFL
 70
     0
  9
$DIMTVP
 40
0.0
  9
$DIMTIX
 70
     0
  9
$DIMSOXD
 70
     0
  9
$DIMSAH
 70
     0
  9
$DIMBLK1
  1

  9
$DIMBLK2
  1

  9
$DIMSTYLE
  2
STANDARD
  9
$DIMCLRD
 70
     0
  9
$DIMCLRE
 70
     0
  9
$DIMCLRT
 70
     0
  9
$DIMTFAC
 40
1.0
  9
$DIMGAP
 40
0.09
  9
$LUNITS
 70
     2
  9
$LUPREC
 70
     4
  9
$SKETCHINC
 40
0.1
  9
$FILLETRAD
 40
0.0
  9
$AUNITS
 70
     0
  9
$AUPREC
 70
     0
  9
$MENU
  1
acad
  9
$ELEVATION
 40
0.0
  9
$PELEVATION
 40
0.0
  9
$THICKNESS
 40
0.0
  9
$LIMCHECK
 70
     0
  9
$CHAMFERA
 40
0.0
  9
$CHAMFERB
 40
0.0
  9
$SKPOLY
 70
     0
  9
$TDCREATE
 40
2453711.563050382
  9
$TDUPDATE
 40
2453720.493179572
  9
$TDINDWG
 40
0.0110077199
  9
$TDUSRTIMER
 40
0.0110077199
  9
$USRTIMER
 70
     1
  9
$ANGBASE
 50
0.0
  9
$ANGDIR
 70
     0
  9
$PDMODE
 70
     3
  9
$PDSIZE
 40
-2.0
  9
$PLINEWID
 40
0.0
  9
$COORDS
 70
     1
  9
$SPLFRAME
 70
     0
  9
$SPLINETYPE
 70
     6
  9
$SPLINESEGS
 70
     8
  9
$ATTDIA
 70
     0
  9
$ATTREQ
 70
     1
  9
$HANDLING
 70
     1
  9
$HANDSEED
  5
21E
  9
$SURFTAB1
 70
     6
  9
$SURFTAB2
 70
     6
  9
$SURFTYPE
 70
     6
  9
$SURFU
 70
     6
  9
$SURFV
 70
     6
  9
$UCSNAME
  2

  9
$UCSORG
 10
0.0
 20
0.0
 30
0.0
  9
$UCSXDIR
 10
1.0
 20
0.0
 30
0.0
  9
$UCSYDIR
 10
0.0
 20
1.0
 30
0.0
  9
$PUCSNAME
  2

  9
$PUCSORG
 10
0.0
 20
0.0
 30
0.0
  9
$PUCSXDIR
 10
1.0
 20
0.0
 30
0.0
  9
$PUCSYDIR
 10
0.0
 20
1.0
 30
0.0
  9
$USERI1
 70
     0
  9
$USERI2
 70
     0
  9
$USERI3
 70
     0
  9
$USERI4
 70
     0
  9
$USERI5
 70
     0
  9
$USERR1
 40
0.0
  9
$USERR2
 40
0.0
  9
$USERR3
 40
0.0
  9
$USERR4
 40
0.0
  9
$USERR5
 40
0.0
  9
$WORLDVIEW
 70
     1
  9
$SHADEDGE
 70
     3
  9
$SHADEDIF
 70
    70
  9
$TILEMODE
 70
     1
  9
$MAXACTVP
 70
    16
  9
$PLIMCHECK
 70
     0
  9
$PEXTMIN
 10
1.000000000000000E+20
 20
1.000000000000000E+20
 30
1.000000000000000E+20
  9
$PEXTMAX
 10
-1.000000000000000E+20
 20
-1.000000000000000E+20
 30
-1.000000000000000E+20
  9
$PLIMMIN
 10
0.0
 20
0.0
  9
$PLIMMAX
 10
12.0
 20
9.0
  9
$UNITMODE
 70
     0
  9
$VISRETAIN
 70
     0
  9
$PLINEGEN
 70
     1
  9
$PSLTSCALE
 70
     0
  0
ENDSEC
  0
SECTION
  2
TABLES
  0
TABLE
  2
VPORT
 70
     1
  0
VPORT
  2
*ACTIVE
 70
     0
 10
0.0
 20
0.0
 11
1.0
 21
1.0
 12
6.915836628214265
 22
69.57072949312851
 13
0.0
 23
0.0
 14
1.0
 24
1.0
 15
0.0
 25
0.0
 16
0.0
 26
0.0
 36
1.0
 17
0.0
 27
0.0
 37
0.0
 40
554.7471732862224
 41
1.583243823845328
 42
50.0
 43
0.0
 44
0.0
 50
0.0
 51
0.0
 71
     0
 72
   100
 73
     1
 74
     1
 75
     0
 76
     0
 77
     0
 78
     0
  0
ENDTAB
  0
TABLE
  2
LTYPE
 70
     1
  0
LTYPE
  2
CONTINUOUS
 70
     0
  3
Solid line
 72
    65
 73
     0
 40
0.0
  0
ENDTAB
  0
TABLE
  2
LAYER
 70
     1
  0
LAYER
  2
0
 70
     0
 62
     7
  6
CONTINUOUS
  0
ENDTAB
  0
TABLE
  2
STYLE
 70
     1
  0
STYLE
  2
STANDARD
 70
     0
 40
0.0
 41
1.0
 50
0.0
 71
     0
 42
0.003
  3
txt
  4

  0
ENDTAB
  0
TABLE
  2
VIEW
 70
     0
  0
ENDTAB
  0
TABLE
  2
UCS
 70
     0
  0
ENDTAB
  0
TABLE
  2
APPID
 70
     1
  0
APPID
  2
ACAD
 70
     0
  0
ENDTAB
  0
TABLE
  2
DIMSTYLE
 70
     1
  0
DIMSTYLE
  2
STANDARD
 70
     0
  3

  4

  5

  6

  7

 40
1.0
 41
0.18
 42
0.0625
 43
0.38
 44
0.18
 45
0.0
 46
0.0
 47
0.0
 48
0.0
140
0.18
141
0.09
142
0.0
143
25.4
144
1.0
145
0.0
146
1.0
147
0.09
 71
     0
 72
     0
 73
     1
 74
     1
 75
     0
 76
     0
 77
     0
 78
     0
170
     0
171
     2
172
     0
173
     0
174
     0
175
     0
176
     0
177
     0
178
     0
  0
ENDTAB
  0
ENDSEC
  0
SECTION
  2
BLOCKS
  0
BLOCK
  8
0
  2
$MODEL_SPACE
 70
     2
 10
0.0
 20
0.0
 30
0.0
  3
$MODEL_SPACE
  1

  0
ENDBLK
  5
B
  8
0
  0
BLOCK
 67
     1
  8
0
  2
$PAPER_SPACE
 70
     0
 10
0.0
 20
0.0
 30
0.0
  3
$PAPER_SPACE
  1

  0
ENDBLK
  5
10
 67
     1
  8
0
  0
ENDSEC
  0
SECTION
  2
ENTITIES
  0
LINE
  5
2A
  8
0
 10
119.7933770073785
 20
55.5580571361769
 30
0.0
 11
111.6736314561632
 21
55.5580571361769
 31
0.0
  0
LINE
  5
2B
  8
0
 10
110.4492445203993
 20
55.18977642871161
 30
0.0
 11
121.0174194335937
 21
55.18977642871161
 31
0.0
  0
LINE
  5
2C
  8
0
 10
121.049114312066
 20
54.13040956673245
 30
0.0
 11
110.4178941514757
 21
54.13040956673245
 31
0.0
  0
LINE
  5
2D
  8
0
 10
111.4875962999132
 20
53.6735899052741
 30
0.0
 11
119.9794121636285
 21
53.6735899052741
 31
0.0
  0
LINE
  5
2E
  8
0
 10
121.8473429361979
 20
52.49467822992688
 30
0.0
 11
109.6196655273438
 21
52.49467822992688
 31
0.0
  0
LINE
  5
2F
  8
0
 10
106.1852498372396
 20
11.94659337749634
 30
0.0
 11
140.6844360351562
 21
11.94659337749634
 31
0.0
  0
LINE
  5
30
  8
0
 10
90.78222791883681
 20
11.94659337749634
 30
0.0
 11
106.1852498372396
 21
11.94659337749634
 31
0.0
  0
LINE
  5
31
  8
0
 10
139.0438815646701
 20
11.36885086447551
 30
0.0
 11
92.42312689887152
 21
11.36885086447551
 31
0.0
  0
LINE
  5
32
  8
0
 10
88.45265435112847
 20
9.027563972114393
 30
0.0
 11
143.0140096028646
 21
9.027563972114393
 31
0.0
  0
LINE
  5
33
  8
0
 10
87.40258924696181
 20
64.69513938444078
 30
0.0
 11
82.96771782769096
 21
64.69513938444078
 31
0.0
  0
LINE
  5
34
  8
0
 10
99.51933458116318
 20
64.69513938444078
 30
0.0
 11
87.40258924696181
 21
64.69513938444078
 31
0.0
  0
LINE
  5
35
  8
0
 10
116.0716403537326
 20
64.69513938444078
 30
0.0
 11
99.51933458116318
 21
64.69513938444078
 31
0.0
  0
LINE
  5
36
  8
0
 10
132.6232571072049
 20
64.69513938444078
 30
0.0
 11
116.0716403537326
 21
64.69513938444078
 31
0.0
  0
LINE
  5
37
  8
0
 10
149.1752183702257
 20
64.69513938444078
 30
0.0
 11
132.6232571072049
 21
64.69513938444078
 31
0.0
  0
LINE
  5
38
  8
0
 10
142.1672051323785
 20
67.45018224468385
 30
0.0
 11
146.2041680230035
 21
67.45018224468385
 31
0.0
  0
LINE
  5
39
  8
0
 10
131.1380764431424
 20
67.45018224468385
 30
0.0
 11
142.1672051323785
 21
67.45018224468385
 31
0.0
  0
LINE
  5
3A
  8
0
 10
116.0716403537326
 20
67.45018224468385
 30
0.0
 11
131.1380764431424
 21
67.45018224468385
 31
0.0
  0
LINE
  5
3B
  8
0
 10
101.0052042643229
 20
67.45018224468385
 30
0.0
 11
116.0716403537326
 21
67.45018224468385
 31
0.0
  0
LINE
  5
3C
  8
0
 10
89.97538655598959
 20
67.45018224468385
 30
0.0
 11
101.0052042643229
 21
67.45018224468385
 31
0.0
  0
LINE
  5
3D
  8
0
 10
85.93876817491318
 20
67.45018224468385
 30
0.0
 11
89.97538655598959
 21
67.45018224468385
 31
0.0
  0
LINE
  5
3E
  8
0
 10
86.52684597439236
 20
62.37572884841649
 30
0.0
 11
81.69441053602429
 21
62.39915549772204
 31
0.0
  0
LINE
  5
3F
  8
0
 10
113.6662746853299
 20
61.04712777419772
 30
0.0
 11
86.52684597439236
 21
62.37572884841649
 31
0.0
  0
LINE
  5
40
  8
0
 10
114.8689575195313
 20
61.04712777419772
 30
0.0
 11
113.6662746853299
 21
61.04712777419772
 31
0.0
  0
LINE
  5
41
  8
0
 10
116.0716403537326
 20
61.04712777419772
 30
0.0
 11
114.8689575195313
 21
61.04712777419772
 31
0.0
  0
LINE
  5
42
  8
0
 10
118.1542005750868
 20
61.04712777419772
 30
0.0
 11
116.0716403537326
 21
61.04712777419772
 31
0.0
  0
LINE
  5
43
  8
0
 10
118.4766615125868
 20
61.04712777419772
 30
0.0
 11
118.1542005750868
 21
61.04712777419772
 31
0.0
  0
LINE
  5
44
  8
0
 10
145.6164347330729
 20
62.37572884841649
 30
0.0
 11
118.4766615125868
 21
61.04712777419772
 31
0.0
  0
LINE
  5
45
  8
0
 10
150.4481811523438
 20
62.39915549772204
 30
0.0
 11
145.6164347330729
 21
62.37572884841649
 31
0.0
  0
LINE
  5
46
  8
0
 10
149.1752183702257
 20
64.69513938444078
 30
0.0
 11
150.4481811523438
 21
62.39915549772204
 31
0.0
  0
LINE
  5
47
  8
0
 10
147.0530395507813
 20
65.46046734668036
 30
0.0
 11
149.1752183702257
 21
64.69513938444078
 31
0.0
  0
LINE
  5
48
  8
0
 10
146.2041680230035
 20
67.45018224468385
 30
0.0
 11
147.0530395507813
 21
65.46046734668036
 31
0.0
  0
LINE
  5
49
  8
0
 10
144.6480183919271
 20
67.45018224468385
 30
0.0
 11
146.2041680230035
 21
67.45018224468385
 31
0.0
  0
POLYLINE
  5
4A
  8
0
 66
     1
 10
0.0
 20
0.0
 30
0.0
 70
   132
 75
     6
  0
VERTEX
  5
4B
  8
0
 10
87.49491780598959
 20
67.45018224468385
 30
0.0
 70
    16
  0
VERTEX
  5
4C
  8
0
 10
87.49491780598959
 20
67.45018224468385
 30
0.0
 70
     8
  0
VERTEX
  5
4D
  8
0
 10
88.23451005264565
 20
68.07210746248009
 30
0.0
 70
     8
  0
VERTEX
  5
4E
  8
0
 10
88.89765482302066
 20
68.61746694705549
 30
0.0
 70
     8
  0
VERTEX
  5
4F
  8
0
 10
89.49378441174825
 20
69.09504989733847
 30
0.0
 70
     8
  0
VERTEX
  5
50
  8
0
 10
90.03233111346209
 20
69.51364551225743
 30
0.0
 70
     8
  0
VERTEX
  5
51
  8
0
 10
90.52272722279584
 20
69.88204299074077
 30
0.0
 70
     8
  0
VERTEX
  5
52
  8
0
 10
90.97440503438315
 20
70.2090315317169
 30
0.0
 70
     8
  0
VERTEX
  5
53
  8
0
 10
91.39679684285767
 20
70.50340033411423
 30
0.0
 70
     8
  0
VERTEX
  5
54
  8
0
 10
91.79933494285301
 20
70.77393859686121
 30
0.0
 70
     8
  0
VERTEX
  5
55
  8
0
 10
92.19034094457273
 20
71.02823270730949
 30
0.0
 70
     8
  0
VERTEX
  5
56
  8
0
 10
92.57369372049966
 20
71.26905780650397
 30
0.0
 70
     8
  0
VERTEX
  5
57
  8
0
 10
92.95216145868653
 20
71.49798622391288
 30
0.0
 70
     8
  0
VERTEX
  5
58
  8
0
 10
93.32851234718605
 20
71.7165902890044
 30
0.0
 70
     8
  0
VERTEX
  5
59
  8
0
 10
93.7055145740509
 20
71.92644233124673
 30
0.0
 70
     8
  0
VERTEX
  5
5A
  8
0
 10
94.0859363273338
 20
72.12911468010806
 30
0.0
 70
     8
  0
VERTEX
  5
5B
  8
0
 10
94.47254579508744
 20
72.32617966505661
 30
0.0
 70
     8
  0
VERTEX
  5
5C
  8
0
 10
94.86811116536457
 20
72.51920961556057
 30
0.0
 70
     8
  0
VERTEX
  5
5D
  8
0
 10
95.27502023025794
 20
72.70949776013138
 30
0.0
 70
     8
  0
VERTEX
  5
5E
  8
0
 10
95.69413919802065
 20
72.89722092345355
 30
0.0
 70
     8
  0
VERTEX
  5
5F
  8
0
 10
96.12595388094583
 20
73.08227682925482
 30
0.0
 70
     8
  0
VERTEX
  5
60
  8
0
 10
96.57095009132667
 20
73.26456320126296
 30
0.0
 70
     8
  0
VERTEX
  5
61
  8
0
 10
97.02961364145631
 20
73.44397776320574
 30
0.0
 70
     8
  0
VERTEX
  5
62
  8
0
 10
97.50243034362792
 20
73.6204182388109
 30
0.0
 70
     8
  0
VERTEX
  5
63
  8
0
 10
97.98988601013464
 20
73.79378235180619
 30
0.0
 70
     8
  0
VERTEX
  5
64
  8
0
 10
98.49246645326967
 20
73.96396782591937
 30
0.0
 70
     8
  0
VERTEX
  5
65
  8
0
 10
99.01065815819634
 20
74.13087244095071
 30
0.0
 70
     8
  0
VERTEX
  5
66
  8
0
 10
99.54495030155887
 20
74.29439420099057
 30
0.0
 70
     8
  0
VERTEX
  5
67
  8
0
 10
100.0958327328717
 20
74.4544311662018
 30
0.0
 70
     8
  0
VERTEX
  5
68
  8
0
 10
100.6637953016493
 20
74.61088139674727
 30
0.0
 70
     8
  0
VERTEX
  5
69
  8
0
 10
101.249327857406
 20
74.76364295278982
 30
0.0
 70
     8
  0
VERTEX
  5
6A
  8
0
 10
101.8529202496564
 20
74.91261389449235
 30
0.0
 70
     8
  0
VERTEX
  5
6B
  8
0
 10
102.4750623279148
 20
75.0576922820177
 30
0.0
 70
     8
  0
VERTEX
  5
6C
  8
0
 10
103.1162439416956
 20
75.19877617552874
 30
0.0
 70
     8
  0
VERTEX
  5
6D
  8
0
 10
103.7769547162233
 20
75.33576352304327
 30
0.0
 70
     8
  0
VERTEX
  5
6E
  8
0
 10
104.4576833795618
 20
75.46855182399902
 30
0.0
 70
     8
  0
VERTEX
  5
6F
  8
0
 10
105.1589184354853
 20
75.5970384656886
 30
0.0
 70
     8
  0
VERTEX
  5
70
  8
0
 10
105.8811483877677
 20
75.72112083540468
 30
0.0
 70
     8
  0
VERTEX
  5
71
  8
0
 10
106.624861740183
 20
75.8406963204399
 30
0.0
 70
     8
  0
VERTEX
  5
72
  8
0
 10
107.3905469965052
 20
75.95566230808693
 30
0.0
 70
     8
  0
VERTEX
  5
73
  8
0
 10
108.1786926605083
 20
76.06591618563839
 30
0.0
 70
     8
  0
VERTEX
  5
74
  8
0
 10
108.9897872359664
 20
76.17135534038695
 30
0.0
 70
     8
  0
VERTEX
  5
75
  8
0
 10
109.8237493055838
 20
76.27156270494614
 30
0.0
 70
     8
  0
VERTEX
  5
76
  8
0
 10
110.6782177677861
 20
76.36486339321289
 30
0.0
 70
     8
  0
VERTEX
  5
77
  8
0
 10
111.5502615999292
 20
76.44926806440505
 30
0.0
 70
     8
  0
VERTEX
  5
78
  8
0
 10
112.4369497793692
 20
76.52278737774047
 30
0.0
 70
     8
  0
VERTEX
  5
79
  8
0
 10
113.335351283462
 20
76.58343199243697
 30
0.0
 70
     8
  0
VERTEX
  5
7A
  8
0
 10
114.2425350895634
 20
76.6292125677124
 30
0.0
 70
     8
  0
VERTEX
  5
7B
  8
0
 10
115.1555701750296
 20
76.65813976278457
 30
0.0
 70
     8
  0
VERTEX
  5
7C
  8
0
 10
116.0715255172164
 20
76.66822423687133
 30
0.0
 70
     8
  0
VERTEX
  5
7D
  8
0
 10
116.9874707663501
 20
76.65813976278457
 30
0.0
 70
     8
  0
VERTEX
  5
7E
  8
0
 10
117.9004782641375
 20
76.6292125677124
 30
0.0
 70
     8
  0
VERTEX
  5
7F
  8
0
 10
118.8076210251561
 20
76.58343199243697
 30
0.0
 70
     8
  0
VERTEX
  5
80
  8
0
 10
119.7059720639829
 20
76.52278737774047
 30
0.0
 70
     8
  0
VERTEX
  5
81
  8
0
 10
120.5926043951953
 20
76.44926806440505
 30
0.0
 70
     8
  0
VERTEX
  5
82
  8
0
 10
121.4645910333704
 20
76.36486339321289
 30
0.0
 70
     8
  0
VERTEX
  5
83
  8
0
 10
122.3190049930855
 20
76.27156270494614
 30
0.0
 70
     8
  0
VERTEX
  5
84
  8
0
 10
123.1529192889178
 20
76.17135534038695
 30
0.0
 70
     8
  0
VERTEX
  5
85
  8
0
 10
123.963976071499
 20
76.06591618563839
 30
0.0
 70
     8
  0
VERTEX
  5
86
  8
0
 10
124.7520940356784
 20
75.95566230808693
 30
0.0
 70
     8
  0
VERTEX
  5
87
  8
0
 10
125.5177610123599
 20
75.8406963204399
 30
0.0
 70
     8
  0
VERTEX
  5
88
  8
0
 10
126.2614648324472
 20
75.72112083540468
 30
0.0
 70
     8
  0
VERTEX
  5
89
  8
0
 10
126.9836933268441
 20
75.59703846568858
 30
0.0
 70
     8
  0
VERTEX
  5
8A
  8
0
 10
127.6849343264544
 20
75.46855182399901
 30
0.0
 70
     8
  0
VERTEX
  5
8B
  8
0
 10
128.365675662182
 20
75.33576352304327
 30
0.0
 70
     8
  0
VERTEX
  5
8C
  8
0
 10
129.0264051649305
 20
75.19877617552874
 30
0.0
 70
     8
  0
VERTEX
  5
8D
  8
0
 10
129.6676106656039
 20
75.0576922820177
 30
0.0
 70
     8
  0
VERTEX
  5
8E
  8
0
 10
130.2897799951059
 20
74.91261389449237
 30
0.0
 70
     8
  0
VERTEX
  5
8F
  8
0
 10
130.8934009843403
 20
74.76364295278984
 30
0.0
 70
     8
  0
VERTEX
  5
90
  8
0
 10
131.4789614642108
 20
74.61088139674727
 30
0.0
 70
     8
  0
VERTEX
  5
91
  8
0
 10
132.0469492656213
 20
74.4544311662018
 30
0.0
 70
     8
  0
VERTEX
  5
92
  8
0
 10
132.5978522194756
 20
74.29439420099057
 30
0.0
 70
     8
  0
VERTEX
  5
93
  8
0
 10
133.1321581566776
 20
74.13087244095071
 30
0.0
 70
     8
  0
VERTEX
  5
94
  8
0
 10
133.6503549081308
 20
73.96396782591937
 30
0.0
 70
     8
  0
VERTEX
  5
95
  8
0
 10
134.1529304168843
 20
73.79378235180619
 30
0.0
 70
     8
  0
VERTEX
  5
96
  8
0
 10
134.6403730745669
 20
73.6204182388109
 30
0.0
 70
     8
  0
VERTEX
  5
97
  8
0
 10
135.1131713849527
 20
73.44397776320574
 30
0.0
 70
     8
  0
VERTEX
  5
98
  8
0
 10
135.5718138518157
 20
73.26456320126296
 30
0.0
 70
     8
  0
VERTEX
  5
99
  8
0
 10
136.0167889789299
 20
73.08227682925482
 30
0.0
 70
     8
  0
VERTEX
  5
9A
  8
0
 10
136.4485852700693
 20
72.89722092345355
 30
0.0
 70
     8
  0
VERTEX
  5
9B
  8
0
 10
136.8676912290079
 20
72.70949776013138
 30
0.0
 70
     8
  0
VERTEX
  5
9C
  8
0
 10
137.2745953595197
 20
72.51920961556057
 30
0.0
 70
     8
  0
VERTEX
  5
9D
  8
0
 10
137.6701656081058
 20
72.32617966505661
 30
0.0
 70
     8
  0
VERTEX
  5
9E
  8
0
 10
138.056787692176
 20
72.12911468010806
 30
0.0
 70
     8
  0
VERTEX
  5
9F
  8
0
 10
138.4372267718668
 20
71.92644233124672
 30
0.0
 70
     8
  0
VERTEX
  5
A0
  8
0
 10
138.8142480073152
 20
71.7165902890044
 30
0.0
 70
     8
  0
VERTEX
  5
A1
  8
0
 10
139.1906165586578
 20
71.49798622391288
 30
0.0
 70
     8
  0
VERTEX
  5
A2
  8
0
 10
139.5690975860313
 20
71.26905780650397
 30
0.0
 70
     8
  0
VERTEX
  5
A3
  8
0
 10
139.9524562495726
 20
71.02823270730947
 30
0.0
 70
     8
  0
VERTEX
  5
A4
  8
0
 10
140.3434577094184
 20
70.77393859686121
 30
0.0
 70
     8
  0
VERTEX
  5
A5
  8
0
 10
140.7459796044562
 20
70.50340033411426
 30
0.0
 70
     8
  0
VERTEX
  5
A6
  8
0
 10
141.1683494885762
 20
70.20903153171692
 30
0.0
 70
     8
  0
VERTEX
  5
A7
  8
0
 10
141.6200073944198
 20
69.88204299074077
 30
0.0
 70
     8
  0
VERTEX
  5
A8
  8
0
 10
142.1103933546278
 20
69.51364551225744
 30
0.0
 70
     8
  0
VERTEX
  5
A9
  8
0
 10
142.6489474018415
 20
69.09504989733848
 30
0.0
 70
     8
  0
VERTEX
  5
AA
  8
0
 10
143.2451095687018
 20
68.61746694705551
 30
0.0
 70
     8
  0
VERTEX
  5
AB
  8
0
 10
143.90831988785
 20
68.07210746248009
 30
0.0
 70
     8
  0
VERTEX
  5
AC
  8
0
 10
144.6480183919271
 20
67.45018224468383
 30
0.0
 70
     8
  0
VERTEX
  5
AD
  8
0
 10
89.57747802734374
 20
69.21854975770467
 30
0.0
 70
    16
  0
VERTEX
  5
AE
  8
0
 10
91.9104966905382
 20
70.93437956456231
 30
0.0
 70
    16
  0
VERTEX
  5
AF
  8
0
 10
94.74305419921873
 20
72.54547846864216
 30
0.0
 70
    16
  0
VERTEX
  5
B0
  8
0
 10
98.3259535047743
 20
73.99896425423245
 30
0.0
 70
    16
  0
VERTEX
  5
B1
  8
0
 10
102.9079305013021
 20
75.24247146994424
 30
0.0
 70
    16
  0
VERTEX
  5
B2
  8
0
 10
108.739788140191
 20
76.223806919163
 30
0.0
 70
    16
  0
VERTEX
  5
B3
  8
0
 10
116.0716403537326
 20
76.8904328957255
 30
0.0
 70
    16
  0
VERTEX
  5
B4
  8
0
 10
123.4028035481771
 20
76.223806919163
 30
0.0
 70
    16
  0
VERTEX
  5
B5
  8
0
 10
129.234661187066
 20
75.24247146994424
 30
0.0
 70
    16
  0
VERTEX
  5
B6
  8
0
 10
133.8169826931424
 20
73.99896425423245
 30
0.0
 70
    16
  0
VERTEX
  5
B7
  8
0
 10
137.3995374891493
 20
72.54547846864216
 30
0.0
 70
    16
  0
VERTEX
  5
B8
  8
0
 10
140.2324395073785
 20
70.93437956456231
 30
0.0
 70
    16
  0
VERTEX
  5
B9
  8
0
 10
142.5651136610243
 20
69.21854975770467
 30
0.0
 70
    16
  0
VERTEX
  5
BA
  8
0
 10
144.6480183919271
 20
67.45018224468385
 30
0.0
 70
    16
  0
SEQEND
  5
BB
  8
0
  0
LINE
  5
BC
  8
0
 10
85.93876817491318
 20
67.45018224468385
 30
0.0
 11
87.49491780598959
 21
67.45018224468385
 31
0.0
  0
LINE
  5
BD
  8
0
 10
85.08989664713542
 20
65.46029509190606
 30
0.0
 11
85.93876817491318
 21
67.45018224468385
 31
0.0
  0
LINE
  5
BE
  8
0
 10
82.96771782769096
 20
64.69513938444078
 30
0.0
 11
85.08989664713542
 21
65.46029509190606
 31
0.0
  0
LINE
  5
BF
  8
0
 10
81.69441053602429
 20
62.39915549772204
 30
0.0
 11
82.96771782769096
 21
64.69513938444078
 31
0.0
  0
LINE
  5
C0
  8
0
 10
143.0140096028646
 20
3.452365946940788
 30
0.0
 11
88.45265435112847
 21
3.452365946940788
 31
0.0
  0
LINE
  5
C1
  8
0
 10
143.0140096028646
 20
9.027563972114393
 30
0.0
 11
143.0140096028646
 21
3.452365946940788
 31
0.0
  0
LINE
  5
C2
  8
0
 10
139.0438815646701
 20
9.027563972114393
 30
0.0
 11
143.0140096028646
 21
9.027563972114393
 31
0.0
  0
LINE
  5
C3
  8
0
 10
139.0438815646701
 20
11.36885086447551
 30
0.0
 11
139.0438815646701
 21
9.027563972114393
 31
0.0
  0
LINE
  5
C4
  8
0
 10
140.6844360351562
 20
11.94659337749634
 30
0.0
 11
139.0438815646701
 21
11.36885086447551
 31
0.0
  0
LINE
  5
C5
  8
0
 10
140.4787638346354
 20
13.13584033930189
 30
0.0
 11
140.6844360351562
 21
11.94659337749634
 31
0.0
  0
LINE
  5
C6
  8
0
 10
138.6549302842882
 20
18.76374832541301
 30
0.0
 11
140.4787638346354
 21
13.13584033930189
 31
0.0
  0
LINE
  5
C7
  8
0
 10
137.2755140516493
 20
23.18656191048245
 30
0.0
 11
138.6549302842882
 21
18.76374832541301
 31
0.0
  0
LINE
  5
C8
  8
0
 10
135.4106838650174
 20
28.38831158496161
 30
0.0
 11
137.2755140516493
 21
23.18656191048245
 31
0.0
  0
LINE
  5
C9
  8
0
 10
133.5379299587674
 20
32.93652664572551
 30
0.0
 11
135.4106838650174
 21
28.38831158496161
 31
0.0
  0
LINE
  5
CA
  8
0
 10
131.6565633138021
 20
36.73543343826023
 30
0.0
 11
133.5379299587674
 21
32.93652664572551
 31
0.0
  0
LINE
  5
CB
  8
0
 10
129.8730373806424
 20
40.07063037836439
 30
0.0
 11
131.6565633138021
 21
36.73543343826023
 31
0.0
  0
LINE
  5
CC
  8
0
 10
128.1704711914063
 20
43.01894309537828
 30
0.0
 11
129.8730373806424
 21
40.07063037836439
 31
0.0
  0
LINE
  5
CD
  8
0
 10
126.5330173068576
 20
45.65857525683661
 30
0.0
 11
128.1704711914063
 21
43.01894309537828
 31
0.0
  0
LINE
  5
CE
  8
0
 10
124.9441392686632
 20
48.06600798253106
 30
0.0
 11
126.5330173068576
 21
45.65857525683661
 31
0.0
  0
LINE
  5
CF
  8
0
 10
123.3876451280382
 20
50.31910043044772
 30
0.0
 11
124.9441392686632
 21
48.06600798253106
 31
0.0
  0
LINE
  5
D0
  8
0
 10
121.8473429361979
 20
52.49467822992688
 30
0.0
 11
123.3876451280382
 21
50.31910043044772
 31
0.0
  0
LINE
  5
D1
  8
0
 10
120.0676066080729
 20
52.49467822992688
 30
0.0
 11
121.8473429361979
 21
52.49467822992688
 31
0.0
  0
LINE
  5
D2
  8
0
 10
119.9794121636285
 20
53.6735899052741
 30
0.0
 11
120.0676066080729
 21
52.49467822992688
 31
0.0
  0
LINE
  5
D3
  8
0
 10
121.049114312066
 20
54.13040956673245
 30
0.0
 11
119.9794121636285
 21
53.6735899052741
 31
0.0
  0
LINE
  5
D4
  8
0
 10
121.0174194335937
 20
55.18977642871161
 30
0.0
 11
121.049114312066
 21
54.13040956673245
 31
0.0
  0
LINE
  5
D5
  8
0
 10
119.7933770073785
 20
55.5580571361769
 30
0.0
 11
121.0174194335937
 21
55.18977642871161
 31
0.0
  0
LINE
  5
D6
  8
0
 10
119.4872701049921
 20
61.09660113016781
 30
0.0
 11
119.7933770073785
 21
55.5580571361769
 31
0.0
  0
LINE
  5
D7
  8
0
 10
111.6736314561632
 20
55.5580571361769
 30
0.0
 11
111.9815622813742
 21
61.12960227038133
 31
0.0
  0
LINE
  5
D8
  8
0
 10
110.4492445203993
 20
55.18977642871161
 30
0.0
 11
111.6736314561632
 21
55.5580571361769
 31
0.0
  0
LINE
  5
D9
  8
0
 10
110.4178941514757
 20
54.13040956673245
 30
0.0
 11
110.4492445203993
 21
55.18977642871161
 31
0.0
  0
LINE
  5
DA
  8
0
 10
111.4875962999132
 20
53.6735899052741
 30
0.0
 11
110.4178941514757
 21
54.13040956673245
 31
0.0
  0
LINE
  5
DB
  8
0
 10
111.4100816514757
 20
52.49467822992688
 30
0.0
 11
111.4875962999132
 21
53.6735899052741
 31
0.0
  0
LINE
  5
DC
  8
0
 10
109.6196655273438
 20
52.49467822992688
 30
0.0
 11
111.4100816514757
 21
52.49467822992688
 31
0.0
  0
LINE
  5
DD
  8
0
 10
108.0793633355035
 20
50.31910043044772
 30
0.0
 11
109.6196655273438
 21
52.49467822992688
 31
0.0
  0
LINE
  5
DE
  8
0
 10
106.5228691948785
 20
48.06600798253106
 30
0.0
 11
108.0793633355035
 21
50.31910043044772
 31
0.0
  0
LINE
  5
DF
  8
0
 10
104.933991156684
 20
45.65857525683661
 30
0.0
 11
106.5228691948785
 21
48.06600798253106
 31
0.0
  0
LINE
  5
E0
  8
0
 10
103.2965372721354
 20
43.01894309537828
 30
0.0
 11
104.933991156684
 21
45.65857525683661
 31
0.0
  0
LINE
  5
E1
  8
0
 10
101.5939710828993
 20
40.07063037836439
 30
0.0
 11
103.2965372721354
 21
43.01894309537828
 31
0.0
  0
LINE
  5
E2
  8
0
 10
99.81044514973956
 20
36.73543343826023
 30
0.0
 11
101.5939710828993
 21
40.07063037836439
 31
0.0
  0
LINE
  5
E3
  8
0
 10
97.92907850477431
 20
32.93652664572551
 30
0.0
 11
99.81044514973956
 21
36.73543343826023
 31
0.0
  0
LINE
  5
E4
  8
0
 10
96.0563245985243
 20
28.38831158496161
 30
0.0
 11
97.92907850477431
 21
32.93652664572551
 31
0.0
  0
LINE
  5
E5
  8
0
 10
94.19149441189236
 20
23.18656191048245
 30
0.0
 11
96.0563245985243
 21
28.38831158496161
 31
0.0
  0
LINE
  5
E6
  8
0
 10
92.81207817925346
 20
18.76374832541301
 30
0.0
 11
94.19149441189236
 21
23.18656191048245
 31
0.0
  0
LINE
  5
E7
  8
0
 10
90.98824462890624
 20
13.13584033930189
 30
0.0
 11
92.81207817925346
 21
18.76374832541301
 31
0.0
  0
LINE
  5
E8
  8
0
 10
90.78222791883681
 20
11.94659337749634
 30
0.0
 11
90.98824462890624
 21
13.13584033930189
 31
0.0
  0
LINE
  5
E9
  8
0
 10
92.42312689887152
 20
11.36885086447551
 30
0.0
 11
90.78222791883681
 21
11.94659337749634
 31
0.0
  0
LINE
  5
EA
  8
0
 10
92.42312689887152
 20
9.027563972114393
 30
0.0
 11
92.42312689887152
 21
11.36885086447551
 31
0.0
  0
LINE
  5
EB
  8
0
 10
88.45265435112847
 20
9.027563972114393
 30
0.0
 11
92.42312689887152
 21
9.027563972114393
 31
0.0
  0
LINE
  5
EC
  8
0
 10
88.45265435112847
 20
3.452365946940788
 30
0.0
 11
88.45265435112847
 21
9.027563972114393
 31
0.0
  0
LINE
  5
ED
  8
0
 10
-104.051185438368
 20
55.5580571361769
 30
0.0
 11
-112.1705864800347
 21
55.5580571361769
 31
0.0
  0
LINE
  5
EE
  8
0
 10
-113.3949734157986
 20
55.18977642871161
 30
0.0
 11
-102.8267985026042
 21
55.18977642871161
 31
0.0
  0
LINE
  5
EF
  8
0
 10
-102.7952758789062
 20
54.13040956673245
 30
0.0
 11
-113.4264960394965
 21
54.13040956673245
 31
0.0
  0
LINE
  5
F0
  8
0
 10
-112.356793891059
 20
53.6735899052741
 30
0.0
 11
-103.8649780273437
 21
53.6735899052741
 31
0.0
  0
LINE
  5
F1
  8
0
 10
-101.9970472547743
 20
52.49467822992688
 30
0.0
 11
-114.2248969184028
 21
52.49467822992688
 31
0.0
  0
LINE
  5
F2
  8
0
 10
-117.6591403537326
 20
11.94659337749634
 30
0.0
 11
-83.15978190104165
 21
11.94659337749634
 31
0.0
  0
LINE
  5
F3
  8
0
 10
-133.0619900173611
 20
11.94659337749634
 30
0.0
 11
-117.6591403537326
 21
11.94659337749634
 31
0.0
  0
LINE
  5
F4
  8
0
 10
-84.80050862630208
 20
11.36885086447551
 30
0.0
 11
-131.421435546875
 21
11.36885086447551
 31
0.0
  0
LINE
  5
F5
  8
0
 10
-135.3915635850694
 20
9.027563972114393
 30
0.0
 11
-80.83020833333332
 21
9.027563972114393
 31
0.0
  0
LINE
  5
F6
  8
0
 10
-136.4418009440104
 20
64.69513938444078
 30
0.0
 11
-140.8766723632812
 21
64.69513938444078
 31
0.0
  0
LINE
  5
F7
  8
0
 10
-124.3248833550347
 20
64.69513938444078
 30
0.0
 11
-136.4418009440104
 21
64.69513938444078
 31
0.0
  0
LINE
  5
F8
  8
0
 10
-107.7729220920139
 20
64.69513938444078
 30
0.0
 11
-124.3248833550347
 21
64.69513938444078
 31
0.0
  0
LINE
  5
F9
  8
0
 10
-91.22130533854165
 20
64.69513938444078
 30
0.0
 11
-107.7729220920139
 21
64.69513938444078
 31
0.0
  0
LINE
  5
FA
  8
0
 10
-74.66917182074651
 20
64.69513938444078
 30
0.0
 11
-91.22130533854165
 21
64.69513938444078
 31
0.0
  0
LINE
  5
FB
  8
0
 10
-81.67718505859374
 20
67.45018224468385
 30
0.0
 11
-77.64004991319443
 21
67.45018224468385
 31
0.0
  0
LINE
  5
FC
  8
0
 10
-92.70648600260415
 20
67.45018224468385
 30
0.0
 11
-81.67718505859374
 21
67.45018224468385
 31
0.0
  0
LINE
  5
FD
  8
0
 10
-107.7729220920139
 20
67.45018224468385
 30
0.0
 11
-92.70648600260415
 21
67.45018224468385
 31
0.0
  0
LINE
  5
FE
  8
0
 10
-122.8393581814236
 20
67.45018224468385
 30
0.0
 11
-107.7729220920139
 21
67.45018224468385
 31
0.0
  0
LINE
  5
FF
  8
0
 10
-133.8690036349826
 20
67.45018224468385
 30
0.0
 11
-122.8393581814236
 21
67.45018224468385
 31
0.0
  0
LINE
  5
100
  8
0
 10
-137.9057942708333
 20
67.45018224468385
 30
0.0
 11
-133.8690036349826
 21
67.45018224468385
 31
0.0
  0
LINE
  5
101
  8
0
 10
16.48908827039931
 20
47.50824702332967
 30
0.0
 11
-16.48908827039931
 21
47.50824702332967
 31
0.0
  0
LINE
  5
102
  8
0
 10
-14.26441786024306
 20
45.91799094694078
 30
0.0
 11
14.26424560546876
 21
45.91799094694078
 31
0.0
  0
LINE
  5
103
  8
0
 10
16.97450222439237
 20
43.60288678027412
 30
0.0
 11
-16.97450222439235
 21
43.60288678027412
 31
0.0
  0
LINE
  5
104
  8
0
 10
-16.97450222439235
 20
39.581082309788
 30
0.0
 11
16.97450222439237
 21
39.581082309788
 31
0.0
  0
LINE
  5
105
  8
0
 10
14.76033935546876
 20
37.857156528538
 30
0.0
 11
-14.76051161024306
 21
37.857156528538
 31
0.0
  0
LINE
  5
106
  8
0
 10
-19.33628743489582
 20
34.79308860319078
 30
0.0
 11
19.33611518012152
 21
34.79308860319078
 31
0.0
  0
LINE
  5
107
  8
0
 10
21.8500013563368
 20
24.03922304329495
 30
0.0
 11
-21.8500013563368
 21
24.03922304329495
 31
0.0
  0
LINE
  5
108
  8
0
 10
-21.8500013563368
 20
22.31529726204495
 30
0.0
 11
21.8500013563368
 21
22.31529726204495
 31
0.0
  0
LINE
  5
109
  8
0
 10
24.47206353081597
 20
20.78326329937134
 30
0.0
 11
-24.47189127604166
 21
20.78326329937134
 31
0.0
  0
LINE
  5
10A
  8
0
 10
-28.06426459418402
 20
17.80807883756579
 30
0.0
 11
28.06426459418404
 21
17.80807883756579
 31
0.0
  0
LINE
  5
10B
  8
0
 10
-8.773796929253464
 20
71.52951980978799
 30
0.0
 11
-8.773796929253464
 21
107.0078021448574
 31
0.0
  0
LINE
  5
10C
  8
0
 10
-10.36904839409722
 20
71.01861214919771
 30
0.0
 11
-8.773796929253464
 21
71.52951980978799
 31
0.0
  0
LINE
  5
10D
  8
0
 10
-10.36904839409722
 20
69.74874995301715
 30
0.0
 11
-10.36904839409722
 21
71.01861214919771
 31
0.0
  0
LINE
  5
10E
  8
0
 10
-8.883867730034723
 20
69.02304058886787
 30
0.0
 11
-10.36904839409722
 21
69.74874995301715
 31
0.0
  0
LINE
  5
10F
  8
0
 10
-7.158563910590274
 20
55.59836475336439
 30
0.0
 11
-8.883867730034723
 21
69.02304058886787
 31
0.0
  0
LINE
  5
110
  8
0
 10
7.335125054253481
 20
55.59836475336439
 30
0.0
 11
-7.158563910590274
 21
55.59836475336439
 31
0.0
  0
LINE
  5
111
  8
0
 10
9.060773383246527
 20
69.02304058886787
 30
0.0
 11
7.335125054253481
 21
55.59836475336439
 31
0.0
  0
LINE
  5
112
  8
0
 10
10.54560953776041
 20
69.74874995301715
 30
0.0
 11
9.060773383246527
 21
69.02304058886787
 31
0.0
  0
LINE
  5
113
  8
0
 10
10.54560953776041
 20
71.01861214919771
 30
0.0
 11
10.54560953776041
 21
69.74874995301715
 31
0.0
  0
LINE
  5
114
  8
0
 10
8.95053032769097
 20
71.52951980978799
 30
0.0
 11
10.54560953776041
 21
71.01861214919771
 31
0.0
  0
LINE
  5
115
  8
0
 10
8.95053032769097
 20
99.75535938227063
 30
0.0
 11
8.95053032769097
 21
71.52951980978799
 31
0.0
  0
LINE
  5
116
  8
0
 10
8.95053032769097
 20
107.0078021448574
 30
0.0
 11
8.95053032769097
 21
99.75535938227063
 31
0.0
  0
LINE
  5
117
  8
0
 10
7.739579264322913
 20
111.0855894169929
 30
0.0
 11
8.95053032769097
 21
107.0078021448574
 31
0.0
  0
LINE
  5
118
  8
0
 10
4.559067111545147
 20
113.9861875615241
 30
0.0
 11
7.739579264322913
 21
111.0855894169929
 31
0.0
  0
LINE
  5
119
  8
0
 10
0.0883666992187528
 20
115.0906851743713
 30
0.0
 11
4.559067111545147
 21
113.9861875615241
 31
0.0
  0
LINE
  5
11A
  8
0
 10
-4.38250596788194
 20
113.9861875615241
 30
0.0
 11
0.0883666992187528
 21
115.0906851743713
 31
0.0
  0
LINE
  5
11B
  8
0
 10
-7.562845865885407
 20
111.0855894169929
 30
0.0
 11
-4.38250596788194
 21
113.9861875615241
 31
0.0
  0
POLYLINE
  5
11C
  8
0
 66
     1
 10
0.0
 20
0.0
 30
0.0
 70
     1
  0
VERTEX
  5
21C
  8
0
 10
-8.773796929253464
 20
107.0078021448574
 30
0.0
  0
VERTEX
  5
21D
  8
0
 10
-7.562845865885407
 20
111.0855894169929
 30
0.0
  0
SEQEND
  5
21B
  8
0
  0
LINE
  5
11D
  8
0
 10
-6.138815646701389
 20
113.7357291196838
 30
0.0
 11
-3.935160319010407
 21
117.7523659469408
 31
0.0
  0
LINE
  5
11E
  8
0
 10
-6.13881564670136
 20
112.3843623607636
 30
0.0
 11
-6.138815646701389
 21
113.7357291196838
 31
0.0
  0
LINE
  5
11F
  8
0
 10
6.138987901475701
 20
113.7357291196838
 30
0.0
 11
6.138987901475687
 21
112.5453141764699
 31
0.0
  0
LINE
  5
120
  8
0
 10
3.935160319010421
 20
117.7523659469408
 30
0.0
 11
6.138987901475701
 21
113.7357291196838
 31
0.0
  0
LINE
  5
121
  8
0
 10
-3.935160319010407
 20
117.7523659469408
 30
0.0
 11
3.935160319010421
 21
117.7523659469408
 31
0.0
  0
LINE
  5
122
  8
0
 10
-14.37982855902777
 20
64.50565913270467
 30
0.0
 11
-16.66961127387152
 21
72.64125212315605
 31
0.0
  0
LINE
  5
123
  8
0
 10
-8.366069878472217
 20
58.71858773513523
 30
0.0
 11
-14.37982855902777
 21
64.50565913270467
 31
0.0
  0
LINE
  5
124
  8
0
 10
-7.932504611545141
 20
58.48604378982273
 30
0.0
 11
-8.366069878472217
 21
58.71858773513523
 31
0.0
  0
LINE
  5
125
  8
0
 10
-7.514938129408506
 20
58.37133048255765
 30
0.0
 11
-7.932504611545141
 21
58.48604378982273
 31
0.0
  0
LINE
  5
126
  8
0
 10
8.542631022135424
 20
58.71858773513523
 30
0.0
 11
7.705190281682462
 21
58.47728604500713
 31
0.0
  0
LINE
  5
127
  8
0
 10
14.55638970269098
 20
64.50565913270467
 30
0.0
 11
8.542631022135424
 21
58.71858773513523
 31
0.0
  0
LINE
  5
128
  8
0
 10
16.84634467230903
 20
72.64125212315605
 30
0.0
 11
14.55638970269098
 21
64.50565913270467
 31
0.0
  0
LINE
  5
129
  8
0
 10
14.55638970269098
 20
80.77684511360744
 30
0.0
 11
16.84634467230903
 21
72.64125212315605
 31
0.0
  0
LINE
  5
12A
  8
0
 10
8.950530327690956
 20
86.17123230721202
 30
0.0
 11
14.55638970269098
 21
80.77684511360744
 31
0.0
  0
LINE
  5
12B
  8
0
 10
-14.37982855902777
 20
80.77684511360744
 30
0.0
 11
-8.773796929253464
 21
86.17139806394738
 31
0.0
  0
LINE
  5
12C
  8
0
 10
-16.66961127387152
 20
72.64125212315605
 30
0.0
 11
-14.37982855902777
 21
80.77684511360744
 31
0.0
  0
LINE
  5
12D
  8
0
 10
-28.06426459418402
 20
17.80807883756579
 30
0.0
 11
-28.06426459418402
 21
3.606361715169953
 31
0.0
  0
LINE
  5
12E
  8
0
 10
-24.47189127604166
 20
18.14121957107273
 30
0.0
 11
-28.06426459418402
 21
17.80807883756579
 31
0.0
  0
LINE
  5
12F
  8
0
 10
-24.47189127604166
 20
20.78326329937134
 30
0.0
 11
-24.47189127604166
 21
18.14121957107273
 31
0.0
  0
LINE
  5
130
  8
0
 10
-21.8500013563368
 20
22.31529726204495
 30
0.0
 11
-24.47189127604166
 21
20.78326329937134
 31
0.0
  0
LINE
  5
131
  8
0
 10
-21.8500013563368
 20
24.03922304329495
 30
0.0
 11
-21.8500013563368
 21
22.31529726204495
 31
0.0
  0
LINE
  5
132
  8
0
 10
-19.33628743489582
 20
24.25970915440605
 30
0.0
 11
-21.8500013563368
 21
24.03922304329495
 31
0.0
  0
LINE
  5
133
  8
0
 10
-19.33628743489582
 20
34.79308860319078
 30
0.0
 11
-19.33628743489582
 21
24.25970915440605
 31
0.0
  0
LINE
  5
134
  8
0
 10
-14.76051161024306
 20
37.857156528538
 30
0.0
 11
-19.33628743489582
 21
34.79308860319078
 31
0.0
  0
LINE
  5
135
  8
0
 10
-16.97450222439235
 20
39.581082309788
 30
0.0
 11
-14.76051161024306
 21
37.857156528538
 31
0.0
  0
LINE
  5
136
  8
0
 10
-16.97450222439235
 20
43.60288678027412
 30
0.0
 11
-16.97450222439235
 21
39.581082309788
 31
0.0
  0
LINE
  5
137
  8
0
 10
-14.26441786024306
 20
45.91799094694078
 30
0.0
 11
-16.97450222439235
 21
43.60288678027412
 31
0.0
  0
LINE
  5
138
  8
0
 10
-16.48908827039931
 20
47.50824702332967
 30
0.0
 11
-14.26441786024306
 21
45.91799094694078
 31
0.0
  0
LINE
  5
139
  8
0
 10
-16.48908827039931
 20
92.83244000293036
 30
0.0
 11
-16.48908827039931
 21
73.28264996066395
 31
0.0
  0
LINE
  5
13A
  8
0
 10
-16.48908827039931
 20
71.99985428564813
 30
0.0
 11
-16.48908827039931
 21
47.50824702332967
 31
0.0
  0
LINE
  5
13B
  8
0
 10
-13.97382405598958
 20
95.28707053678451
 30
0.0
 11
-16.48908827039931
 21
92.83244000293036
 31
0.0
  0
LINE
  5
13C
  8
0
 10
-8.77379692925345
 20
96.08021481715375
 30
0.0
 11
-13.97382405598958
 21
95.28707053678451
 31
0.0
  0
LINE
  5
13D
  8
0
 10
13.97382405598958
 20
95.28707053678451
 30
0.0
 11
8.950530327690956
 21
96.05325821083136
 31
0.0
  0
LINE
  5
13E
  8
0
 10
16.48908827039931
 20
92.83244000293036
 30
0.0
 11
13.97382405598958
 21
95.28707053678451
 31
0.0
  0
LINE
  5
13F
  8
0
 10
16.48908827039931
 20
47.50824702332967
 30
0.0
 11
16.48908827039931
 21
71.37201638807284
 31
0.0
  0
LINE
  5
140
  8
0
 10
16.48908827039931
 20
73.91048785823929
 30
0.0
 11
16.48908827039931
 21
92.83244000293036
 31
0.0
  0
LINE
  5
141
  8
0
 10
14.26424560546876
 20
45.91799094694078
 30
0.0
 11
16.48908827039931
 21
47.50824702332967
 31
0.0
  0
LINE
  5
142
  8
0
 10
16.97450222439237
 20
43.60288678027412
 30
0.0
 11
14.26424560546876
 21
45.91799094694078
 31
0.0
  0
LINE
  5
143
  8
0
 10
16.97450222439237
 20
39.581082309788
 30
0.0
 11
16.97450222439237
 21
43.60288678027412
 31
0.0
  0
LINE
  5
144
  8
0
 10
14.76033935546876
 20
37.857156528538
 30
0.0
 11
16.97450222439237
 21
39.581082309788
 31
0.0
  0
LINE
  5
145
  8
0
 10
19.33611518012152
 20
34.79308860319078
 30
0.0
 11
14.76033935546876
 21
37.857156528538
 31
0.0
  0
LINE
  5
146
  8
0
 10
19.33611518012152
 20
24.25970915440605
 30
0.0
 11
19.33611518012152
 21
34.79308860319078
 31
0.0
  0
LINE
  5
147
  8
0
 10
21.8500013563368
 20
24.03922304329495
 30
0.0
 11
19.33611518012152
 21
24.25970915440605
 31
0.0
  0
LINE
  5
148
  8
0
 10
21.8500013563368
 20
22.31529726204495
 30
0.0
 11
21.8500013563368
 21
24.03922304329495
 31
0.0
  0
LINE
  5
149
  8
0
 10
24.47206353081597
 20
20.78326329937134
 30
0.0
 11
21.8500013563368
 21
22.31529726204495
 31
0.0
  0
LINE
  5
14A
  8
0
 10
24.47206353081597
 20
18.14121957107273
 30
0.0
 11
24.47206353081597
 21
20.78326329937134
 31
0.0
  0
LINE
  5
14B
  8
0
 10
28.06426459418404
 20
17.80807883756579
 30
0.0
 11
24.47206353081597
 21
18.14121957107273
 31
0.0
  0
LINE
  5
14C
  8
0
 10
28.06426459418404
 20
3.606361715169953
 30
0.0
 11
28.06426459418404
 21
17.80807883756579
 31
0.0
  0
LINE
  5
14D
  8
0
 10
-28.06426459418402
 20
3.606361715169953
 30
0.0
 11
28.06426459418404
 21
3.606361715169953
 31
0.0
  0
LINE
  5
14E
  8
0
 10
-137.3177164713542
 20
62.37572884841649
 30
0.0
 11
-142.1499796549479
 21
62.39915549772204
 31
0.0
  0
LINE
  5
14F
  8
0
 10
-110.177943250868
 20
61.04712777419772
 30
0.0
 11
-137.3177164713542
 21
62.37572884841649
 31
0.0
  0
LINE
  5
150
  8
0
 10
-108.975432671441
 20
61.04712777419772
 30
0.0
 11
-110.177943250868
 21
61.04712777419772
 31
0.0
  0
LINE
  5
151
  8
0
 10
-107.7729220920139
 20
61.04712777419772
 30
0.0
 11
-108.975432671441
 21
61.04712777419772
 31
0.0
  0
LINE
  5
152
  8
0
 10
-105.6901896158854
 20
61.04712777419772
 30
0.0
 11
-107.7729220920139
 21
61.04712777419772
 31
0.0
  0
LINE
  5
153
  8
0
 10
-105.3679009331597
 20
61.04712777419772
 30
0.0
 11
-105.6901896158854
 21
61.04712777419772
 31
0.0
  0
LINE
  5
154
  8
0
 10
-78.2281277126736
 20
62.37572884841649
 30
0.0
 11
-105.3679009331597
 21
61.04712777419772
 31
0.0
  0
LINE
  5
155
  8
0
 10
-73.39620903862846
 20
62.39915549772204
 30
0.0
 11
-78.2281277126736
 21
62.37572884841649
 31
0.0
  0
LINE
  5
156
  8
0
 10
-74.66917182074651
 20
64.69513938444078
 30
0.0
 11
-73.39620903862846
 21
62.39915549772204
 31
0.0
  0
LINE
  5
157
  8
0
 10
-76.79135064019096
 20
65.46046734668036
 30
0.0
 11
-74.66917182074651
 21
64.69513938444078
 31
0.0
  0
LINE
  5
158
  8
0
 10
-77.64004991319443
 20
67.45018224468385
 30
0.0
 11
-76.79135064019096
 21
65.46046734668036
 31
0.0
  0
LINE
  5
159
  8
0
 10
-79.19619954427083
 20
67.45018224468385
 30
0.0
 11
-77.64004991319443
 21
67.45018224468385
 31
0.0
  0
POLYLINE
  5
15A
  8
0
 66
     1
 10
0.0
 20
0.0
 30
0.0
 70
   132
 75
     6
  0
VERTEX
  5
15B
  8
0
 10
-136.349644639757
 20
67.45018224468385
 30
0.0
 70
    16
  0
VERTEX
  5
15C
  8
0
 10
-136.349644639757
 20
67.45018224468385
 30
0.0
 70
     8
  0
VERTEX
  5
15D
  8
0
 10
-135.6099954794954
 20
68.07210746248009
 30
0.0
 70
     8
  0
VERTEX
  5
15E
  8
0
 10
-134.9468075893543
 20
68.61746694705549
 30
0.0
 70
     8
  0
VERTEX
  5
15F
  8
0
 10
-134.3506463196542
 20
69.09504989733847
 30
0.0
 70
     8
  0
VERTEX
  5
160
  8
0
 10
-133.8120770207158
 20
69.51364551225743
 30
0.0
 70
     8
  0
VERTEX
  5
161
  8
0
 10
-133.3216650428595
 20
69.88204299074077
 30
0.0
 70
     8
  0
VERTEX
  5
162
  8
0
 10
-132.8699757364061
 20
70.2090315317169
 30
0.0
 70
     8
  0
VERTEX
  5
163
  8
0
 10
-132.4475744516761
 20
70.50340033411423
 30
0.0
 70
     8
  0
VERTEX
  5
164
  8
0
 10
-132.0450265389901
 20
70.77393859686121
 30
0.0
 70
     8
  0
VERTEX
  5
165
  8
0
 10
-131.6540086498967
 20
71.02823270730949
 30
0.0
 70
     8
  0
VERTEX
  5
166
  8
0
 10
-131.2706426408556
 20
71.26905780650397
 30
0.0
 70
     8
  0
VERTEX
  5
167
  8
0
 10
-130.8921616695545
 20
71.49798622391288
 30
0.0
 70
     8
  0
VERTEX
  5
168
  8
0
 10
-130.5157988936813
 20
71.7165902890044
 30
0.0
 70
     8
  0
VERTEX
  5
169
  8
0
 10
-130.1387874709235
 20
71.92644233124673
 30
0.0
 70
     8
  0
VERTEX
  5
16A
  8
0
 10
-129.758360558969
 20
72.12911468010806
 30
0.0
 70
     8
  0
VERTEX
  5
16B
  8
0
 10
-129.3717513155054
 20
72.32617966505661
 30
0.0
 70
     8
  0
VERTEX
  5
16C
  8
0
 10
-128.9761928982205
 20
72.51920961556057
 30
0.0
 70
     8
  0
VERTEX
  5
16D
  8
0
 10
-128.5692983561092
 20
72.70949776013138
 30
0.0
 70
     8
  0
VERTEX
  5
16E
  8
0
 10
-128.1502003033956
 20
72.89722092345355
 30
0.0
 70
     8
  0
VERTEX
  5
16F
  8
0
 10
-127.718411245611
 20
73.08227682925482
 30
0.0
 70
     8
  0
VERTEX
  5
170
  8
0
 10
-127.2734436882867
 20
73.26456320126296
 30
0.0
 70
     8
  0
VERTEX
  5
171
  8
0
 10
-126.814810136954
 20
73.44397776320574
 30
0.0
 70
     8
  0
VERTEX
  5
172
  8
0
 10
-126.3420230971442
 20
73.6204182388109
 30
0.0
 70
     8
  0
VERTEX
  5
173
  8
0
 10
-125.8545950743887
 20
73.79378235180619
 30
0.0
 70
     8
  0
VERTEX
  5
174
  8
0
 10
-125.3520385742187
 20
73.96396782591937
 30
0.0
 70
     8
  0
VERTEX
  5
175
  8
0
 10
-124.8338657657305
 20
74.13087244095071
 30
0.0
 70
     8
  0
VERTEX
  5
176
  8
0
 10
-124.2995874722798
 20
74.29439420099057
 30
0.0
 70
     8
  0
VERTEX
  5
177
  8
0
 10
-123.7487141807874
 20
74.4544311662018
 30
0.0
 70
     8
  0
VERTEX
  5
178
  8
0
 10
-123.1807563781738
 20
74.61088139674727
 30
0.0
 70
     8
  0
VERTEX
  5
179
  8
0
 10
-122.5952245513598
 20
74.76364295278982
 30
0.0
 70
     8
  0
VERTEX
  5
17A
  8
0
 10
-121.991629187266
 20
74.91261389449235
 30
0.0
 70
     8
  0
VERTEX
  5
17B
  8
0
 10
-121.3694807728131
 20
75.0576922820177
 30
0.0
 70
     8
  0
VERTEX
  5
17C
  8
0
 10
-120.7282897949219
 20
75.19877617552874
 30
0.0
 70
     8
  0
VERTEX
  5
17D
  8
0
 10
-120.067567076948
 20
75.33576352304327
 30
0.0
 70
     8
  0
VERTEX
  5
17E
  8
0
 10
-119.3868247879876
 20
75.46855182399902
 30
0.0
 70
     8
  0
VERTEX
  5
17F
  8
0
 10
-118.6855754335721
 20
75.5970384656886
 30
0.0
 70
     8
  0
VERTEX
  5
180
  8
0
 10
-117.9633315192329
 20
75.72112083540468
 30
0.0
 70
     8
  0
VERTEX
  5
181
  8
0
 10
-117.2196055505011
 20
75.8406963204399
 30
0.0
 70
     8
  0
VERTEX
  5
182
  8
0
 10
-116.4539100329081
 20
75.95566230808693
 30
0.0
 70
     8
  0
VERTEX
  5
183
  8
0
 10
-115.6657574719853
 20
76.06591618563839
 30
0.0
 70
     8
  0
VERTEX
  5
184
  8
0
 10
-114.8546603732639
 20
76.17135534038695
 30
0.0
 70
     8
  0
VERTEX
  5
185
  8
0
 10
-114.0207007708373
 20
76.27156270494614
 30
0.0
 70
     8
  0
VERTEX
  5
186
  8
0
 10
-113.166238813047
 20
76.36486339321289
 30
0.0
 70
     8
  0
VERTEX
  5
187
  8
0
 10
-112.2942041767968
 20
76.44926806440505
 30
0.0
 70
     8
  0
VERTEX
  5
188
  8
0
 10
-111.4075265389902
 20
76.52278737774047
 30
0.0
 70
     8
  0
VERTEX
  5
189
  8
0
 10
-110.5091355765307
 20
76.58343199243697
 30
0.0
 70
     8
  0
VERTEX
  5
18A
  8
0
 10
-109.6019609663222
 20
76.6292125677124
 30
0.0
 70
     8
  0
VERTEX
  5
18B
  8
0
 10
-108.688932385268
 20
76.65813976278457
 30
0.0
 70
     8
  0
VERTEX
  5
18C
  8
0
 10
-107.772979510272
 20
76.66822423687133
 30
0.0
 70
     8
  0
VERTEX
  5
18D
  8
0
 10
-106.8570316818025
 20
76.65813976278457
 30
0.0
 70
     8
  0
VERTEX
  5
18E
  8
0
 10
-105.9440168945877
 20
76.6292125677124
 30
0.0
 70
     8
  0
VERTEX
  5
18F
  8
0
 10
-105.0368628069206
 20
76.58343199243697
 30
0.0
 70
     8
  0
VERTEX
  5
190
  8
0
 10
-104.1384970770942
 20
76.52278737774047
 30
0.0
 70
     8
  0
VERTEX
  5
191
  8
0
 10
-103.2518473634013
 20
76.44926806440505
 30
0.0
 70
     8
  0
VERTEX
  5
192
  8
0
 10
-102.3798413241351
 20
76.36486339321289
 30
0.0
 70
     8
  0
VERTEX
  5
193
  8
0
 10
-101.5254066175884
 20
76.27156270494614
 30
0.0
 70
     8
  0
VERTEX
  5
194
  8
0
 10
-100.6914709020544
 20
76.17135534038695
 30
0.0
 70
     8
  0
VERTEX
  5
195
  8
0
 10
-99.88039264369894
 20
76.06591618563839
 30
0.0
 70
     8
  0
VERTEX
  5
196
  8
0
 10
-99.09225354018035
 20
75.95566230808693
 30
0.0
 70
     8
  0
VERTEX
  5
197
  8
0
 10
-98.32656609702993
 20
75.8406963204399
 30
0.0
 70
     8
  0
VERTEX
  5
198
  8
0
 10
-97.58284281977899
 20
75.72112083540468
 30
0.0
 70
     8
  0
VERTEX
  5
199
  8
0
 10
-96.86059621395886
 20
75.59703846568858
 30
0.0
 70
     8
  0
VERTEX
  5
19A
  8
0
 10
-96.15933878510084
 20
75.46855182399901
 30
0.0
 70
     8
  0
VERTEX
  5
19B
  8
0
 10
-95.47858303873626
 20
75.33576352304327
 30
0.0
 70
     8
  0
VERTEX
  5
19C
  8
0
 10
-94.8178414803964
 20
75.19877617552874
 30
0.0
 70
     8
  0
VERTEX
  5
19D
  8
0
 10
-94.17662661561258
 20
75.0576922820177
 30
0.0
 70
     8
  0
VERTEX
  5
19E
  8
0
 10
-93.5544509499161
 20
74.91261389449237
 30
0.0
 70
     8
  0
VERTEX
  5
19F
  8
0
 10
-92.95082698883833
 20
74.76364295278984
 30
0.0
 70
     8
  0
VERTEX
  5
1A0
  8
0
 10
-92.36526723791049
 20
74.61088139674727
 30
0.0
 70
     8
  0
VERTEX
  5
1A1
  8
0
 10
-91.79728420266396
 20
74.4544311662018
 30
0.0
 70
     8
  0
VERTEX
  5
1A2
  8
0
 10
-91.24639038863002
 20
74.29439420099057
 30
0.0
 70
     8
  0
VERTEX
  5
1A3
  8
0
 10
-90.71209830134001
 20
74.13087244095071
 30
0.0
 70
     8
  0
VERTEX
  5
1A4
  8
0
 10
-90.19392044632521
 20
73.96396782591937
 30
0.0
 70
     8
  0
VERTEX
  5
1A5
  8
0
 10
-89.6913688805368
 20
73.79378235180619
 30
0.0
 70
     8
  0
VERTEX
  5
1A6
  8
0
 10
-89.20395386660539
 20
73.6204182388109
 30
0.0
 70
     8
  0
VERTEX
  5
1A7
  8
0
 10
-88.73118521858142
 20
73.44397776320574
 30
0.0
 70
     8
  0
VERTEX
  5
1A8
  8
0
 10
-88.27257275051539
 20
73.26456320126296
 30
0.0
 70
     8
  0
VERTEX
  5
1A9
  8
0
 10
-87.82762627645774
 20
73.08227682925482
 30
0.0
 70
     8
  0
VERTEX
  5
1AA
  8
0
 10
-87.39585561045892
 20
72.89722092345355
 30
0.0
 70
     8
  0
VERTEX
  5
1AB
  8
0
 10
-86.97677056656941
 20
72.70949776013138
 30
0.0
 70
     8
  0
VERTEX
  5
1AC
  8
0
 10
-86.56988095883969
 20
72.51920961556057
 30
0.0
 70
     8
  0
VERTEX
  5
1AD
  8
0
 10
-86.17431766324573
 20
72.32617966505661
 30
0.0
 70
     8
  0
VERTEX
  5
1AE
  8
0
 10
-85.78769580346567
 20
72.12911468010806
 30
0.0
 70
     8
  0
VERTEX
  5
1AF
  8
0
 10
-85.40725156510318
 20
71.92644233124672
 30
0.0
 70
     8
  0
VERTEX
  5
1B0
  8
0
 10
-85.03022113376193
 20
71.7165902890044
 30
0.0
 70
     8
  0
VERTEX
  5
1B1
  8
0
 10
-84.6538406950456
 20
71.49798622391288
 30
0.0
 70
     8
  0
VERTEX
  5
1B2
  8
0
 10
-84.27534643455788
 20
71.26905780650397
 30
0.0
 70
     8
  0
VERTEX
  5
1B3
  8
0
 10
-83.8919745379024
 20
71.02823270730947
 30
0.0
 70
     8
  0
VERTEX
  5
1B4
  8
0
 10
-83.50096119068286
 20
70.77393859686121
 30
0.0
 70
     8
  0
VERTEX
  5
1B5
  8
0
 10
-83.0984294829545
 20
70.50340033411426
 30
0.0
 70
     8
  0
VERTEX
  5
1B6
  8
0
 10
-82.67605012257893
 20
70.20903153171692
 30
0.0
 70
     8
  0
VERTEX
  5
1B7
  8
0
 10
-82.22438072186928
 20
69.88204299074077
 30
0.0
 70
     8
  0
VERTEX
  5
1B8
  8
0
 10
-81.73397889313874
 20
69.51364551225744
 30
0.0
 70
     8
  0
VERTEX
  5
1B9
  8
0
 10
-81.19540224870045
 20
69.09504989733848
 30
0.0
 70
     8
  0
VERTEX
  5
1BA
  8
0
 10
-80.5992084008676
 20
68.61746694705551
 30
0.0
 70
     8
  0
VERTEX
  5
1BB
  8
0
 10
-79.93595496195333
 20
68.07210746248009
 30
0.0
 70
     8
  0
VERTEX
  5
1BC
  8
0
 10
-79.19619954427083
 20
67.45018224468383
 30
0.0
 70
     8
  0
VERTEX
  5
1BD
  8
0
 10
-134.2669121636285
 20
69.21854975770467
 30
0.0
 70
    16
  0
VERTEX
  5
1BE
  8
0
 10
-131.933893500434
 20
70.93437956456231
 30
0.0
 70
    16
  0
VERTEX
  5
1BF
  8
0
 10
-129.1011637369792
 20
72.54547846864216
 30
0.0
 70
    16
  0
VERTEX
  5
1C0
  8
0
 10
-125.5186089409722
 20
73.99896425423245
 30
0.0
 70
    16
  0
VERTEX
  5
1C1
  8
0
 10
-120.9366319444444
 20
75.24247146994424
 30
0.0
 70
    16
  0
VERTEX
  5
1C2
  8
0
 10
-115.1046020507812
 20
76.223806919163
 30
0.0
 70
    16
  0
VERTEX
  5
1C3
  8
0
 10
-107.7729220920139
 20
76.8904328957255
 30
0.0
 70
    16
  0
VERTEX
  5
1C4
  8
0
 10
-100.4415866427951
 20
76.223806919163
 30
0.0
 70
    16
  0
VERTEX
  5
1C5
  8
0
 10
-94.60955674913193
 20
75.24247146994424
 30
0.0
 70
    16
  0
VERTEX
  5
1C6
  8
0
 10
-90.02723524305554
 20
73.99896425423245
 30
0.0
 70
    16
  0
VERTEX
  5
1C7
  8
0
 10
-86.44502495659721
 20
72.54547846864216
 30
0.0
 70
    16
  0
VERTEX
  5
1C8
  8
0
 10
-83.61195068359373
 20
70.93437956456231
 30
0.0
 70
    16
  0
VERTEX
  5
1C9
  8
0
 10
-81.27927652994791
 20
69.21854975770467
 30
0.0
 70
    16
  0
VERTEX
  5
1CA
  8
0
 10
-79.19619954427083
 20
67.45018224468385
 30
0.0
 70
    16
  0
SEQEND
  5
1CB
  8
0
  0
LINE
  5
1CC
  8
0
 10
-137.9057942708333
 20
67.45018224468385
 30
0.0
 11
-136.349644639757
 21
67.45018224468385
 31
0.0
  0
LINE
  5
1CD
  8
0
 10
-138.7546657986111
 20
65.46029509190606
 30
0.0
 11
-137.9057942708333
 21
67.45018224468385
 31
0.0
  0
LINE
  5
1CE
  8
0
 10
-140.8766723632812
 20
64.69513938444078
 30
0.0
 11
-138.7546657986111
 21
65.46029509190606
 31
0.0
  0
LINE
  5
1CF
  8
0
 10
-142.1499796549479
 20
62.39915549772204
 30
0.0
 11
-140.8766723632812
 21
64.69513938444078
 31
0.0
  0
LINE
  5
1D0
  8
0
 10
-80.83020833333332
 20
3.452365946940788
 30
0.0
 11
-135.3915635850694
 21
3.452365946940788
 31
0.0
  0
LINE
  5
1D1
  8
0
 10
-80.83020833333332
 20
9.027563972114393
 30
0.0
 11
-80.83020833333332
 21
3.452365946940788
 31
0.0
  0
LINE
  5
1D2
  8
0
 10
-84.80050862630208
 20
9.027563972114393
 30
0.0
 11
-80.83020833333332
 21
9.027563972114393
 31
0.0
  0
LINE
  5
1D3
  8
0
 10
-84.80050862630208
 20
11.36885086447551
 30
0.0
 11
-84.80050862630208
 21
9.027563972114393
 31
0.0
  0
LINE
  5
1D4
  8
0
 10
-83.15978190104165
 20
11.94659337749634
 30
0.0
 11
-84.80050862630208
 21
11.36885086447551
 31
0.0
  0
LINE
  5
1D5
  8
0
 10
-83.3657986111111
 20
13.13584033930189
 30
0.0
 11
-83.15978190104165
 21
11.94659337749634
 31
0.0
  0
LINE
  5
1D6
  8
0
 10
-85.18945990668402
 20
18.76374832541301
 30
0.0
 11
-83.3657986111111
 21
13.13584033930189
 31
0.0
  0
LINE
  5
1D7
  8
0
 10
-86.56887613932291
 20
23.18656191048245
 30
0.0
 11
-85.18945990668402
 21
18.76374832541301
 31
0.0
  0
LINE
  5
1D8
  8
0
 10
-88.43370632595484
 20
28.38831158496161
 30
0.0
 11
-86.56887613932291
 21
23.18656191048245
 31
0.0
  0
LINE
  5
1D9
  8
0
 10
-90.30646023220484
 20
32.93652664572551
 30
0.0
 11
-88.43370632595484
 21
28.38831158496161
 31
0.0
  0
LINE
  5
1DA
  8
0
 10
-92.18782687717012
 20
36.73543343826023
 30
0.0
 11
-90.30646023220484
 21
32.93652664572551
 31
0.0
  0
LINE
  5
1DB
  8
0
 10
-93.97135281032985
 20
40.07063037836439
 30
0.0
 11
-92.18782687717012
 21
36.73543343826023
 31
0.0
  0
LINE
  5
1DC
  8
0
 10
-95.67391899956596
 20
43.01894309537828
 30
0.0
 11
-93.97135281032985
 21
40.07063037836439
 31
0.0
  0
LINE
  5
1DD
  8
0
 10
-97.31137288411458
 20
45.65857525683661
 30
0.0
 11
-95.67391899956596
 21
43.01894309537828
 31
0.0
  0
LINE
  5
1DE
  8
0
 10
-98.90025092230901
 20
48.06600798253106
 30
0.0
 11
-97.31137288411458
 21
45.65857525683661
 31
0.0
  0
LINE
  5
1DF
  8
0
 10
-100.456745062934
 20
50.31910043044772
 30
0.0
 11
-98.90025092230901
 21
48.06600798253106
 31
0.0
  0
LINE
  5
1E0
  8
0
 10
-101.9970472547743
 20
52.49467822992688
 30
0.0
 11
-100.456745062934
 21
50.31910043044772
 31
0.0
  0
LINE
  5
1E1
  8
0
 10
-103.776611328125
 20
52.49467822992688
 30
0.0
 11
-101.9970472547743
 21
52.49467822992688
 31
0.0
  0
LINE
  5
1E2
  8
0
 10
-103.8649780273437
 20
53.6735899052741
 30
0.0
 11
-103.776611328125
 21
52.49467822992688
 31
0.0
  0
LINE
  5
1E3
  8
0
 10
-102.7952758789062
 20
54.13040956673245
 30
0.0
 11
-103.8649780273437
 21
53.6735899052741
 31
0.0
  0
LINE
  5
1E4
  8
0
 10
-102.8267985026042
 20
55.18977642871161
 30
0.0
 11
-102.7952758789062
 21
54.13040956673245
 31
0.0
  0
LINE
  5
1E5
  8
0
 10
-104.051185438368
 20
55.5580571361769
 30
0.0
 11
-102.8267985026042
 21
55.18977642871161
 31
0.0
  0
LINE
  5
1E6
  8
0
 10
-104.357137218118
 20
61.09660872404484
 30
0.0
 11
-104.051185438368
 21
55.5580571361769
 31
0.0
  0
LINE
  5
1E7
  8
0
 10
-112.1705864800347
 20
55.5580571361769
 30
0.0
 11
-111.8629678067528
 21
61.129616504551
 31
0.0
  0
LINE
  5
1E8
  8
0
 10
-113.3949734157986
 20
55.18977642871161
 30
0.0
 11
-112.1705864800347
 21
55.5580571361769
 31
0.0
  0
LINE
  5
1E9
  8
0
 10
-113.4264960394965
 20
54.13040956673245
 30
0.0
 11
-113.3949734157986
 21
55.18977642871161
 31
0.0
  0
LINE
  5
1EA
  8
0
 10
-112.356793891059
 20
53.6735899052741
 30
0.0
 11
-113.4264960394965
 21
54.13040956673245
 31
0.0
  0
LINE
  5
1EB
  8
0
 10
-112.4343085394965
 20
52.49467822992688
 30
0.0
 11
-112.356793891059
 21
53.6735899052741
 31
0.0
  0
LINE
  5
1EC
  8
0
 10
-114.2248969184028
 20
52.49467822992688
 30
0.0
 11
-112.4343085394965
 21
52.49467822992688
 31
0.0
  0
LINE
  5
1ED
  8
0
 10
-115.7650268554687
 20
50.31910043044772
 30
0.0
 11
-114.2248969184028
 21
52.49467822992688
 31
0.0
  0
LINE
  5
1EE
  8
0
 10
-117.3215209960937
 20
48.06600798253106
 30
0.0
 11
-115.7650268554687
 21
50.31910043044772
 31
0.0
  0
LINE
  5
1EF
  8
0
 10
-118.9103990342882
 20
45.65857525683661
 30
0.0
 11
-117.3215209960937
 21
48.06600798253106
 31
0.0
  0
LINE
  5
1F0
  8
0
 10
-120.5478529188368
 20
43.01894309537828
 30
0.0
 11
-118.9103990342882
 21
45.65857525683661
 31
0.0
  0
LINE
  5
1F1
  8
0
 10
-122.2504191080729
 20
40.07063037836439
 30
0.0
 11
-120.5478529188368
 21
43.01894309537828
 31
0.0
  0
LINE
  5
1F2
  8
0
 10
-124.0341172960069
 20
36.73543343826023
 30
0.0
 11
-122.2504191080729
 21
40.07063037836439
 31
0.0
  0
LINE
  5
1F3
  8
0
 10
-125.9153116861979
 20
32.93652664572551
 30
0.0
 11
-124.0341172960069
 21
36.73543343826023
 31
0.0
  0
LINE
  5
1F4
  8
0
 10
-127.7880655924479
 20
28.38831158496161
 30
0.0
 11
-125.9153116861979
 21
32.93652664572551
 31
0.0
  0
LINE
  5
1F5
  8
0
 10
-129.6530680338541
 20
23.18656191048245
 30
0.0
 11
-127.7880655924479
 21
28.38831158496161
 31
0.0
  0
LINE
  5
1F6
  8
0
 10
-131.0323120117187
 20
18.76374832541301
 30
0.0
 11
-129.6530680338541
 21
23.18656191048245
 31
0.0
  0
LINE
  5
1F7
  8
0
 10
-132.8559733072917
 20
13.13584033930189
 30
0.0
 11
-131.0323120117187
 21
18.76374832541301
 31
0.0
  0
LINE
  5
1F8
  8
0
 10
-133.0619900173611
 20
11.94659337749634
 30
0.0
 11
-132.8559733072917
 21
13.13584033930189
 31
0.0
  0
LINE
  5
1F9
  8
0
 10
-131.421435546875
 20
11.36885086447551
 30
0.0
 11
-133.0619900173611
 21
11.94659337749634
 31
0.0
  0
LINE
  5
1FA
  8
0
 10
-131.421435546875
 20
9.027563972114393
 30
0.0
 11
-131.421435546875
 21
11.36885086447551
 31
0.0
  0
LINE
  5
1FB
  8
0
 10
-135.3915635850694
 20
9.027563972114393
 30
0.0
 11
-131.421435546875
 21
9.027563972114393
 31
0.0
  0
LINE
  5
1FC
  8
0
 10
-135.3915635850694
 20
3.452365946940788
 30
0.0
 11
-135.3915635850694
 21
9.027563972114393
 31
0.0
  0
ATTDEF
  5
1FD
  8
0
  6
CONTINUOUS
 10
-0.0018
 20
-0.0065
 30
0.0
 40
0.003
  1
K-280-9B
  3

  2
MODELNUMBER
 70
     2
  0
ATTDEF
  5
1FE
  8
0
  6
CONTINUOUS
 10
-0.0018
 20
-0.0098
 30
0.0
 40
0.003
  1
ANTIQUE
  3

  2
TRADENAME
 70
     2
  0
ATTDEF
  5
1FF
  8
0
  6
CONTINUOUS
 10
-0.0018
 20
-0.0132
 30
0.0
 40
0.003
  1
FAUCET
  3

  2
PRODUCT
 70
     2
  0
ATTDEF
  5
200
  8
0
  6
CONTINUOUS
 10
-0.0018
 20
-0.0165
 30
0.0
 40
0.003
  1
BRASS
  3

  2
MATERIAL
 70
     2
  0
LINE
  5
201
  8
0
  6
CONTINUOUS
 10
-8.773796929253464
 20
71.52951980978799
 30
0.0
 11
8.95053032769097
 21
71.52951980978799
 31
0.0
  0
LINE
  5
202
  8
0
  6
CONTINUOUS
 10
-8.883867730034723
 20
69.02304058886787
 30
0.0
 11
9.060773383246527
 21
69.02304058886787
 31
0.0
  0
ENDSEC
  0
EOF
