  0
SECTION
  2
HEADER
  9
$ACADVER
  1
AC1009
  9
$INSBASE
 10
0.0
 20
0.0
 30
0.0
  9
$EXTMIN
 10
-7.0
 20
-7.505085
 30
0.0
  9
$EXTMAX
 10
7.0
 20
0.77721
 30
0.0
  9
$LIMMIN
 10
0.0
 20
0.0
  9
$LIMMAX
 10
12.0
 20
9.0
  9
$ORTHOMODE
 70
     0
  9
$REGENMODE
 70
     1
  9
$FILLMODE
 70
     1
  9
$QTEXTMODE
 70
     0
  9
$MIRRTEXT
 70
     1
  9
$DRAGMODE
 70
     2
  9
$LTSCALE
 40
1.0
  9
$OSMODE
 70
     0
  9
$ATTMODE
 70
     1
  9
$TEXTSIZE
 40
0.001
  9
$TRACEWID
 40
0.05
  9
$TEXTSTYLE
  7
STANDARD
  9
$CLAYER
  8
0
  9
$CELTYPE
  6
BYLAYER
  9
$CECOLOR
 62
   256
  9
$DIMSCALE
 40
1.0
  9
$DIMASZ
 40
0.18
  9
$DIMEXO
 40
0.0625
  9
$DIMDLI
 40
0.38
  9
$DIMRND
 40
0.0
  9
$DIMDLE
 40
0.0
  9
$DIMEXE
 40
0.18
  9
$DIMTP
 40
0.0
  9
$DIMTM
 40
0.0
  9
$DIMTXT
 40
0.18
  9
$DIMCEN
 40
0.09
  9
$DIMTSZ
 40
0.0
  9
$DIMTOL
 70
     0
  9
$DIMLIM
 70
     0
  9
$DIMTIH
 70
     1
  9
$DIMTOH
 70
     1
  9
$DIMSE1
 70
     0
  9
$DIMSE2
 70
     0
  9
$DIMTAD
 70
     0
  9
$DIMZIN
 70
     0
  9
$DIMBLK
  1

  9
$DIMASO
 70
     1
  9
$DIMSHO
 70
     1
  9
$DIMPOST
  1

  9
$DIMAPOST
  1

  9
$DIMALT
 70
     0
  9
$DIMALTD
 70
     2
  9
$DIMALTF
 40
25.4
  9
$DIMLFAC
 40
1.0
  9
$DIMTOFL
 70
     0
  9
$DIMTVP
 40
0.0
  9
$DIMTIX
 70
     0
  9
$DIMSOXD
 70
     0
  9
$DIMSAH
 70
     0
  9
$DIMBLK1
  1

  9
$DIMBLK2
  1

  9
$DIMSTYLE
  2
*UNNAMED
  9
$DIMCLRD
 70
     0
  9
$DIMCLRE
 70
     0
  9
$DIMCLRT
 70
     0
  9
$DIMTFAC
 40
1.0
  9
$DIMGAP
 40
0.09
  9
$LUNITS
 70
     2
  9
$LUPREC
 70
     4
  9
$SKETCHINC
 40
0.1
  9
$FILLETRAD
 40
0.5
  9
$AUNITS
 70
     0
  9
$AUPREC
 70
     0
  9
$MENU
  1
acad
  9
$ELEVATION
 40
0.0
  9
$PELEVATION
 40
0.0
  9
$THICKNESS
 40
0.0
  9
$LIMCHECK
 70
     0
  9
$BLIPMODE
 70
     0
  9
$CHAMFERA
 40
0.5
  9
$CHAMFERB
 40
0.5
  9
$SKPOLY
 70
     0
  9
$TDCREATE
 40
2451101.534524189
  9
$TDUPDATE
 40
2451101.535812152
  9
$TDINDWG
 40
0.0001379630
  9
$TDUSRTIMER
 40
0.0001379630
  9
$USRTIMER
 70
     1
  9
$ANGBASE
 50
0.0
  9
$ANGDIR
 70
     0
  9
$PDMODE
 70
     0
  9
$PDSIZE
 40
0.0
  9
$PLINEWID
 40
0.0
  9
$COORDS
 70
     1
  9
$SPLFRAME
 70
     0
  9
$SPLINETYPE
 70
     6
  9
$SPLINESEGS
 70
     8
  9
$ATTDIA
 70
     0
  9
$ATTREQ
 70
     1
  9
$HANDLING
 70
     1
  9
$HANDSEED
  5
192E
  9
$SURFTAB1
 70
     6
  9
$SURFTAB2
 70
     6
  9
$SURFTYPE
 70
     6
  9
$SURFU
 70
     6
  9
$SURFV
 70
     6
  9
$UCSNAME
  2

  9
$UCSORG
 10
0.0
 20
0.0
 30
0.0
  9
$UCSXDIR
 10
1.0
 20
0.0
 30
0.0
  9
$UCSYDIR
 10
0.0
 20
1.0
 30
0.0
  9
$PUCSNAME
  2

  9
$PUCSORG
 10
0.0
 20
0.0
 30
0.0
  9
$PUCSXDIR
 10
1.0
 20
0.0
 30
0.0
  9
$PUCSYDIR
 10
0.0
 20
1.0
 30
0.0
  9
$USERI1
 70
     0
  9
$USERI2
 70
     0
  9
$USERI3
 70
     0
  9
$USERI4
 70
     0
  9
$USERI5
 70
     0
  9
$USERR1
 40
0.0
  9
$USERR2
 40
0.0
  9
$USERR3
 40
0.0
  9
$USERR4
 40
0.0
  9
$USERR5
 40
0.0
  9
$WORLDVIEW
 70
     1
  9
$SHADEDGE
 70
     3
  9
$SHADEDIF
 70
    70
  9
$TILEMODE
 70
     1
  9
$MAXACTVP
 70
    16
  9
$PINSBASE
 10
7.290157E+99
 20
0.0
 30
-1.002166E+72
  9
$PLIMCHECK
 70
     0
  9
$PEXTMIN
 10
1.000000E+20
 20
1.000000E+20
 30
1.000000E+20
  9
$PEXTMAX
 10
-1.000000E+20
 20
-1.000000E+20
 30
-1.000000E+20
  9
$PLIMMIN
 10
0.0
 20
0.0
  9
$PLIMMAX
 10
12.0
 20
9.0
  9
$UNITMODE
 70
     0
  9
$VISRETAIN
 70
     1
  9
$PLINEGEN
 70
     0
  9
$PSLTSCALE
 70
     1
  9
$TREEDEPTH
 70
  3020
  9
$DWGCODEPAGE
  3
dummy
  0
ENDSEC
  0
SECTION
  2
TABLES
  0
TABLE
  2
VPORT
 70
     2
  0
VPORT
  2
*ACTIVE
 70
     0
 10
0.0
 20
0.0
 11
1.0
 21
1.0
 12
0.410268
 22
-2.822772
 13
0.0
 23
0.0
 14
0.5
 24
0.5
 15
0.5
 25
0.5
 16
0.0
 26
0.0
 36
1.0
 17
0.0
 27
0.0
 37
0.0
 40
10.405141
 41
1.573846
 42
50.0
 43
0.0
 44
0.0
 50
0.0
 51
0.0
 71
     0
 72
   100
 73
     1
 74
     1
 75
     0
 76
     0
 77
     0
 78
     0
  0
ENDTAB
  0
TABLE
  2
LTYPE
 70
     2
  0
LTYPE
  2
CONTINUOUS
 70
    64
  3
Solid line
 72
    65
 73
     0
 40
0.0
  0
LTYPE
  2
HIDDEN
 70
    64
  3
__ __ __ __ __ __ __ __ __ __ __ __ __ __ __ __
 72
    65
 73
     2
 40
0.375
 49
0.25
 49
-0.125
  0
ENDTAB
  0
TABLE
  2
LAYER
 70
     1
  0
LAYER
  2
0
 70
    64
 62
     7
  6
CONTINUOUS
  0
ENDTAB
  0
TABLE
  2
STYLE
 70
     1
  0
STYLE
  2
STANDARD
 70
    64
 40
0.0
 41
1.0
 50
0.0
 71
     0
 42
0.001
  3
txt
  4

  0
ENDTAB
  0
TABLE
  2
VIEW
 70
     0
  0
ENDTAB
  0
TABLE
  2
UCS
 70
     0
  0
ENDTAB
  0
TABLE
  2
APPID
 70
     1
  0
APPID
  2
ACAD
 70
    64
  0
ENDTAB
  0
TABLE
  2
DIMSTYLE
 70
     0
  0
ENDTAB
  0
ENDSEC
  0
SECTION
  2
BLOCKS
  0
ENDSEC
  0
SECTION
  2
ENTITIES
  0
LINE
  8
0
  6
HIDDEN
  5
18F1
 10
-1.339715
 20
-7.505085
 30
0.0
 11
1.324577
 21
-7.505085
 31
0.0
  0
LINE
  8
0
  5
18EA
 10
-5.940338
 20
0.751192
 30
0.0
 11
5.940338
 21
0.751192
 31
0.0
  0
LINE
  8
0
  5
18E5
 10
6.788068
 20
0.423689
 30
0.0
 11
-6.772929
 21
0.423689
 31
0.0
  0
LINE
  8
0
  5
18E2
 10
-7.0
 20
0.0
 30
0.0
 11
7.0
 21
0.0
 31
0.0
  0
ARC
  8
0
  6
HIDDEN
  5
18D1
 10
0.0
 20
-18.724181
 30
0.0
 40
12.912815
 50
82.692334
 51
97.307666
  0
ARC
  8
0
  5
18E9
 10
-5.953031
 20
0.141535
 30
0.0
 40
0.609789
 50
88.807285
 51
121.690791
  0
ARC
  8
0
  5
18E6
 10
-6.772929
 20
0.248633
 30
0.0
 40
0.175056
 50
90.0
 51
162.032121
  0
LINE
  8
0
  5
18E7
 10
-6.939448
 20
0.302635
 30
0.0
 11
-7.0
 21
0.0
 31
0.0
  0
LINE
  8
0
  5
18E8
 10
-6.591994
 20
0.423689
 30
0.0
 11
-6.273374
 21
0.660402
 31
0.0
  0
ARC
  8
0
  6
HIDDEN
  5
18ED
 10
9.119201
 20
1.540111
 30
0.0
 40
15.028091
 50
185.882121
 51
196.30217
  0
ARC
  8
0
  6
HIDDEN
  5
18EE
 10
-1.076618
 20
-1.586246
 30
0.0
 40
4.366822
 50
194.482505
 51
262.554614
  0
LINE
  8
0
  6
HIDDEN
  5
18F0
 10
-1.400267
 20
-6.158359
 30
0.0
 11
-1.339715
 21
-7.505085
 31
0.0
  0
ARC
  8
0
  6
HIDDEN
  5
18EF
 10
-1.655509
 20
-6.171499
 30
0.0
 40
0.25558
 50
2.9469
 51
87.076788
  0
ARC
  8
0
  6
HIDDEN
  5
18F4
 10
0.968971
 20
-1.382478
 30
0.0
 40
4.583525
 50
278.449654
 51
343.577552
  0
LINE
  8
0
  6
HIDDEN
  5
18F2
 10
1.324577
 20
-7.505085
 30
0.0
 11
1.430543
 21
-6.173491
 31
0.0
  0
ARC
  8
0
  6
HIDDEN
  5
18F3
 10
1.720648
 20
-6.196577
 30
0.0
 40
0.291021
 50
105.581694
 51
175.45008
  0
ARC
  8
0
  6
HIDDEN
  5
18F5
 10
-5.2013
 20
0.545307
 30
0.0
 40
11.047584
 50
343.034565
 51
357.170742
  0
LINE
  8
0
  5
18EC
 10
6.333927
 20
0.64527
 30
0.0
 11
6.597329
 21
0.423689
 31
0.0
  0
ARC
  8
0
  5
18EB
 10
5.940338
 20
-0.033023
 30
0.0
 40
0.784215
 50
59.874958
 51
90.0
  0
ARC
  8
0
  5
18E4
 10
6.815686
 20
0.271282
 30
0.0
 40
0.154889
 50
6.01147
 51
100.271474
  0
LINE
  8
0
  5
18E3
 10
7.0
 20
0.0
 30
0.0
 11
6.969724
 21
0.287503
 31
0.0
  0
ATTDEF
  8
0
  5
192A
 10
0.0
 20
0.0
 30
0.0
 40
0.001
  1
K-2292
  3

  2
MODELNUMBER
 70
     8
  0
ATTDEF
  8
0
  5
192B
 10
0.0
 20
-0.0017
 30
0.0
 40
0.001
  1
INTAGLIO
  3

  2
TRADENAME
 70
     8
  0
ATTDEF
  8
0
  5
192C
 10
0.0
 20
-0.0034
 30
0.0
 40
0.001
  1
LAVATORY
  3

  2
PRODUCT
 70
     8
  0
ATTDEF
  8
0
  5
192D
 10
0.0
 20
-0.0051
 30
0.0
 40
0.001
  1
VITREOUS CHINA
  3

  2
MATERIAL
 70
     8
  0
ENDSEC
  0
EOF
