  0
SECTION
  2
HEADER
  9
$ACADVER
  1
AC1009
  9
$INSBASE
 10
0.0
 20
0.0
 30
0.0
  9
$EXTMIN
 10
1.0000000000000000E+020
 20
1.0000000000000000E+020
 30
1.0000000000000000E+020
  9
$EXTMAX
 10
-1.0000000000000000E+020
 20
-1.0000000000000000E+020
 30
-1.0000000000000000E+020
  9
$LIMMIN
 10
0.0
 20
0.0
  9
$LIMMAX
 10
12.0
 20
9.0
  9
$ORTHOMODE
 70
     0
  9
$REGENMODE
 70
     1
  9
$FILLMODE
 70
     1
  9
$QTEXTMODE
 70
     0
  9
$MIRRTEXT
 70
     1
  9
$DRAGMODE
 70
     2
  9
$LTSCALE
 40
1.0
  9
$OSMODE
 70
     0
  9
$ATTMODE
 70
     1
  9
$TEXTSIZE
 40
0.2
  9
$TRACEWID
 40
0.05
  9
$TEXTSTYLE
  7
STANDARD
  9
$CLAYER
  8
0
  9
$CELTYPE
  6
BYLAYER
  9
$CECOLOR
 62
   256
  9
$DIMSCALE
 40
1.0
  9
$DIMASZ
 40
0.18
  9
$DIMEXO
 40
0.0625
  9
$DIMDLI
 40
0.38
  9
$DIMRND
 40
0.0
  9
$DIMDLE
 40
0.0
  9
$DIMEXE
 40
0.18
  9
$DIMTP
 40
0.0
  9
$DIMTM
 40
0.0
  9
$DIMTXT
 40
0.18
  9
$DIMCEN
 40
0.09
  9
$DIMTSZ
 40
0.0
  9
$DIMTOL
 70
     0
  9
$DIMLIM
 70
     0
  9
$DIMTIH
 70
     1
  9
$DIMTOH
 70
     1
  9
$DIMSE1
 70
     0
  9
$DIMSE2
 70
     0
  9
$DIMTAD
 70
     0
  9
$DIMZIN
 70
     0
  9
$DIMBLK
  1

  9
$DIMASO
 70
     1
  9
$DIMSHO
 70
     1
  9
$DIMPOST
  1

  9
$DIMAPOST
  1

  9
$DIMALT
 70
     0
  9
$DIMALTD
 70
     2
  9
$DIMALTF
 40
25.399999999999999
  9
$DIMLFAC
 40
1.0
  9
$DIMTOFL
 70
     0
  9
$DIMTVP
 40
0.0
  9
$DIMTIX
 70
     0
  9
$DIMSOXD
 70
     0
  9
$DIMSAH
 70
     0
  9
$DIMBLK1
  1

  9
$DIMBLK2
  1

  9
$DIMSTYLE
  2
STANDARD
  9
$DIMCLRD
 70
     0
  9
$DIMCLRE
 70
     0
  9
$DIMCLRT
 70
     0
  9
$DIMTFAC
 40
1.0
  9
$DIMGAP
 40
0.09
  9
$LUNITS
 70
     2
  9
$LUPREC
 70
     4
  9
$SKETCHINC
 40
0.1
  9
$FILLETRAD
 40
0.5
  9
$AUNITS
 70
     0
  9
$AUPREC
 70
     0
  9
$MENU
  1
.
  9
$ELEVATION
 40
0.0
  9
$PELEVATION
 40
0.0
  9
$THICKNESS
 40
0.0
  9
$LIMCHECK
 70
     0
  9
$BLIPMODE
 70
     0
  9
$CHAMFERA
 40
0.5
  9
$CHAMFERB
 40
0.5
  9
$SKPOLY
 70
     0
  9
$TDCREATE
 40
2451380.5970990621
  9
$TDUPDATE
 40
2451380.632847222
  9
$TDINDWG
 40
0.0075611227
  9
$TDUSRTIMER
 40
0.0075520833
  9
$USRTIMER
 70
     1
  9
$ANGBASE
 50
0.0
  9
$ANGDIR
 70
     0
  9
$PDMODE
 70
     0
  9
$PDSIZE
 40
0.0
  9
$PLINEWID
 40
0.0
  9
$COORDS
 70
     0
  9
$SPLFRAME
 70
     0
  9
$SPLINETYPE
 70
     6
  9
$SPLINESEGS
 70
     8
  9
$ATTDIA
 70
     0
  9
$ATTREQ
 70
     1
  9
$HANDLING
 70
     1
  9
$HANDSEED
  5
3DC
  9
$SURFTAB1
 70
     6
  9
$SURFTAB2
 70
     6
  9
$SURFTYPE
 70
     6
  9
$SURFU
 70
     6
  9
$SURFV
 70
     6
  9
$UCSNAME
  2

  9
$UCSORG
 10
0.0
 20
0.0
 30
0.0
  9
$UCSXDIR
 10
1.0
 20
0.0
 30
0.0
  9
$UCSYDIR
 10
0.0
 20
1.0
 30
0.0
  9
$PUCSNAME
  2

  9
$PUCSORG
 10
0.0
 20
0.0
 30
0.0
  9
$PUCSXDIR
 10
1.0
 20
0.0
 30
0.0
  9
$PUCSYDIR
 10
0.0
 20
1.0
 30
0.0
  9
$USERI1
 70
     0
  9
$USERI2
 70
     0
  9
$USERI3
 70
     0
  9
$USERI4
 70
     0
  9
$USERI5
 70
     0
  9
$USERR1
 40
0.0
  9
$USERR2
 40
0.0
  9
$USERR3
 40
0.0
  9
$USERR4
 40
0.0
  9
$USERR5
 40
0.0
  9
$WORLDVIEW
 70
     1
  9
$SHADEDGE
 70
     3
  9
$SHADEDIF
 70
    70
  9
$TILEMODE
 70
     1
  9
$MAXACTVP
 70
    64
  9
$PLIMCHECK
 70
     0
  9
$PEXTMIN
 10
1.0000000000000000E+020
 20
1.0000000000000000E+020
 30
1.0000000000000000E+020
  9
$PEXTMAX
 10
-1.0000000000000000E+020
 20
-1.0000000000000000E+020
 30
-1.0000000000000000E+020
  9
$PLIMMIN
 10
0.0
 20
0.0
  9
$PLIMMAX
 10
12.0
 20
9.0
  9
$UNITMODE
 70
     0
  9
$VISRETAIN
 70
     1
  9
$PLINEGEN
 70
     0
  9
$PSLTSCALE
 70
     1
  0
ENDSEC
  0
SECTION
  2
TABLES
  0
TABLE
  2
VPORT
 70
     1
  0
VPORT
  2
*ACTIVE
 70
     0
 10
0.0
 20
0.0
 11
1.0
 21
1.0
 12
-3.2158005237579341
 22
-3.0492074489593501
 13
0.0
 23
0.0
 14
0.5
 24
0.5
 15
0.5
 25
0.5
 16
-1.0
 26
-1.0
 36
1.0
 17
0.0
 27
0.0
 37
0.0
 40
16.34359158297347
 41
1.5285742670267251
 42
50.0
 43
0.0
 44
0.0
 50
0.0
 51
0.0
 71
     0
 72
   100
 73
     1
 74
     3
 75
     0
 76
     0
 77
     0
 78
     0
  0
ENDTAB
  0
TABLE
  2
LTYPE
 70
     1
  0
LTYPE
  2
CONTINUOUS
 70
     0
  3
Solid line
 72
    65
 73
     0
 40
0.0
  0
ENDTAB
  0
TABLE
  2
LAYER
 70
     2
  0
LAYER
  2
0
 70
     0
 62
   151
  6
CONTINUOUS
  0
LAYER
  2
ASHADE
 70
     4
 62
     7
  6
CONTINUOUS
  0
ENDTAB
  0
TABLE
  2
STYLE
 70
     2
  0
STYLE
  2
STANDARD
 70
     0
 40
0.0
 41
1.0
 50
0.0
 71
     0
 42
0.2
  3
txt
  4

  0
STYLE
  2
ASHADE
 70
     0
 40
0.2
 41
1.0
 50
0.0
 71
     0
 42
0.2
  3
simplex
  4

  0
ENDTAB
  0
TABLE
  2
VIEW
 70
     0
  0
ENDTAB
  0
TABLE
  2
UCS
 70
     0
  0
ENDTAB
  0
TABLE
  2
APPID
 70
     6
  0
APPID
  2
ACAD
 70
     0
  0
APPID
  2
AVE_RENDER
 70
     0
  0
APPID
  2
AVE_ENTITY_MATERIAL
 70
     0
  0
APPID
  2
AVE_FINISH
 70
     0
  0
APPID
  2
AVE_MATERIAL
 70
     0
  0
APPID
  2
AVE_GLOBAL
 70
     0
  0
ENDTAB
  0
TABLE
  2
DIMSTYLE
 70
     1
  0
DIMSTYLE
  2
STANDARD
 70
     0
  3

  4

  5

  6

  7

 40
1.0
 41
0.18
 42
0.0625
 43
0.38
 44
0.18
 45
0.0
 46
0.0
 47
0.0
 48
0.0
140
0.18
141
0.09
142
0.0
143
25.399999999999999
144
1.0
145
0.0
146
1.0
147
0.09
 71
     0
 72
     0
 73
     1
 74
     1
 75
     0
 76
     0
 77
     0
 78
     0
170
     0
171
     2
172
     0
173
     0
174
     0
175
     0
176
     0
177
     0
178
     0
  0
ENDTAB
  0
ENDSEC
  0
SECTION
  2
BLOCKS
  0
BLOCK
  8
0
  2
$MODEL_SPACE
 70
     0
 10
0.0
 20
0.0
 30
0.0
  3
$MODEL_SPACE
  1

  0
ENDBLK
  5
21
  8
0
  0
BLOCK
 67
     1
  8
0
  2
$PAPER_SPACE
 70
     0
 10
0.0
 20
0.0
 30
0.0
  3
$PAPER_SPACE
  1

  0
ENDBLK
  5
1D
 67
     1
  8
0
  0
BLOCK
  8
0
  2
DIRECT
 70
     2
 10
0.0
 20
0.0
 30
0.0
  3
DIRECT
  1

  0
ATTDEF
  5
2F
  8
ASHADE
  6
CONTINUOUS
 62
     1
 10
0.0
 20
-0.1
 30
0.0
 40
0.2
  1

  7
ASHADE
 72
     1
 11
0.0
 21
-0.1
 31
0.0
  3
Light Name
  2
SNAME
 70
     0
  0
ARC
  5
30
  8
ASHADE
  6
CONTINUOUS
 62
     7
 10
0.0
 20
0.0
 30
0.0
 40
0.3
 50
205.67928861945691
 51
334.32071138054312
  0
ARC
  5
31
  8
ASHADE
  6
CONTINUOUS
 62
     7
 10
0.0
 20
0.0
 30
0.0
 40
0.3
 50
25.679288619456852
 51
154.32071138054309
  0
LINE
  5
32
  8
ASHADE
  6
CONTINUOUS
 62
     7
 10
-0.21
 20
0.2142428528562855
 30
0.0
 11
-0.21
 21
0.5
 31
0.0
  0
LINE
  5
33
  8
ASHADE
  6
CONTINUOUS
 62
     7
 10
-0.11
 20
0.2791057147390572
 30
0.0
 11
-0.11
 21
0.5
 31
0.0
  0
LINE
  5
34
  8
ASHADE
  6
CONTINUOUS
 62
     7
 10
0.21
 20
0.2142428528562855
 30
0.0
 11
0.21
 21
0.5
 31
0.0
  0
ATTDEF
  5
35
  8
ASHADE
  6
CONTINUOUS
 62
     7
 10
0.0
 20
0.25
 30
0.0
 40
0.01
  1

  3
Look-at Y
  2
LAY
 70
     1
  0
ATTDEF
  5
36
  8
ASHADE
  6
CONTINUOUS
 62
     7
 10
0.0
 20
0.22
 30
0.0
 40
0.01
  1
1
  3
Light Intensity
  2
INTENSITY
 70
     1
  0
ATTDEF
  5
37
  8
ASHADE
  6
CONTINUOUS
 62
     7
 10
0.0
 20
0.16
 30
0.0
 40
0.01
  1
-1
  3
*not used*
  2
BEAMD
 70
     1
  0
ATTDEF
  5
38
  8
ASHADE
  6
CONTINUOUS
 62
     7
 10
0.0
 20
0.175
 30
0.0
 40
0.01
  1
-1
  3
*not used*
  2
CONED
 70
     1
  0
ATTDEF
  5
39
  8
ASHADE
  6
CONTINUOUS
 62
     7
 10
0.0
 20
0.19
 30
0.0
 40
0.01
  1
0
  3
Depth Map Size
  2
CONEA
 70
     1
  0
ATTDEF
  5
3A
  8
ASHADE
  6
CONTINUOUS
 62
     7
 10
0.0
 20
0.2050000000000001
 30
0.0
 40
0.01
  1
1,1,1
  3
Light Color (RGB)
  2
COLOR
 70
     1
  0
ATTDEF
  5
3B
  8
ASHADE
  6
CONTINUOUS
 62
     7
 10
0.0
 20
0.235
 30
0.0
 40
0.01
  1

  3
Look-at Z
  2
LAZ
 70
     1
  0
LINE
  5
3C
  8
ASHADE
  6
CONTINUOUS
 62
     7
 10
0.0
 20
0.3
 30
0.0
 11
0.0
 21
0.5
 31
0.0
  0
LINE
  5
3D
  8
ASHADE
  6
CONTINUOUS
 62
     7
 10
0.11
 20
0.2791057147390572
 30
0.0
 11
0.11
 21
0.5
 31
0.0
  0
ATTDEF
  5
3E
  8
ASHADE
  6
CONTINUOUS
 62
     7
 10
0.0
 20
0.265
 30
0.0
 40
0.01
  1

  3
Look-at X
  2
LAX
 70
     1
  0
ATTDEF
  5
3F
  8
ASHADE
  6
CONTINUOUS
 62
     7
 10
0.0
 20
0.28
 30
0.0
 40
0.01
  1

  3

  2
GNAME
 70
     1
  0
ENDBLK
  5
41
  8
0
  0
BLOCK
  8
0
  2
OVERHEAD
 70
     2
 10
0.0
 20
0.0
 30
0.0
  3
OVERHEAD
  1

  0
ATTDEF
  5
43
  8
ASHADE
  6
CONTINUOUS
 62
     1
 10
0.0
 20
-0.1
 30
0.0
 40
0.2
  1

  7
ASHADE
 72
     1
 11
0.0
 21
-0.1
 31
0.0
  3
Light Name
  2
SNAME
 70
     0
  0
ARC
  5
44
  8
ASHADE
  6
CONTINUOUS
 62
     7
 10
0.0
 20
0.0
 30
0.0
 40
0.3
 50
205.67928861945691
 51
334.32071138054312
  0
LINE
  5
45
  8
ASHADE
  6
CONTINUOUS
 62
     7
 10
-0.2041413561583015
 20
-0.2198324514393848
 30
0.0
 11
-0.2721884748777353
 21
-0.2931099352525131
 31
0.0
  0
LINE
  5
46
  8
ASHADE
  6
CONTINUOUS
 62
     7
 10
-0.1096591641591904
 20
-0.2792398032442862
 30
0.0
 11
-0.1279356915190555
 21
-0.3257797704516673
 31
0.0
  0
LINE
  5
47
  8
ASHADE
  6
CONTINUOUS
 62
     7
 10
0.0
 20
-0.2999999999999999
 30
0.0
 11
0.0
 21
-0.4
 31
0.0
  0
LINE
  5
48
  8
ASHADE
  6
CONTINUOUS
 62
     7
 10
0.1096591641591904
 20
-0.2792398032442862
 30
0.0
 11
0.1279356915190555
 21
-0.3257797704516673
 31
0.0
  0
LINE
  5
49
  8
ASHADE
  6
CONTINUOUS
 62
     7
 10
0.2041413561583015
 20
-0.2198324514393848
 30
0.0
 11
0.2721884748777353
 21
-0.2931099352525131
 31
0.0
  0
ARC
  5
4A
  8
ASHADE
  6
CONTINUOUS
 62
     7
 10
0.0
 20
0.0
 30
0.0
 40
0.3
 50
25.679288619456852
 51
154.32071138054309
  0
LINE
  5
4B
  8
ASHADE
  6
CONTINUOUS
 62
     7
 10
-0.2703701166919155
 20
0.13
 30
0.0
 11
-0.3154318028072347
 21
0.1516666666666666
 31
0.0
  0
LINE
  5
4C
  8
ASHADE
  6
CONTINUOUS
 62
     7
 10
-0.2703701166919155
 20
-0.13
 30
0.0
 11
-0.3154318028072347
 21
-0.1516666666666666
 31
0.0
  0
LINE
  5
4D
  8
ASHADE
  6
CONTINUOUS
 62
     7
 10
-0.2041413561583015
 20
0.2198324514393849
 30
0.0
 11
-0.2721884748777353
 21
0.2931099352525131
 31
0.0
  0
LINE
  5
4E
  8
ASHADE
  6
CONTINUOUS
 62
     7
 10
-0.1096591641591904
 20
0.2792398032442862
 30
0.0
 11
-0.1279356915190555
 21
0.3257797704516674
 31
0.0
  0
LINE
  5
4F
  8
ASHADE
  6
CONTINUOUS
 62
     7
 10
0.2703701166919155
 20
-0.13
 30
0.0
 11
0.3154318028072347
 21
-0.1516666666666666
 31
0.0
  0
LINE
  5
50
  8
ASHADE
  6
CONTINUOUS
 62
     7
 10
0.2703701166919155
 20
0.13
 30
0.0
 11
0.3154318028072347
 21
0.1516666666666666
 31
0.0
  0
LINE
  5
51
  8
ASHADE
  6
CONTINUOUS
 62
     7
 10
0.0
 20
0.3
 30
0.0
 11
0.0
 21
0.4
 31
0.0
  0
ATTDEF
  5
52
  8
ASHADE
  6
CONTINUOUS
 62
     7
 10
0.0
 20
0.22
 30
0.0
 40
0.01
  1
1
  3
Light Intensity
  2
INTENSITY
 70
     1
  0
ATTDEF
  5
53
  8
ASHADE
  6
CONTINUOUS
 62
     7
 10
0.0
 20
0.16
 30
0.0
 40
0.01
  1
-1
  3
*not used*
  2
BEAMD
 70
     1
  0
ATTDEF
  5
54
  8
ASHADE
  6
CONTINUOUS
 62
     7
 10
0.0
 20
0.175
 30
0.0
 40
0.01
  1
-1
  3
*not used*
  2
CONED
 70
     1
  0
ATTDEF
  5
55
  8
ASHADE
  6
CONTINUOUS
 62
     7
 10
0.0
 20
0.19
 30
0.0
 40
0.01
  1
0
  3
Depth Map Size
  2
CONEA
 70
     1
  0
ATTDEF
  5
56
  8
ASHADE
  6
CONTINUOUS
 62
     7
 10
0.0
 20
0.2050000000000001
 30
0.0
 40
0.01
  1
1,1,1
  3
Light Color (RGB)
  2
COLOR
 70
     1
  0
ATTDEF
  5
57
  8
ASHADE
  6
CONTINUOUS
 62
     7
 10
0.0
 20
0.235
 30
0.0
 40
0.01
  1

  3
Look-at Z
  2
LAZ
 70
     1
  0
ATTDEF
  5
58
  8
ASHADE
  6
CONTINUOUS
 62
     7
 10
0.0
 20
0.25
 30
0.0
 40
0.01
  1

  3
Look-at Y
  2
LAY
 70
     1
  0
ATTDEF
  5
59
  8
ASHADE
  6
CONTINUOUS
 62
     7
 10
0.0
 20
0.265
 30
0.0
 40
0.01
  1

  3
Look-at X
  2
LAX
 70
     1
  0
ATTDEF
  5
5A
  8
ASHADE
  6
CONTINUOUS
 62
     7
 10
0.0
 20
0.28
 30
0.0
 40
0.01
  1

  3

  2
GNAME
 70
     1
  0
LINE
  5
5B
  8
ASHADE
  6
CONTINUOUS
 62
     7
 10
0.1096591641591904
 20
0.2792398032442862
 30
0.0
 11
0.1279356915190555
 21
0.3257797704516674
 31
0.0
  0
LINE
  5
5C
  8
ASHADE
  6
CONTINUOUS
 62
     7
 10
0.2041413561583015
 20
0.2198324514393849
 30
0.0
 11
0.2721884748777353
 21
0.2931099352525131
 31
0.0
  0
ENDBLK
  5
5E
  8
0
  0
BLOCK
  8
0
  2
SH_SPOT
 70
     2
 10
0.0
 20
0.0
 30
0.0
  3
SH_SPOT
  1

  0
LINE
  5
60
  8
ASHADE
  6
CONTINUOUS
 62
     7
 10
0.25
 20
0.26
 30
0.0
 11
-0.25
 21
0.26
 31
0.0
  0
LINE
  5
61
  8
ASHADE
  6
CONTINUOUS
 62
     7
 10
-0.25
 20
-0.3399999999999999
 30
0.0
 11
0.25
 21
-0.3399999999999999
 31
0.0
  0
ATTDEF
  5
62
  8
ASHADE
  6
CONTINUOUS
 62
     1
 10
0.0
 20
-0.1
 30
0.0
 40
0.2
  1

  7
ASHADE
 72
     1
 11
0.0
 21
-0.1
 31
0.0
  3
Light Name
  2
SNAME
 70
     0
  0
LINE
  5
63
  8
ASHADE
  6
CONTINUOUS
 62
     7
 10
-0.25
 20
-0.13
 30
0.0
 11
-0.25
 21
-0.3399999999999999
 31
0.0
  0
LINE
  5
64
  8
ASHADE
  6
CONTINUOUS
 62
     7
 10
-0.25
 20
-0.18
 30
0.0
 11
-0.29
 21
-0.18
 31
0.0
  0
LINE
  5
65
  8
ASHADE
  6
CONTINUOUS
 62
     7
 10
-0.29
 20
-0.22
 30
0.0
 11
-0.25
 21
-0.22
 31
0.0
  0
LINE
  5
66
  8
ASHADE
  6
CONTINUOUS
 62
     7
 10
-0.29
 20
-0.18
 30
0.0
 11
-0.29
 21
-0.22
 31
0.0
  0
LINE
  5
67
  8
ASHADE
  6
CONTINUOUS
 62
     7
 10
-0.1045454545454545
 20
0.26
 30
0.0
 11
-0.15
 21
0.46
 31
0.0
  0
LINE
  5
68
  8
ASHADE
  6
CONTINUOUS
 62
     7
 10
-0.21
 20
0.26
 30
0.0
 11
-0.301304347826087
 21
0.46
 31
0.0
  0
LINE
  5
69
  8
ASHADE
  6
CONTINUOUS
 62
     7
 10
-0.25
 20
0.26
 30
0.0
 11
-0.25
 21
0.13
 31
0.0
  0
LINE
  5
6A
  8
ASHADE
  6
CONTINUOUS
 62
     7
 10
-0.25
 20
0.22
 30
0.0
 11
-0.29
 21
0.22
 31
0.0
  0
LINE
  5
6B
  8
ASHADE
  6
CONTINUOUS
 62
     7
 10
-0.29
 20
0.1799999999999999
 30
0.0
 11
-0.25
 21
0.1799999999999999
 31
0.0
  0
LINE
  5
6C
  8
ASHADE
  6
CONTINUOUS
 62
     7
 10
-0.29
 20
0.22
 30
0.0
 11
-0.29
 21
0.1799999999999999
 31
0.0
  0
ATTDEF
  5
6D
  8
ASHADE
  6
CONTINUOUS
 62
     7
 10
0.0
 20
-0.24
 30
0.0
 40
0.01
  1
0
  3
Depth Map Size
  2
ZSIZE
 70
     1
  0
ATTDEF
  5
6E
  8
ASHADE
  6
CONTINUOUS
 62
     7
 10
0.0
 20
-0.3300000000000001
 30
0.0
 40
0.01
  1
0,0,0
  3
Look-from XYZ
  2
LFXYZ
 70
     1
  0
ATTDEF
  5
6F
  8
ASHADE
  6
CONTINUOUS
 62
     7
 10
0.0
 20
-0.315
 30
0.0
 40
0.01
  1
0.0
  3
Beam Distribution
  2
BEAMDI
 70
     1
  0
ATTDEF
  5
70
  8
ASHADE
  6
CONTINUOUS
 62
     7
 10
0.0
 20
-0.3
 30
0.0
 40
0.01
  1
0.0
  3
Cone Delta
  2
CONEDE
 70
     1
  0
ATTDEF
  5
71
  8
ASHADE
  6
CONTINUOUS
 62
     7
 10
0.0
 20
-0.2850000000000001
 30
0.0
 40
0.01
  1
10.0
  3
Cone Angle
  2
CONEAN
 70
     1
  0
ATTDEF
  5
72
  8
ASHADE
  6
CONTINUOUS
 62
     7
 10
0.0
 20
-0.27
 30
0.0
 40
0.01
  1
-1
  3
*not used*
  2
BIASMAX
 70
     1
  0
ATTDEF
  5
73
  8
ASHADE
  6
CONTINUOUS
 62
     7
 10
0.0
 20
-0.255
 30
0.0
 40
0.01
  1
-1
  3
*not used*
  2
BIASMIN
 70
     1
  0
ATTDEF
  5
74
  8
ASHADE
  6
CONTINUOUS
 62
     7
 10
0.0
 20
-0.225
 30
0.0
 40
0.01
  1
1,1,1
  3
Light Color (RGB)
  2
COLOR
 70
     1
  0
ATTDEF
  5
75
  8
ASHADE
  6
CONTINUOUS
 62
     7
 10
0.0
 20
-0.21
 30
0.0
 40
0.01
  1
1
  3
Light Intensity
  2
INTENSITY
 70
     1
  0
ATTDEF
  5
76
  8
ASHADE
  6
CONTINUOUS
 62
     7
 10
0.0
 20
-0.15
 30
0.0
 40
0.01
  1

  3

  2
GNAME
 70
     1
  0
ATTDEF
  5
77
  8
ASHADE
  6
CONTINUOUS
 62
     7
 10
0.0
 20
-0.195
 30
0.0
 40
0.01
  1

  3
Look-at Z
  2
LAZ
 70
     1
  0
ATTDEF
  5
78
  8
ASHADE
  6
CONTINUOUS
 62
     7
 10
0.0
 20
-0.18
 30
0.0
 40
0.01
  1

  3
Look-at Y
  2
LAY
 70
     1
  0
ATTDEF
  5
79
  8
ASHADE
  6
CONTINUOUS
 62
     7
 10
0.0
 20
-0.165
 30
0.0
 40
0.01
  1

  3
Look-at X
  2
LAX
 70
     1
  0
LINE
  5
7A
  8
ASHADE
  6
CONTINUOUS
 62
     7
 10
0.25
 20
-0.3399999999999999
 30
0.0
 11
0.25
 21
-0.13
 31
0.0
  0
LINE
  5
7B
  8
ASHADE
  6
CONTINUOUS
 62
     7
 10
0.25
 20
-0.18
 30
0.0
 11
0.29
 21
-0.18
 31
0.0
  0
LINE
  5
7C
  8
ASHADE
  6
CONTINUOUS
 62
     7
 10
0.29
 20
-0.22
 30
0.0
 11
0.25
 21
-0.22
 31
0.0
  0
LINE
  5
7D
  8
ASHADE
  6
CONTINUOUS
 62
     7
 10
0.29
 20
-0.18
 30
0.0
 11
0.29
 21
-0.22
 31
0.0
  0
LINE
  5
7E
  8
ASHADE
  6
CONTINUOUS
 62
     7
 10
0.21
 20
0.26
 30
0.0
 11
0.301304347826087
 21
0.46
 31
0.0
  0
LINE
  5
7F
  8
ASHADE
  6
CONTINUOUS
 62
     7
 10
0.1045454545454545
 20
0.26
 30
0.0
 11
0.15
 21
0.46
 31
0.0
  0
LINE
  5
80
  8
ASHADE
  6
CONTINUOUS
 62
     7
 10
0.0
 20
0.26
 30
0.0
 11
0.0
 21
0.46
 31
0.0
  0
LINE
  5
81
  8
ASHADE
  6
CONTINUOUS
 62
     7
 10
0.25
 20
0.13
 30
0.0
 11
0.25
 21
0.26
 31
0.0
  0
LINE
  5
82
  8
ASHADE
  6
CONTINUOUS
 62
     7
 10
0.25
 20
0.22
 30
0.0
 11
0.29
 21
0.22
 31
0.0
  0
LINE
  5
83
  8
ASHADE
  6
CONTINUOUS
 62
     7
 10
0.29
 20
0.1799999999999999
 30
0.0
 11
0.25
 21
0.1799999999999999
 31
0.0
  0
LINE
  5
84
  8
ASHADE
  6
CONTINUOUS
 62
     7
 10
0.29
 20
0.22
 30
0.0
 11
0.29
 21
0.1799999999999999
 31
0.0
  0
ENDBLK
  5
86
  8
0
  0
BLOCK
  8
ASHADE
  2
AVE_RENDER
 70
     0
 10
0.0
 20
0.0
 30
0.0
  3
AVE_RENDER
  1
AVE_RENDER
  0
ENDBLK
  5
93
  8
0
  0
BLOCK
  8
ASHADE
  2
AVE_GLOBAL
 70
     0
 10
0.0
 20
0.0
 30
0.0
  3
AVE_GLOBAL
  1
AVE_GLOBAL
  0
ENDBLK
  5
A1
  8
0
  0
ENDSEC
  0
SECTION
  2
ENTITIES
  0
INSERT
  5
94
  8
ASHADE
 62
     1
  2
AVE_RENDER
 10
0.0
 20
0.0
 30
0.0
1001
AVE_RENDER
1002
{
1070
     7
1000
Pref
1070
    30
1070
    20
1070
     1
1070
     0
1000

1070
    10
1070
     1
1070
    10
1040
1.0
1070
     1
1040
0.3
1040
0.7
1040
0.0
1040
10.0
1010
-1.0
1020
-1.0
1030
-1.0
1040
0.3
1070
    49
1070
     0
1070
     0
1010
1.0
1020
1.0
1030
1.0
1040
45.0
1070
     1
1070
     0
1000
WCS
1040
0.0
1070
     0
1040
10.0
1002
}
  0
INSERT
  5
95
  8
ASHADE
 62
     3
  2
AVE_RENDER
 10
0.0
 20
0.0
 30
0.0
1001
AVE_RENDER
1002
{
1070
     0
1000
Full Opt
1070
     0
1070
     1
1070
     1
1070
     1
1070
     0
1070
     0
1070
     0
1070
     1
1070
     1
1040
0.0001
1040
0.0001
1002
}
  0
INSERT
  5
96
  8
ASHADE
 62
     4
  2
AVE_RENDER
 10
0.0
 20
0.0
 30
0.0
1001
AVE_RENDER
1002
{
1070
     0
1000
Quick Opt
1070
     0
1070
     1
1070
     1
1070
     1
1070
     0
1070
     0
1070
     1
1002
}
  0
INSERT
  5
97
  8
ASHADE
 62
     5
  2
AVE_RENDER
 10
0.0
 20
0.0
 30
0.0
1001
AVE_RENDER
1002
{
1070
     1
1000
Scanl Opt
1070
     2
1070
     0
1070
     2
1040
2.0
1040
4.0
1070
     0
1070
     1
1070
     0
1040
0.03
1002
}
  0
INSERT
  5
98
  8
ASHADE
 62
     6
  2
AVE_RENDER
 10
0.0
 20
0.0
 30
0.0
1001
AVE_RENDER
1002
{
1070
     2
1000
Raytr Opt
1070
     2
1070
     0
1070
     2
1040
2.0
1040
4.0
1070
     0
1070
     1
1070
     1
1040
0.03
1070
     3
1040
0.03
1002
}
  0
INSERT
  5
99
  8
ASHADE
 62
     7
  2
AVE_RENDER
 10
0.0
 20
0.0
 30
0.0
1001
AVE_RENDER
1002
{
1070
     0
1000
RFile Opt
1070
     1
1070
   640
1070
   480
1070
 10000
1070
     1
1070
     8
1070
     8
1070
     0
1070
     0
1070
     0
1070
     0
1070
     0
1070
     0
1070
     0
1002
}
  0
INSERT
  5
9A
  8
ASHADE
 62
     8
  2
AVE_RENDER
 10
0.0
 20
0.0
 30
0.0
1001
AVE_RENDER
1002
{
1070
     0
1000
Fog Opt
1070
     0
1070
     0
1040
0.0
1040
1.0
1040
0.0
1040
1.0
1010
0.5
1020
0.5
1030
0.5
1002
}
  0
INSERT
  5
9B
  8
ASHADE
 62
     9
  2
AVE_RENDER
 10
0.0
 20
0.0
 30
0.0
1001
AVE_RENDER
1002
{
1070
     0
1000
BG Opt
1070
     0
1070
     1
1010
0.0
1020
0.0
1030
0.0
1010
1.0
1020
0.0
1030
0.0
1010
0.0
1020
1.0
1030
0.0
1010
0.0
1020
0.0
1030
1.0
1040
0.5
1040
0.33
1040
0.0
1000

1070
     1
1000

1070
     1
1070
     1
1040
1.0
1040
1.0
1040
0.0
1040
0.0
1070
     0
1002
}
  0
INSERT
  5
A2
  8
ASHADE
 62
     1
  2
AVE_GLOBAL
 10
0.0
 20
0.0
 30
0.0
1001
AVE_MATERIAL
1002
{
1000
*GLOBAL*
1000
2
1000
Global finish.
1002
{
1002
}
1002
{
1070
    63
1002
{
1002
{
1010
-1.0
1020
-1.0
1030
-1.0
1002
}
1040
0.1000000014901161
1000

1040
0.0
1002
{
1002
}
1040
0.0
1002
{
1002
}
1040
0.0
1002
}
1002
{
1002
{
1010
-1.0
1020
-1.0
1030
-1.0
1002
}
1040
0.699999988079071
1000

1040
0.0
1002
{
1002
}
1040
0.0
1002
{
1002
}
1040
0.0
1002
}
1002
{
1002
{
1010
-1.0
1020
-1.0
1030
-1.0
1002
}
1040
0.2000000029802322
1000

1040
0.0
1002
{
1002
}
1040
0.0
1002
{
1002
}
1040
0.0
1002
}
1002
{
1070
     0
1002
{
1070
     1
1002
{
1040
1.0
1040
1.0
1000

1040
0.0
1002
{
1002
}
1040
0.0
1002
{
1002
}
1040
0.0
1002
}
1002
}
1040
1.0
1040
0.0
1040
0.0
1002
}
1002
{
1040
1.0
1040
1.0
1000

1040
0.0
1002
{
1002
}
1040
0.0
1002
{
1002
}
1040
0.0
1002
}
1002
{
1040
0.5
1040
1.0
1000

1040
0.0
1002
{
1002
}
1040
0.0
1002
{
1002
}
1040
0.0
1002
}
1002
{
1070
     0
1040
0.0
1002
{
1002
}
1040
1.0
1002
{
1002
}
1040
0.0
1002
}
1002
{
1040
0.0
1002
{
1002
{
1010
0.0
1020
0.0
1030
0.0
1002
}
1040
1.0
1000

1040
0.0
1002
{
1002
}
1040
0.0
1002
{
1002
}
1040
0.0
1002
}
1002
}
1002
{
1002
{
1070
     1
1002
{
1040
0.0
1040
1.0
1000

1040
0.0
1002
{
1002
}
1040
0.0
1002
{
1002
}
1040
0.0
1002
}
1002
}
1040
0.0
1002
{
1002
}
1010
1.0
1020
0.0
1030
0.0
1010
0.0
1020
1.0
1030
0.0
1010
0.0
1020
0.0
1030
1.0
1070
     0
1002
}
1002
{
1002
{
1040
1.0
1040
1.0
1002
{
1070
     1
1002
{
1040
1.0
1040
1.0
1000

1040
0.0
1002
{
1002
}
1040
0.0
1002
{
1002
}
1040
0.0
1002
}
1002
}
1002
}
1070
     0
1040
0.0
1002
{
1002
}
1002
}
1002
{
1002
}
1002
}
1002
{
1071
        3
1070
     3
1070
     0
1002
{
1070
     2
1070
     0
1070
     0
1040
0.0
1002
}
1070
     0
1070
     2
1002
{
1002
}
1002
}
1002
{
1040
8030.0
1040
190.30000305175781
1040
0.3050000071525574
1040
228.0
1040
545.0
1040
14.0
1040
17.39999961853027
1040
0.4560000002384186
1002
}
1002
}
  0
POLYLINE
  5
AE
  8
0
 62
   213
 66
     1
 10
0.0
 20
0.0
 30
0.0
 70
    64
 71
   276
 72
   520
  0
VERTEX
  5
AF
  8
0
 62
   213
 10
-17.057302474975579
 20
0.0000000007428639
 30
-0.0169947445392609
 70
   192
  0
VERTEX
  5
B0
  8
0
 62
   213
 10
-17.182451248168942
 20
0.000000000742864
 30
0.4500643014907837
 70
   192
  0
VERTEX
  5
B1
  8
0
 62
   213
 10
-17.524362564086911
 20
0.0000000007428635
 30
0.7919752597808838
 70
   192
  0
VERTEX
  5
B2
  8
0
 62
   213
 10
-17.991420745849609
 20
0.0000000007428614
 30
0.9171233177185058
 70
   192
  0
VERTEX
  5
B3
  8
0
 62
   213
 10
-18.458478927612301
 20
0.0000000007428635
 30
0.7919752597808838
 70
   192
  0
VERTEX
  5
B4
  8
0
 62
   213
 10
-18.80039024353027
 20
0.0000000007428632
 30
0.450064241886139
 70
   192
  0
VERTEX
  5
B5
  8
0
 62
   213
 10
-18.925539016723629
 20
0.0000000007428639
 30
-0.0169948246330023
 70
   192
  0
VERTEX
  5
B6
  8
0
 62
   213
 10
-18.80039024353027
 20
0.0000000007428645
 30
-0.4840538799762726
 70
   192
  0
VERTEX
  5
B7
  8
0
 62
   213
 10
-18.458478927612301
 20
0.0000000007428609
 30
-0.8259648084640502
 70
   192
  0
VERTEX
  5
B8
  8
0
 62
   213
 10
-17.991420745849609
 20
0.000000000742863
 30
-0.9511128664016723
 70
   192
  0
VERTEX
  5
B9
  8
0
 62
   213
 10
-17.524360656738281
 20
0.0000000007428626
 30
-0.8259646892547607
 70
   192
  0
VERTEX
  5
BA
  8
0
 62
   213
 10
-17.182451248168942
 20
0.0000000007428647
 30
-0.4840536713600159
 70
   192
  0
VERTEX
  5
BB
  8
0
 62
   213
 10
-17.03142166137695
 20
-0.3323304355144501
 30
-0.0169947445392609
 70
   192
  0
VERTEX
  5
BC
  8
0
 62
   213
 10
-17.160036087036129
 20
-0.3323304355144501
 30
0.4630052447319031
 70
   192
  0
VERTEX
  5
BD
  8
0
 62
   213
 10
-17.511421203613281
 20
-0.3323304355144501
 30
0.8143895864486694
 70
   192
  0
VERTEX
  5
BE
  8
0
 62
   213
 10
-17.991420745849609
 20
-0.3323304355144501
 30
0.9430052042007446
 70
   192
  0
VERTEX
  5
BF
  8
0
 62
   213
 10
-18.471420288085941
 20
-0.3323304355144501
 30
0.8143895864486694
 70
   192
  0
VERTEX
  5
C0
  8
0
 62
   213
 10
-18.822805404663079
 20
-0.3323304355144501
 30
0.4630051851272583
 70
   192
  0
VERTEX
  5
C1
  8
0
 62
   213
 10
-18.951419830322259
 20
-0.3323304355144501
 30
-0.0169948283582926
 70
   192
  0
VERTEX
  5
C2
  8
0
 62
   213
 10
-18.822805404663079
 20
-0.3323304355144501
 30
-0.496994823217392
 70
   192
  0
VERTEX
  5
C3
  8
0
 62
   213
 10
-18.471420288085941
 20
-0.3323304355144501
 30
-0.8483791351318359
 70
   192
  0
VERTEX
  5
C4
  8
0
 62
   213
 10
-17.991420745849609
 20
-0.3323304355144501
 30
-0.9769947528839111
 70
   192
  0
VERTEX
  5
C5
  8
0
 62
   213
 10
-17.511421203613281
 20
-0.3323304355144501
 30
-0.8483790159225463
 70
   192
  0
VERTEX
  5
C6
  8
0
 62
   213
 10
-17.160036087036129
 20
-0.3323304355144501
 30
-0.4969946146011353
 70
   192
  0
VERTEX
  5
C7
  8
0
 62
   213
 10
-17.991420745849609
 20
-2.4799997806549068
 30
-0.0169947445392609
 70
   192
  0
VERTEX
  5
C8
  8
0
 62
   213
 10
-17.057302474975579
 20
-0.3585757315158844
 30
-0.0169947501271963
 70
   192
  0
VERTEX
  5
C9
  8
0
 62
   213
 10
-17.182451248168942
 20
-0.3585757315158844
 30
0.4500643014907837
 70
   192
  0
VERTEX
  5
CA
  8
0
 62
   213
 10
-17.524362564086911
 20
-0.3585757315158844
 30
0.7919752597808838
 70
   192
  0
VERTEX
  5
CB
  8
0
 62
   213
 10
-17.991420745849609
 20
-0.3585757315158844
 30
0.9171233177185058
 70
   192
  0
VERTEX
  5
CC
  8
0
 62
   213
 10
-18.458478927612301
 20
-0.3585757315158844
 30
0.7919752597808838
 70
   192
  0
VERTEX
  5
CD
  8
0
 62
   213
 10
-18.80039024353027
 20
-0.3585757315158844
 30
0.450064241886139
 70
   192
  0
VERTEX
  5
CE
  8
0
 62
   213
 10
-18.925539016723629
 20
-0.3585757315158844
 30
-0.0169948302209377
 70
   192
  0
VERTEX
  5
CF
  8
0
 62
   213
 10
-18.80039024353027
 20
-0.3585757315158844
 30
-0.4840538799762726
 70
   192
  0
VERTEX
  5
D0
  8
0
 62
   213
 10
-18.458478927612301
 20
-0.3585757315158844
 30
-0.8259648084640502
 70
   192
  0
VERTEX
  5
D1
  8
0
 62
   213
 10
-17.991420745849609
 20
-0.3585757315158844
 30
-0.9511128664016723
 70
   192
  0
VERTEX
  5
D2
  8
0
 62
   213
 10
-17.524360656738281
 20
-0.3585757315158844
 30
-0.8259646892547607
 70
   192
  0
VERTEX
  5
D3
  8
0
 62
   213
 10
-17.182451248168942
 20
-0.3585757315158844
 30
-0.4840536713600159
 70
   192
  0
VERTEX
  5
D4
  8
0
 62
   213
 10
-17.45053672790527
 20
-0.3675808906555176
 30
-0.0169947557151318
 70
   192
  0
VERTEX
  5
D5
  8
0
 62
   213
 10
-17.523000717163079
 20
-0.3675808906555176
 30
0.2534476518630981
 70
   192
  0
VERTEX
  5
D6
  8
0
 62
   213
 10
-17.720977783203121
 20
-0.3675808906555176
 30
0.4514252245426178
 70
   192
  0
VERTEX
  5
D7
  8
0
 62
   213
 10
-17.991420745849609
 20
-0.3675808906555176
 30
0.5238901376724244
 70
   192
  0
VERTEX
  5
D8
  8
0
 62
   213
 10
-18.26186370849609
 20
-0.3675808906555176
 30
0.4514252245426178
 70
   192
  0
VERTEX
  5
D9
  8
0
 62
   213
 10
-18.459840774536129
 20
-0.36758092045784
 30
0.2534476220607758
 70
   192
  0
VERTEX
  5
DA
  8
0
 62
   213
 10
-18.532304763793942
 20
-0.3675808906555176
 30
-0.0169947687536478
 70
   192
  0
VERTEX
  5
DB
  8
0
 62
   213
 10
-18.459840774536129
 20
-0.3675808906555176
 30
-0.2874371707439422
 70
   192
  0
VERTEX
  5
DC
  8
0
 62
   213
 10
-18.26186370849609
 20
-0.3675808906555176
 30
-0.4854147732257843
 70
   192
  0
VERTEX
  5
DD
  8
0
 62
   213
 10
-17.991420745849609
 20
-0.3675808906555176
 30
-0.5578795671463013
 70
   192
  0
VERTEX
  5
DE
  8
0
 62
   213
 10
-17.720977783203121
 20
-0.3675808906555176
 30
-0.4854146540164948
 70
   192
  0
VERTEX
  5
DF
  8
0
 62
   213
 10
-17.523000717163079
 20
-0.3675808906555176
 30
-0.2874370515346527
 70
   192
  0
VERTEX
  5
E0
  8
0
 62
   213
 10
-17.58100509643554
 20
-0.4565709233283997
 30
-0.0169947631657124
 70
   192
  0
VERTEX
  5
E1
  8
0
 62
   213
 10
-17.635990142822259
 20
-0.4565709233283997
 30
0.1882132589817047
 70
   192
  0
VERTEX
  5
E2
  8
0
 62
   213
 10
-17.786212921142582
 20
-0.4565709233283997
 30
0.33843594789505
 70
   192
  0
VERTEX
  5
E3
  8
0
 62
   213
 10
-17.991420745849609
 20
-0.4565709233283997
 30
0.393421322107315
 70
   192
  0
VERTEX
  5
E4
  8
0
 62
   213
 10
-18.196628570556641
 20
-0.4565709233283997
 30
0.33843594789505
 70
   192
  0
VERTEX
  5
E5
  8
0
 62
   213
 10
-18.34685134887695
 20
-0.4565709233283997
 30
0.1882132589817047
 70
   192
  0
VERTEX
  5
E6
  8
0
 62
   213
 10
-18.401836395263668
 20
-0.4565709233283997
 30
-0.0169947389513254
 70
   192
  0
VERTEX
  5
E7
  8
0
 62
   213
 10
-18.34685134887695
 20
-0.4565709233283997
 30
-0.2222027778625488
 70
   192
  0
VERTEX
  5
E8
  8
0
 62
   213
 10
-18.196628570556641
 20
-0.4565709233283997
 30
-0.3724254965782165
 70
   192
  0
VERTEX
  5
E9
  8
0
 62
   213
 10
-17.991420745849609
 20
-0.4565709233283997
 30
-0.4274108409881592
 70
   192
  0
VERTEX
  5
EA
  8
0
 62
   213
 10
-17.786212921142582
 20
-0.4565709233283997
 30
-0.3724254071712494
 70
   192
  0
VERTEX
  5
EB
  8
0
 62
   213
 10
-17.635990142822259
 20
-0.4565709233283997
 30
-0.2222026586532593
 70
   192
  0
VERTEX
  5
EC
  8
0
 62
   213
 10
-17.603521347045898
 20
-0.5565709471702576
 30
-0.0169947631657124
 70
   192
  0
VERTEX
  5
ED
  8
0
 62
   213
 10
-17.655490875244141
 20
-0.5565709471702576
 30
0.1769545078277588
 70
   192
  0
VERTEX
  5
EE
  8
0
 62
   213
 10
-17.79747200012207
 20
-0.5565709471702576
 30
0.3189351856708527
 70
   192
  0
VERTEX
  5
EF
  8
0
 62
   213
 10
-17.991420745849609
 20
-0.5565709471702576
 30
0.3709038197994232
 70
   192
  0
VERTEX
  5
F0
  8
0
 62
   213
 10
-18.185369491577148
 20
-0.5565709471702576
 30
0.3189351856708527
 70
   192
  0
VERTEX
  5
F1
  8
0
 62
   213
 10
-18.327350616455071
 20
-0.5565709471702576
 30
0.1769544929265976
 70
   192
  0
VERTEX
  5
F2
  8
0
 62
   213
 10
-18.37932014465332
 20
-0.5565709471702576
 30
-0.0169947408139706
 70
   192
  0
VERTEX
  5
F3
  8
0
 62
   213
 10
-18.327350616455071
 20
-0.5565709471702576
 30
-0.2109440267086029
 70
   192
  0
VERTEX
  5
F4
  8
0
 62
   213
 10
-18.185369491577148
 20
-0.5565709471702576
 30
-0.3529247641563415
 70
   192
  0
VERTEX
  5
F5
  8
0
 62
   213
 10
-17.991420745849609
 20
-0.5565709471702576
 30
-0.404893308877945
 70
   192
  0
VERTEX
  5
F6
  8
0
 62
   213
 10
-17.79747200012207
 20
-0.5565709471702576
 30
-0.3529246747493744
 70
   192
  0
VERTEX
  5
F7
  8
0
 62
   213
 10
-17.655490875244141
 20
-0.5565709471702576
 30
-0.2109439074993133
 70
   192
  0
VERTEX
  5
F8
  8
0
 62
   213
 10
-17.704990386962891
 20
-0.5665709376335144
 30
-0.0169947631657124
 70
   192
  0
VERTEX
  5
F9
  8
0
 62
   213
 10
-17.743364334106442
 20
-0.5665709376335144
 30
0.126220777630806
 70
   192
  0
VERTEX
  5
FA
  8
0
 62
   213
 10
-17.84820556640625
 20
-0.5665709376335144
 30
0.2310618609189987
 70
   192
  0
VERTEX
  5
FB
  8
0
 62
   213
 10
-17.991420745849609
 20
-0.5665709376335144
 30
0.26943638920784
 70
   192
  0
VERTEX
  5
FC
  8
0
 62
   213
 10
-18.134635925292969
 20
-0.5665709376335144
 30
0.2310618609189987
 70
   192
  0
VERTEX
  5
FD
  8
0
 62
   213
 10
-18.23947715759277
 20
-0.5665709376335144
 30
0.126220777630806
 70
   192
  0
VERTEX
  5
FE
  8
0
 62
   213
 10
-18.277851104736332
 20
-0.5665709376335144
 30
-0.0169947221875191
 70
   192
  0
VERTEX
  5
FF
  8
0
 62
   213
 10
-18.23947715759277
 20
-0.5665709376335144
 30
-0.1602103114128113
 70
   192
  0
VERTEX
  5
100
  8
0
 62
   213
 10
-18.134635925292969
 20
-0.5665709376335144
 30
-0.2650514245033264
 70
   192
  0
VERTEX
  5
101
  8
0
 62
   213
 10
-17.991420745849609
 20
-0.5665709376335144
 30
-0.3034259080886841
 70
   192
  0
VERTEX
  5
102
  8
0
 62
   213
 10
-17.84820556640625
 20
-0.5665709376335144
 30
-0.2650513648986816
 70
   192
  0
VERTEX
  5
103
  8
0
 62
   213
 10
-17.743364334106442
 20
-0.5665709376335144
 30
-0.1602102071046829
 70
   192
  0
VERTEX
  5
104
  8
0
 62
   213
 10
-17.603521347045898
 20
-0.5765709280967714
 30
-0.0169947613030672
 70
   192
  0
VERTEX
  5
105
  8
0
 62
   213
 10
-17.655490875244141
 20
-0.5765709280967714
 30
0.1769545078277588
 70
   192
  0
VERTEX
  5
106
  8
0
 62
   213
 10
-17.79747200012207
 20
-0.5765709280967714
 30
0.3189351856708527
 70
   192
  0
VERTEX
  5
107
  8
0
 62
   213
 10
-17.991420745849609
 20
-0.5765709280967714
 30
0.3709038197994232
 70
   192
  0
VERTEX
  5
108
  8
0
 62
   213
 10
-18.185369491577148
 20
-0.5765709280967714
 30
0.3189351856708527
 70
   192
  0
VERTEX
  5
109
  8
0
 62
   213
 10
-18.327350616455071
 20
-0.5765709280967714
 30
0.1769544929265976
 70
   192
  0
VERTEX
  5
10A
  8
0
 62
   213
 10
-18.37932014465332
 20
-0.5765709280967714
 30
-0.0169947408139706
 70
   192
  0
VERTEX
  5
10B
  8
0
 62
   213
 10
-18.327350616455071
 20
-0.5765709280967714
 30
-0.2109440118074417
 70
   192
  0
VERTEX
  5
10C
  8
0
 62
   213
 10
-18.185369491577148
 20
-0.5765709280967714
 30
-0.3529247641563415
 70
   192
  0
VERTEX
  5
10D
  8
0
 62
   213
 10
-17.991420745849609
 20
-0.5765709280967714
 30
-0.4048932790756226
 70
   192
  0
VERTEX
  5
10E
  8
0
 62
   213
 10
-17.79747200012207
 20
-0.5765709280967714
 30
-0.3529247045516968
 70
   192
  0
VERTEX
  5
10F
  8
0
 62
   213
 10
-17.655490875244141
 20
-0.5765709280967714
 30
-0.2109439074993133
 70
   192
  0
VERTEX
  5
110
  8
0
 62
   213
 10
-17.603521347045898
 20
-2.4800000190734859
 30
-0.0169947631657124
 70
   192
  0
VERTEX
  5
111
  8
0
 62
   213
 10
-17.655490875244141
 20
-2.4800000190734859
 30
0.1769545078277588
 70
   192
  0
VERTEX
  5
112
  8
0
 62
   213
 10
-17.79747200012207
 20
-2.4800000190734859
 30
0.3189351856708527
 70
   192
  0
VERTEX
  5
113
  8
0
 62
   213
 10
-17.991420745849609
 20
-2.4799997806549068
 30
0.3709038197994232
 70
   192
  0
VERTEX
  5
114
  8
0
 62
   213
 10
-18.185369491577148
 20
-2.4799997806549068
 30
0.3189351856708527
 70
   192
  0
VERTEX
  5
115
  8
0
 62
   213
 10
-18.327350616455071
 20
-2.4799997806549068
 30
0.1769544929265976
 70
   192
  0
VERTEX
  5
116
  8
0
 62
   213
 10
-18.37932014465332
 20
-2.4799997806549068
 30
-0.0169947426766157
 70
   192
  0
VERTEX
  5
117
  8
0
 62
   213
 10
-18.327350616455071
 20
-2.4799997806549068
 30
-0.2109440118074417
 70
   192
  0
VERTEX
  5
118
  8
0
 62
   213
 10
-18.185369491577148
 20
-2.4799997806549068
 30
-0.3529247641563415
 70
   192
  0
VERTEX
  5
119
  8
0
 62
   213
 10
-17.991420745849609
 20
-2.4800000190734859
 30
-0.4048932790756226
 70
   192
  0
VERTEX
  5
11A
  8
0
 62
   213
 10
-17.79747200012207
 20
-2.4800000190734859
 30
-0.3529247045516968
 70
   192
  0
VERTEX
  5
11B
  8
0
 62
   213
 10
-17.655490875244141
 20
-2.4800000190734859
 30
-0.2109439074993133
 70
   192
  0
VERTEX
  5
11C
  8
0
 62
   213
 10
-17.265834808349609
 20
-0.3241887390613556
 30
-0.0169947501271963
 70
   192
  0
VERTEX
  5
11D
  8
0
 62
   213
 10
-17.363044738769531
 20
-0.3241887390613556
 30
0.3457984924316406
 70
   192
  0
VERTEX
  5
11E
  8
0
 62
   213
 10
-17.628627777099609
 20
-0.3241887390613556
 30
0.6113815307617188
 70
   192
  0
VERTEX
  5
11F
  8
0
 62
   213
 10
-17.991420745849609
 20
-0.3241887390613556
 30
0.7085916996002198
 70
   192
  0
VERTEX
  5
120
  8
0
 62
   213
 10
-18.354213714599609
 20
-0.3241887390613556
 30
0.6113815307617188
 70
   192
  0
VERTEX
  5
121
  8
0
 62
   213
 10
-18.619796752929691
 20
-0.3241887390613556
 30
0.3457984328269958
 70
   192
  0
VERTEX
  5
122
  8
0
 62
   213
 10
-18.717006683349609
 20
-0.3241887390613556
 30
-0.0169948022812605
 70
   192
  0
VERTEX
  5
123
  8
0
 62
   213
 10
-18.619796752929691
 20
-0.3241887390613556
 30
-0.3797880113124847
 70
   192
  0
VERTEX
  5
124
  8
0
 62
   213
 10
-18.354213714599609
 20
-0.3241887390613556
 30
-0.6453710794448853
 70
   192
  0
VERTEX
  5
125
  8
0
 62
   213
 10
-17.991420745849609
 20
-0.3241887390613556
 30
-0.7425812482833863
 70
   192
  0
VERTEX
  5
126
  8
0
 62
   213
 10
-17.628627777099609
 20
-0.3241887390613556
 30
-0.6453709602355957
 70
   192
  0
VERTEX
  5
127
  8
0
 62
   213
 10
-17.363044738769531
 20
-0.3241887390613556
 30
-0.3797878623008728
 70
   192
  0
VERTEX
  5
128
  8
0
 62
   213
 10
6.9426975250244141
 20
0.000000000742863
 30
-0.0169947445392609
 70
   192
  0
VERTEX
  5
129
  8
0
 62
   213
 10
6.8175487518310538
 20
0.0000000211586624
 30
0.4500643014907837
 70
   192
  0
VERTEX
  5
12A
  8
0
 62
   213
 10
6.475637435913085
 20
-0.0000000235005846
 30
0.7919752597808838
 70
   192
  0
VERTEX
  5
12B
  8
0
 62
   213
 10
6.0085792541503897
 20
-0.0000000180301818
 30
0.9171233177185058
 70
   192
  0
VERTEX
  5
12C
  8
0
 62
   213
 10
5.5415210723876953
 20
-0.0000000235005846
 30
0.7919752597808838
 70
   192
  0
VERTEX
  5
12D
  8
0
 62
   213
 10
5.1996097564697257
 20
0.0000000211586588
 30
0.450064241886139
 70
   192
  0
VERTEX
  5
12E
  8
0
 62
   213
 10
5.0744609832763672
 20
0.0000000007428595
 30
-0.0169948246330023
 70
   192
  0
VERTEX
  5
12F
  8
0
 62
   213
 10
5.1996097564697257
 20
-0.0000000196729406
 30
-0.4840538799762726
 70
   192
  0
VERTEX
  5
130
  8
0
 62
   213
 10
5.5415210723876953
 20
0.0000000249863081
 30
-0.8259648084640502
 70
   192
  0
VERTEX
  5
131
  8
0
 62
   213
 10
6.0085792541503897
 20
0.0000000195159124
 30
-0.9511128664016723
 70
   192
  0
VERTEX
  5
132
  8
0
 62
   213
 10
6.4756393432617179
 20
0.0000000249863135
 30
-0.8259646892547607
 70
   192
  0
VERTEX
  5
133
  8
0
 62
   213
 10
6.8175487518310538
 20
-0.0000000196729317
 30
-0.4840536713600159
 70
   192
  0
VERTEX
  5
134
  8
0
 62
   213
 10
6.968578338623046
 20
-0.3323304653167725
 30
-0.0169947445392609
 70
   192
  0
VERTEX
  5
135
  8
0
 62
   213
 10
6.8399639129638672
 20
-0.3323304355144501
 30
0.4630052447319031
 70
   192
  0
VERTEX
  5
136
  8
0
 62
   213
 10
6.4885787963867179
 20
-0.3323304355144501
 30
0.8143895864486694
 70
   192
  0
VERTEX
  5
137
  8
0
 62
   213
 10
6.0085792541503897
 20
-0.3323304355144501
 30
0.9430052042007446
 70
   192
  0
VERTEX
  5
138
  8
0
 62
   213
 10
5.5285797119140616
 20
-0.3323304355144501
 30
0.8143895864486694
 70
   192
  0
VERTEX
  5
139
  8
0
 62
   213
 10
5.1771945953369141
 20
-0.3323304355144501
 30
0.4630051851272583
 70
   192
  0
VERTEX
  5
13A
  8
0
 62
   213
 10
5.0485801696777344
 20
-0.3323304057121277
 30
-0.0169948283582926
 70
   192
  0
VERTEX
  5
13B
  8
0
 62
   213
 10
5.1771945953369141
 20
-0.3323304355144501
 30
-0.496994823217392
 70
   192
  0
VERTEX
  5
13C
  8
0
 62
   213
 10
5.5285797119140616
 20
-0.3323304355144501
 30
-0.8483791351318359
 70
   192
  0
VERTEX
  5
13D
  8
0
 62
   213
 10
6.0085792541503897
 20
-0.3323304355144501
 30
-0.9769947528839111
 70
   192
  0
VERTEX
  5
13E
  8
0
 62
   213
 10
6.4885787963867179
 20
-0.3323304355144501
 30
-0.8483790159225463
 70
   192
  0
VERTEX
  5
13F
  8
0
 62
   213
 10
6.8399639129638672
 20
-0.3323304355144501
 30
-0.4969946146011353
 70
   192
  0
VERTEX
  5
140
  8
0
 62
   213
 10
6.0085792541503897
 20
-2.4799997806549068
 30
-0.0169947445392609
 70
   192
  0
VERTEX
  5
141
  8
0
 62
   213
 10
6.9426975250244141
 20
-0.3585757315158844
 30
-0.0169947501271963
 70
   192
  0
VERTEX
  5
142
  8
0
 62
   213
 10
6.8175487518310538
 20
-0.3585757315158844
 30
0.4500643014907837
 70
   192
  0
VERTEX
  5
143
  8
0
 62
   213
 10
6.475637435913085
 20
-0.3585757315158844
 30
0.7919752597808838
 70
   192
  0
VERTEX
  5
144
  8
0
 62
   213
 10
6.0085792541503897
 20
-0.3585757315158844
 30
0.9171233177185058
 70
   192
  0
VERTEX
  5
145
  8
0
 62
   213
 10
5.5415210723876953
 20
-0.3585757315158844
 30
0.7919752597808838
 70
   192
  0
VERTEX
  5
146
  8
0
 62
   213
 10
5.1996097564697257
 20
-0.3585757315158844
 30
0.450064241886139
 70
   192
  0
VERTEX
  5
147
  8
0
 62
   213
 10
5.0744609832763672
 20
-0.3585757315158844
 30
-0.0169948302209377
 70
   192
  0
VERTEX
  5
148
  8
0
 62
   213
 10
5.1996097564697257
 20
-0.3585757315158844
 30
-0.4840538799762726
 70
   192
  0
VERTEX
  5
149
  8
0
 62
   213
 10
5.5415210723876953
 20
-0.3585757315158844
 30
-0.8259648084640502
 70
   192
  0
VERTEX
  5
14A
  8
0
 62
   213
 10
6.0085792541503897
 20
-0.3585757315158844
 30
-0.9511128664016723
 70
   192
  0
VERTEX
  5
14B
  8
0
 62
   213
 10
6.4756393432617179
 20
-0.3585757315158844
 30
-0.8259646892547607
 70
   192
  0
VERTEX
  5
14C
  8
0
 62
   213
 10
6.8175487518310538
 20
-0.3585757315158844
 30
-0.4840536713600159
 70
   192
  0
VERTEX
  5
14D
  8
0
 62
   213
 10
6.5494632720947257
 20
-0.3675808906555176
 30
-0.0169947557151318
 70
   192
  0
VERTEX
  5
14E
  8
0
 62
   213
 10
6.4769992828369141
 20
-0.3675808906555176
 30
0.2534476518630981
 70
   192
  0
VERTEX
  5
14F
  8
0
 62
   213
 10
6.279022216796875
 20
-0.3675808906555176
 30
0.4514252245426178
 70
   192
  0
VERTEX
  5
150
  8
0
 62
   213
 10
6.0085792541503897
 20
-0.3675808906555176
 30
0.5238901376724244
 70
   192
  0
VERTEX
  5
151
  8
0
 62
   213
 10
5.7381362915039062
 20
-0.3675808906555176
 30
0.4514252245426178
 70
   192
  0
VERTEX
  5
152
  8
0
 62
   213
 10
5.5401592254638672
 20
-0.36758092045784
 30
0.2534476220607758
 70
   192
  0
VERTEX
  5
153
  8
0
 62
   213
 10
5.4676952362060538
 20
-0.3675808906555176
 30
-0.0169947687536478
 70
   192
  0
VERTEX
  5
154
  8
0
 62
   213
 10
5.5401592254638672
 20
-0.3675808906555176
 30
-0.2874371707439422
 70
   192
  0
VERTEX
  5
155
  8
0
 62
   213
 10
5.7381362915039062
 20
-0.3675808906555176
 30
-0.4854147732257843
 70
   192
  0
VERTEX
  5
156
  8
0
 62
   213
 10
6.0085792541503897
 20
-0.3675808906555176
 30
-0.5578795671463013
 70
   192
  0
VERTEX
  5
157
  8
0
 62
   213
 10
6.279022216796875
 20
-0.3675808906555176
 30
-0.4854146540164948
 70
   192
  0
VERTEX
  5
158
  8
0
 62
   213
 10
6.4769992828369141
 20
-0.3675808906555176
 30
-0.2874370515346527
 70
   192
  0
VERTEX
  5
159
  8
0
 62
   213
 10
6.4189949035644531
 20
-0.4565709233283997
 30
-0.0169947631657124
 70
   192
  0
VERTEX
  5
15A
  8
0
 62
   213
 10
6.3640098571777344
 20
-0.4565709233283997
 30
0.1882132589817047
 70
   192
  0
VERTEX
  5
15B
  8
0
 62
   213
 10
6.213787078857421
 20
-0.4565709233283997
 30
0.33843594789505
 70
   192
  0
VERTEX
  5
15C
  8
0
 62
   213
 10
6.0085792541503897
 20
-0.4565709233283997
 30
0.393421322107315
 70
   192
  0
VERTEX
  5
15D
  8
0
 62
   213
 10
5.8033714294433594
 20
-0.4565709233283997
 30
0.33843594789505
 70
   192
  0
VERTEX
  5
15E
  8
0
 62
   213
 10
5.653148651123046
 20
-0.4565709233283997
 30
0.1882132589817047
 70
   192
  0
VERTEX
  5
15F
  8
0
 62
   213
 10
5.5981636047363281
 20
-0.4565709233283997
 30
-0.0169947389513254
 70
   192
  0
VERTEX
  5
160
  8
0
 62
   213
 10
5.653148651123046
 20
-0.4565709233283997
 30
-0.2222027778625488
 70
   192
  0
VERTEX
  5
161
  8
0
 62
   213
 10
5.8033714294433594
 20
-0.4565709233283997
 30
-0.3724254965782165
 70
   192
  0
VERTEX
  5
162
  8
0
 62
   213
 10
6.0085792541503897
 20
-0.4565709233283997
 30
-0.4274108409881592
 70
   192
  0
VERTEX
  5
163
  8
0
 62
   213
 10
6.213787078857421
 20
-0.4565709233283997
 30
-0.3724254071712494
 70
   192
  0
VERTEX
  5
164
  8
0
 62
   213
 10
6.3640098571777344
 20
-0.4565709233283997
 30
-0.2222026586532593
 70
   192
  0
VERTEX
  5
165
  8
0
 62
   213
 10
6.3964786529541007
 20
-0.5565709471702576
 30
-0.0169947631657124
 70
   192
  0
VERTEX
  5
166
  8
0
 62
   213
 10
6.3445091247558594
 20
-0.5565709471702576
 30
0.1769545078277588
 70
   192
  0
VERTEX
  5
167
  8
0
 62
   213
 10
6.2025279998779288
 20
-0.5565709471702576
 30
0.3189351856708527
 70
   192
  0
VERTEX
  5
168
  8
0
 62
   213
 10
6.0085792541503897
 20
-0.5565709471702576
 30
0.3709038197994232
 70
   192
  0
VERTEX
  5
169
  8
0
 62
   213
 10
5.8146305084228507
 20
-0.5565709471702576
 30
0.3189351856708527
 70
   192
  0
VERTEX
  5
16A
  8
0
 62
   213
 10
5.672649383544921
 20
-0.5565709471702576
 30
0.1769544929265976
 70
   192
  0
VERTEX
  5
16B
  8
0
 62
   213
 10
5.6206798553466788
 20
-0.5565709471702576
 30
-0.0169947408139706
 70
   192
  0
VERTEX
  5
16C
  8
0
 62
   213
 10
5.672649383544921
 20
-0.5565709471702576
 30
-0.2109440267086029
 70
   192
  0
VERTEX
  5
16D
  8
0
 62
   213
 10
5.8146305084228507
 20
-0.5565709471702576
 30
-0.3529247641563415
 70
   192
  0
VERTEX
  5
16E
  8
0
 62
   213
 10
6.0085792541503897
 20
-0.5565709471702576
 30
-0.404893308877945
 70
   192
  0
VERTEX
  5
16F
  8
0
 62
   213
 10
6.2025279998779288
 20
-0.5565709471702576
 30
-0.3529246747493744
 70
   192
  0
VERTEX
  5
170
  8
0
 62
   213
 10
6.3445091247558594
 20
-0.5565709471702576
 30
-0.2109439074993133
 70
   192
  0
VERTEX
  5
171
  8
0
 62
   213
 10
6.2950096130371094
 20
-0.5665709376335144
 30
-0.0169947631657124
 70
   192
  0
VERTEX
  5
172
  8
0
 62
   213
 10
6.2566356658935538
 20
-0.5665709376335144
 30
0.126220777630806
 70
   192
  0
VERTEX
  5
173
  8
0
 62
   213
 10
6.15179443359375
 20
-0.5665709376335144
 30
0.2310618609189987
 70
   192
  0
VERTEX
  5
174
  8
0
 62
   213
 10
6.0085792541503897
 20
-0.5665709376335144
 30
0.26943638920784
 70
   192
  0
VERTEX
  5
175
  8
0
 62
   213
 10
5.8653640747070313
 20
-0.5665709376335144
 30
0.2310618609189987
 70
   192
  0
VERTEX
  5
176
  8
0
 62
   213
 10
5.7605228424072257
 20
-0.5665709376335144
 30
0.126220777630806
 70
   192
  0
VERTEX
  5
177
  8
0
 62
   213
 10
5.722148895263671
 20
-0.5665709376335144
 30
-0.0169947221875191
 70
   192
  0
VERTEX
  5
178
  8
0
 62
   213
 10
5.7605228424072257
 20
-0.5665709376335144
 30
-0.1602103114128113
 70
   192
  0
VERTEX
  5
179
  8
0
 62
   213
 10
5.8653640747070313
 20
-0.5665709376335144
 30
-0.2650514245033264
 70
   192
  0
VERTEX
  5
17A
  8
0
 62
   213
 10
6.0085792541503897
 20
-0.5665709376335144
 30
-0.3034259080886841
 70
   192
  0
VERTEX
  5
17B
  8
0
 62
   213
 10
6.15179443359375
 20
-0.5665709376335144
 30
-0.2650513648986816
 70
   192
  0
VERTEX
  5
17C
  8
0
 62
   213
 10
6.2566356658935538
 20
-0.5665709376335144
 30
-0.1602102071046829
 70
   192
  0
VERTEX
  5
17D
  8
0
 62
   213
 10
6.3964786529541007
 20
-0.5765709280967714
 30
-0.0169947613030672
 70
   192
  0
VERTEX
  5
17E
  8
0
 62
   213
 10
6.3445091247558594
 20
-0.5765709280967714
 30
0.1769545078277588
 70
   192
  0
VERTEX
  5
17F
  8
0
 62
   213
 10
6.2025279998779288
 20
-0.5765709280967714
 30
0.3189351856708527
 70
   192
  0
VERTEX
  5
180
  8
0
 62
   213
 10
6.0085792541503897
 20
-0.5765709280967714
 30
0.3709038197994232
 70
   192
  0
VERTEX
  5
181
  8
0
 62
   213
 10
5.8146305084228507
 20
-0.5765709280967714
 30
0.3189351856708527
 70
   192
  0
VERTEX
  5
182
  8
0
 62
   213
 10
5.672649383544921
 20
-0.5765709280967714
 30
0.1769544929265976
 70
   192
  0
VERTEX
  5
183
  8
0
 62
   213
 10
5.6206798553466788
 20
-0.5765709280967714
 30
-0.0169947408139706
 70
   192
  0
VERTEX
  5
184
  8
0
 62
   213
 10
5.672649383544921
 20
-0.5765709280967714
 30
-0.2109440118074417
 70
   192
  0
VERTEX
  5
185
  8
0
 62
   213
 10
5.8146305084228507
 20
-0.5765709280967714
 30
-0.3529247641563415
 70
   192
  0
VERTEX
  5
186
  8
0
 62
   213
 10
6.0085792541503897
 20
-0.5765709280967714
 30
-0.4048932790756226
 70
   192
  0
VERTEX
  5
187
  8
0
 62
   213
 10
6.2025279998779288
 20
-0.5765709280967714
 30
-0.3529247045516968
 70
   192
  0
VERTEX
  5
188
  8
0
 62
   213
 10
6.3445091247558594
 20
-0.5765709280967714
 30
-0.2109439074993133
 70
   192
  0
VERTEX
  5
189
  8
0
 62
   213
 10
6.3964786529541007
 20
-2.4800000190734859
 30
-0.0169947631657124
 70
   192
  0
VERTEX
  5
18A
  8
0
 62
   213
 10
6.3445091247558594
 20
-2.4800000190734859
 30
0.1769545078277588
 70
   192
  0
VERTEX
  5
18B
  8
0
 62
   213
 10
6.2025279998779288
 20
-2.4800000190734859
 30
0.3189351856708527
 70
   192
  0
VERTEX
  5
18C
  8
0
 62
   213
 10
6.0085792541503897
 20
-2.4799997806549068
 30
0.3709038197994232
 70
   192
  0
VERTEX
  5
18D
  8
0
 62
   213
 10
5.8146305084228507
 20
-2.4799997806549068
 30
0.3189351856708527
 70
   192
  0
VERTEX
  5
18E
  8
0
 62
   213
 10
5.672649383544921
 20
-2.4799997806549068
 30
0.1769544929265976
 70
   192
  0
VERTEX
  5
18F
  8
0
 62
   213
 10
5.6206798553466788
 20
-2.4799997806549068
 30
-0.0169947426766157
 70
   192
  0
VERTEX
  5
190
  8
0
 62
   213
 10
5.672649383544921
 20
-2.4799997806549068
 30
-0.2109440118074417
 70
   192
  0
VERTEX
  5
191
  8
0
 62
   213
 10
5.8146305084228507
 20
-2.4799997806549068
 30
-0.3529247641563415
 70
   192
  0
VERTEX
  5
192
  8
0
 62
   213
 10
6.0085792541503897
 20
-2.4800000190734859
 30
-0.4048932790756226
 70
   192
  0
VERTEX
  5
193
  8
0
 62
   213
 10
6.2025279998779288
 20
-2.4800000190734859
 30
-0.3529247045516968
 70
   192
  0
VERTEX
  5
194
  8
0
 62
   213
 10
6.3445091247558594
 20
-2.4800000190734859
 30
-0.2109439074993133
 70
   192
  0
VERTEX
  5
195
  8
0
 62
   213
 10
6.7341651916503897
 20
-0.3241887092590332
 30
-0.0169947501271963
 70
   192
  0
VERTEX
  5
196
  8
0
 62
   213
 10
6.6369552612304679
 20
-0.3241887390613556
 30
0.3457984924316406
 70
   192
  0
VERTEX
  5
197
  8
0
 62
   213
 10
6.3713722229003897
 20
-0.3241887390613556
 30
0.6113815307617188
 70
   192
  0
VERTEX
  5
198
  8
0
 62
   213
 10
6.0085792541503897
 20
-0.3241887390613556
 30
0.7085916996002198
 70
   192
  0
VERTEX
  5
199
  8
0
 62
   213
 10
5.6457862854003897
 20
-0.3241887390613556
 30
0.6113815307617188
 70
   192
  0
VERTEX
  5
19A
  8
0
 62
   213
 10
5.3802032470703116
 20
-0.3241887390613556
 30
0.3457984328269958
 70
   192
  0
VERTEX
  5
19B
  8
0
 62
   213
 10
5.2829933166503897
 20
-0.3241887092590332
 30
-0.0169948022812605
 70
   192
  0
VERTEX
  5
19C
  8
0
 62
   213
 10
5.3802032470703116
 20
-0.3241887390613556
 30
-0.3797880113124847
 70
   192
  0
VERTEX
  5
19D
  8
0
 62
   213
 10
5.6457862854003897
 20
-0.3241887390613556
 30
-0.6453710794448853
 70
   192
  0
VERTEX
  5
19E
  8
0
 62
   213
 10
6.0085792541503897
 20
-0.3241887390613556
 30
-0.7425812482833863
 70
   192
  0
VERTEX
  5
19F
  8
0
 62
   213
 10
6.3713722229003897
 20
-0.3241887390613556
 30
-0.6453709602355957
 70
   192
  0
VERTEX
  5
1A0
  8
0
 62
   213
 10
6.6369552612304679
 20
-0.3241887390613556
 30
-0.3797878623008728
 70
   192
  0
VERTEX
  5
1A1
  8
0
 62
   213
 10
6.9229888916015616
 20
-2.4871840476989742
 30
-0.0169943049550057
 70
   192
  0
VERTEX
  5
1A2
  8
0
 62
   213
 10
6.9885787963867179
 20
-2.8871841430664058
 30
-0.0169942937791348
 70
   192
  0
VERTEX
  5
1A3
  8
0
 62
   213
 10
6.9885787963867179
 20
-2.770026683807373
 30
0.2658484280109405
 70
   192
  0
VERTEX
  5
1A4
  8
0
 62
   213
 10
6.9885787963867179
 20
-2.4871840476989742
 30
0.3830057084560394
 70
   192
  0
VERTEX
  5
1A5
  8
0
 62
   213
 10
6.9885787963867179
 20
-2.2043414115905762
 30
0.2658483982086182
 70
   192
  0
VERTEX
  5
1A6
  8
0
 62
   213
 10
6.9885787963867179
 20
-2.0871839523315421
 30
-0.0169943403452635
 70
   192
  0
VERTEX
  5
1A7
  8
0
 62
   213
 10
6.9885787963867179
 20
-2.2043414115905762
 30
-0.299837052822113
 70
   192
  0
VERTEX
  5
1A8
  8
0
 62
   213
 10
6.9885787963867179
 20
-2.4871840476989742
 30
-0.4169943034648896
 70
   192
  0
VERTEX
  5
1A9
  8
0
 62
   213
 10
6.9885787963867179
 20
-2.7700269222259521
 30
-0.2998369634151459
 70
   192
  0
VERTEX
  5
1AA
  8
0
 62
   213
 10
-18.971420288085941
 20
-2.8871808052062979
 30
-0.0169951673597098
 70
   192
  0
VERTEX
  5
1AB
  8
0
 62
   213
 10
-18.971420288085941
 20
-2.7700235843658438
 30
0.2658475637435913
 70
   192
  0
VERTEX
  5
1AC
  8
0
 62
   213
 10
-18.971420288085941
 20
-2.4871807098388672
 30
0.3830048441886902
 70
   192
  0
VERTEX
  5
1AD
  8
0
 62
   213
 10
-18.971420288085941
 20
-2.2043380737304679
 30
0.2658475041389465
 70
   192
  0
VERTEX
  5
1AE
  8
0
 62
   213
 10
-18.971420288085941
 20
-2.0871808528900142
 30
-0.0169952139258385
 70
   192
  0
VERTEX
  5
1AF
  8
0
 62
   213
 10
-18.971420288085941
 20
-2.2043380737304679
 30
-0.2998379468917847
 70
   192
  0
VERTEX
  5
1B0
  8
0
 62
   213
 10
-18.971420288085941
 20
-2.4871809482574458
 30
-0.4169951677322388
 70
   192
  0
VERTEX
  5
1B1
  8
0
 62
   213
 10
-18.971420288085941
 20
-2.7700235843658438
 30
-0.2998378276824951
 70
   192
  0
VERTEX
  5
1B2
  8
0
 62
   213
 10
-18.905830383300781
 20
-2.4871807098388672
 30
-0.0169951692223549
 70
   192
  0
VERTEX
  5
1B3
  8
0
 62
   213
 10
6.9229888916015616
 20
-2.724825143814086
 30
-0.0169943179935217
 70
   192
  0
VERTEX
  5
1B4
  8
0
 62
   213
 10
6.9229907989501953
 20
-2.6552217006683341
 30
0.1510434001684189
 70
   192
  0
VERTEX
  5
1B5
  8
0
 62
   213
 10
6.9229888916015616
 20
-2.4871840476989742
 30
0.2206468433141708
 70
   192
  0
VERTEX
  5
1B6
  8
0
 62
   213
 10
6.9229888916015616
 20
-2.3191463947296138
 30
0.1510433554649353
 70
   192
  0
VERTEX
  5
1B7
  8
0
 62
   213
 10
6.9229907989501953
 20
-2.2495429515838619
 30
-0.016994334757328
 70
   192
  0
VERTEX
  5
1B8
  8
0
 62
   213
 10
6.9229888916015616
 20
-2.3191463947296138
 30
-0.1850320249795914
 70
   192
  0
VERTEX
  5
1B9
  8
0
 62
   213
 10
6.9229907989501953
 20
-2.4871840476989742
 30
-0.2546354532241821
 70
   192
  0
VERTEX
  5
1BA
  8
0
 62
   213
 10
6.9229907989501953
 20
-2.6552217006683341
 30
-0.1850319504737854
 70
   192
  0
VERTEX
  5
1BB
  8
0
 62
   213
 10
-18.905830383300781
 20
-2.7248220443725581
 30
-0.0169951766729355
 70
   192
  0
VERTEX
  5
1BC
  8
0
 62
   213
 10
-18.905830383300781
 20
-2.6552186012268062
 30
0.1510425359010696
 70
   192
  0
VERTEX
  5
1BD
  8
0
 62
   213
 10
-18.905830383300781
 20
-2.4871807098388672
 30
0.2206459641456604
 70
   192
  0
VERTEX
  5
1BE
  8
0
 62
   213
 10
-18.905830383300781
 20
-2.3191430568695059
 30
0.1510424911975861
 70
   192
  0
VERTEX
  5
1BF
  8
0
 62
   213
 10
-18.905830383300781
 20
-2.249539613723754
 30
-0.0169951990246773
 70
   192
  0
VERTEX
  5
1C0
  8
0
 62
   213
 10
-18.905830383300781
 20
-2.3191430568695059
 30
-0.1850328892469406
 70
   192
  0
VERTEX
  5
1C1
  8
0
 62
   213
 10
-18.905830383300781
 20
-2.4871809482574458
 30
-0.2546363472938538
 70
   192
  0
VERTEX
  5
1C2
  8
0
 62
   213
 10
-18.905830383300781
 20
-2.6552186012268062
 30
-0.1850327998399734
 70
   192
  0
VERTEX
  5
1C3
  8
0
 62
   213
 10
0.0
 20
0.0
 30
0.0
 70
   128
 71
    -1
 72
    14
 73
    13
 74
    -1
  0
VERTEX
  5
1C4
  8
0
 62
   213
 10
0.0
 20
0.0
 30
0.0
 70
   128
 71
     1
 72
     2
 73
   -14
 74
    -1
  0
VERTEX
  5
1C5
  8
0
 62
   213
 10
0.0
 20
0.0
 30
0.0
 70
   128
 71
    -2
 72
    15
 73
    14
 74
    -2
  0
VERTEX
  5
1C6
  8
0
 62
   213
 10
0.0
 20
0.0
 30
0.0
 70
   128
 71
     2
 72
     3
 73
   -15
 74
    -2
  0
VERTEX
  5
1C7
  8
0
 62
   213
 10
0.0
 20
0.0
 30
0.0
 70
   128
 71
    -3
 72
    16
 73
    15
 74
    -3
  0
VERTEX
  5
1C8
  8
0
 62
   213
 10
0.0
 20
0.0
 30
0.0
 70
   128
 71
     3
 72
     4
 73
   -16
 74
    -3
  0
VERTEX
  5
1C9
  8
0
 62
   213
 10
0.0
 20
0.0
 30
0.0
 70
   128
 71
    -4
 72
    17
 73
    16
 74
    -4
  0
VERTEX
  5
1CA
  8
0
 62
   213
 10
0.0
 20
0.0
 30
0.0
 70
   128
 71
     4
 72
     5
 73
   -17
 74
    -4
  0
VERTEX
  5
1CB
  8
0
 62
   213
 10
0.0
 20
0.0
 30
0.0
 70
   128
 71
    -5
 72
    18
 73
    17
 74
    -5
  0
VERTEX
  5
1CC
  8
0
 62
   213
 10
0.0
 20
0.0
 30
0.0
 70
   128
 71
     5
 72
     6
 73
   -18
 74
    -5
  0
VERTEX
  5
1CD
  8
0
 62
   213
 10
0.0
 20
0.0
 30
0.0
 70
   128
 71
    -6
 72
    19
 73
    18
 74
    -6
  0
VERTEX
  5
1CE
  8
0
 62
   213
 10
0.0
 20
0.0
 30
0.0
 70
   128
 71
     6
 72
     7
 73
   -19
 74
    -6
  0
VERTEX
  5
1CF
  8
0
 62
   213
 10
0.0
 20
0.0
 30
0.0
 70
   128
 71
    -7
 72
    20
 73
    19
 74
    -7
  0
VERTEX
  5
1D0
  8
0
 62
   213
 10
0.0
 20
0.0
 30
0.0
 70
   128
 71
     7
 72
     8
 73
   -20
 74
    -7
  0
VERTEX
  5
1D1
  8
0
 62
   213
 10
0.0
 20
0.0
 30
0.0
 70
   128
 71
    -8
 72
    21
 73
    20
 74
    -8
  0
VERTEX
  5
1D2
  8
0
 62
   213
 10
0.0
 20
0.0
 30
0.0
 70
   128
 71
     8
 72
     9
 73
   -21
 74
    -8
  0
VERTEX
  5
1D3
  8
0
 62
   213
 10
0.0
 20
0.0
 30
0.0
 70
   128
 71
    -9
 72
    22
 73
    21
 74
    -9
  0
VERTEX
  5
1D4
  8
0
 62
   213
 10
0.0
 20
0.0
 30
0.0
 70
   128
 71
     9
 72
    10
 73
   -22
 74
    -9
  0
VERTEX
  5
1D5
  8
0
 62
   213
 10
0.0
 20
0.0
 30
0.0
 70
   128
 71
   -10
 72
    23
 73
    22
 74
   -10
  0
VERTEX
  5
1D6
  8
0
 62
   213
 10
0.0
 20
0.0
 30
0.0
 70
   128
 71
    10
 72
    11
 73
   -23
 74
   -10
  0
VERTEX
  5
1D7
  8
0
 62
   213
 10
0.0
 20
0.0
 30
0.0
 70
   128
 71
   -11
 72
    24
 73
    23
 74
   -11
  0
VERTEX
  5
1D8
  8
0
 62
   213
 10
0.0
 20
0.0
 30
0.0
 70
   128
 71
    11
 72
    12
 73
   -24
 74
   -11
  0
VERTEX
  5
1D9
  8
0
 62
   213
 10
0.0
 20
0.0
 30
0.0
 70
   128
 71
   -12
 72
    13
 73
    24
 74
   -12
  0
VERTEX
  5
1DA
  8
0
 62
   213
 10
0.0
 20
0.0
 30
0.0
 70
   128
 71
    12
 72
     1
 73
   -13
 74
   -12
  0
VERTEX
  5
1DB
  8
0
 62
   213
 10
0.0
 20
0.0
 30
0.0
 70
   128
 71
   -25
 72
    98
 73
   -99
 74
   -25
  0
VERTEX
  5
1DC
  8
0
 62
   213
 10
0.0
 20
0.0
 30
0.0
 70
   128
 71
   -25
 72
    99
 73
  -100
 74
   -25
  0
VERTEX
  5
1DD
  8
0
 62
   213
 10
0.0
 20
0.0
 30
0.0
 70
   128
 71
   -25
 72
   100
 73
  -101
 74
   -25
  0
VERTEX
  5
1DE
  8
0
 62
   213
 10
0.0
 20
0.0
 30
0.0
 70
   128
 71
   -25
 72
   101
 73
  -102
 74
   -25
  0
VERTEX
  5
1DF
  8
0
 62
   213
 10
0.0
 20
0.0
 30
0.0
 70
   128
 71
   -25
 72
   102
 73
  -103
 74
   -25
  0
VERTEX
  5
1E0
  8
0
 62
   213
 10
0.0
 20
0.0
 30
0.0
 70
   128
 71
   -25
 72
   103
 73
  -104
 74
   -25
  0
VERTEX
  5
1E1
  8
0
 62
   213
 10
0.0
 20
0.0
 30
0.0
 70
   128
 71
   -25
 72
   104
 73
  -105
 74
   -25
  0
VERTEX
  5
1E2
  8
0
 62
   213
 10
0.0
 20
0.0
 30
0.0
 70
   128
 71
   -25
 72
   105
 73
  -106
 74
   -25
  0
VERTEX
  5
1E3
  8
0
 62
   213
 10
0.0
 20
0.0
 30
0.0
 70
   128
 71
   -25
 72
   106
 73
  -107
 74
   -25
  0
VERTEX
  5
1E4
  8
0
 62
   213
 10
0.0
 20
0.0
 30
0.0
 70
   128
 71
   -25
 72
   107
 73
  -108
 74
   -25
  0
VERTEX
  5
1E5
  8
0
 62
   213
 10
0.0
 20
0.0
 30
0.0
 70
   128
 71
   -25
 72
   108
 73
  -109
 74
   -25
  0
VERTEX
  5
1E6
  8
0
 62
   213
 10
0.0
 20
0.0
 30
0.0
 70
   128
 71
   -25
 72
   109
 73
   -98
 74
   -25
  0
VERTEX
  5
1E7
  8
0
 62
   213
 10
0.0
 20
0.0
 30
0.0
 70
   128
 71
    13
 72
    14
 73
   -27
 74
   -13
  0
VERTEX
  5
1E8
  8
0
 62
   213
 10
0.0
 20
0.0
 30
0.0
 70
   128
 71
    27
 72
    26
 73
   -13
 74
   -27
  0
VERTEX
  5
1E9
  8
0
 62
   213
 10
0.0
 20
0.0
 30
0.0
 70
   128
 71
    14
 72
    15
 73
   -28
 74
   -14
  0
VERTEX
  5
1EA
  8
0
 62
   213
 10
0.0
 20
0.0
 30
0.0
 70
   128
 71
    28
 72
    27
 73
   -14
 74
   -28
  0
VERTEX
  5
1EB
  8
0
 62
   213
 10
0.0
 20
0.0
 30
0.0
 70
   128
 71
    15
 72
    16
 73
   -29
 74
   -15
  0
VERTEX
  5
1EC
  8
0
 62
   213
 10
0.0
 20
0.0
 30
0.0
 70
   128
 71
    29
 72
    28
 73
   -15
 74
   -29
  0
VERTEX
  5
1ED
  8
0
 62
   213
 10
0.0
 20
0.0
 30
0.0
 70
   128
 71
    16
 72
    17
 73
   -30
 74
   -16
  0
VERTEX
  5
1EE
  8
0
 62
   213
 10
0.0
 20
0.0
 30
0.0
 70
   128
 71
    30
 72
    29
 73
   -16
 74
   -30
  0
VERTEX
  5
1EF
  8
0
 62
   213
 10
0.0
 20
0.0
 30
0.0
 70
   128
 71
    17
 72
    18
 73
   -31
 74
   -17
  0
VERTEX
  5
1F0
  8
0
 62
   213
 10
0.0
 20
0.0
 30
0.0
 70
   128
 71
    31
 72
    30
 73
   -17
 74
   -31
  0
VERTEX
  5
1F1
  8
0
 62
   213
 10
0.0
 20
0.0
 30
0.0
 70
   128
 71
    18
 72
    19
 73
   -32
 74
   -18
  0
VERTEX
  5
1F2
  8
0
 62
   213
 10
0.0
 20
0.0
 30
0.0
 70
   128
 71
    32
 72
    31
 73
   -18
 74
   -32
  0
VERTEX
  5
1F3
  8
0
 62
   213
 10
0.0
 20
0.0
 30
0.0
 70
   128
 71
    19
 72
    20
 73
   -33
 74
   -19
  0
VERTEX
  5
1F4
  8
0
 62
   213
 10
0.0
 20
0.0
 30
0.0
 70
   128
 71
    33
 72
    32
 73
   -19
 74
   -33
  0
VERTEX
  5
1F5
  8
0
 62
   213
 10
0.0
 20
0.0
 30
0.0
 70
   128
 71
    20
 72
    21
 73
   -34
 74
   -20
  0
VERTEX
  5
1F6
  8
0
 62
   213
 10
0.0
 20
0.0
 30
0.0
 70
   128
 71
    34
 72
    33
 73
   -20
 74
   -34
  0
VERTEX
  5
1F7
  8
0
 62
   213
 10
0.0
 20
0.0
 30
0.0
 70
   128
 71
    21
 72
    22
 73
   -35
 74
   -21
  0
VERTEX
  5
1F8
  8
0
 62
   213
 10
0.0
 20
0.0
 30
0.0
 70
   128
 71
    35
 72
    34
 73
   -21
 74
   -35
  0
VERTEX
  5
1F9
  8
0
 62
   213
 10
0.0
 20
0.0
 30
0.0
 70
   128
 71
    22
 72
    23
 73
   -36
 74
   -22
  0
VERTEX
  5
1FA
  8
0
 62
   213
 10
0.0
 20
0.0
 30
0.0
 70
   128
 71
    36
 72
    35
 73
   -22
 74
   -36
  0
VERTEX
  5
1FB
  8
0
 62
   213
 10
0.0
 20
0.0
 30
0.0
 70
   128
 71
    23
 72
    24
 73
   -37
 74
   -23
  0
VERTEX
  5
1FC
  8
0
 62
   213
 10
0.0
 20
0.0
 30
0.0
 70
   128
 71
    37
 72
    36
 73
   -23
 74
   -37
  0
VERTEX
  5
1FD
  8
0
 62
   213
 10
0.0
 20
0.0
 30
0.0
 70
   128
 71
    24
 72
    13
 73
   -26
 74
   -24
  0
VERTEX
  5
1FE
  8
0
 62
   213
 10
0.0
 20
0.0
 30
0.0
 70
   128
 71
    26
 72
    37
 73
   -24
 74
   -26
  0
VERTEX
  5
1FF
  8
0
 62
   213
 10
0.0
 20
0.0
 30
0.0
 70
   128
 71
    26
 72
    27
 73
  -111
 74
   -26
  0
VERTEX
  5
200
  8
0
 62
   213
 10
0.0
 20
0.0
 30
0.0
 70
   128
 71
   111
 72
   110
 73
   -26
 74
  -111
  0
VERTEX
  5
201
  8
0
 62
   213
 10
0.0
 20
0.0
 30
0.0
 70
   128
 71
    27
 72
    28
 73
  -112
 74
   -27
  0
VERTEX
  5
202
  8
0
 62
   213
 10
0.0
 20
0.0
 30
0.0
 70
   128
 71
   112
 72
   111
 73
   -27
 74
  -112
  0
VERTEX
  5
203
  8
0
 62
   213
 10
0.0
 20
0.0
 30
0.0
 70
   128
 71
    28
 72
    29
 73
  -113
 74
   -28
  0
VERTEX
  5
204
  8
0
 62
   213
 10
0.0
 20
0.0
 30
0.0
 70
   128
 71
   113
 72
   112
 73
   -28
 74
  -113
  0
VERTEX
  5
205
  8
0
 62
   213
 10
0.0
 20
0.0
 30
0.0
 70
   128
 71
    29
 72
    30
 73
  -114
 74
   -29
  0
VERTEX
  5
206
  8
0
 62
   213
 10
0.0
 20
0.0
 30
0.0
 70
   128
 71
   114
 72
   113
 73
   -29
 74
  -114
  0
VERTEX
  5
207
  8
0
 62
   213
 10
0.0
 20
0.0
 30
0.0
 70
   128
 71
    30
 72
    31
 73
  -115
 74
   -30
  0
VERTEX
  5
208
  8
0
 62
   213
 10
0.0
 20
0.0
 30
0.0
 70
   128
 71
   115
 72
   114
 73
   -30
 74
  -115
  0
VERTEX
  5
209
  8
0
 62
   213
 10
0.0
 20
0.0
 30
0.0
 70
   128
 71
    31
 72
    32
 73
  -116
 74
   -31
  0
VERTEX
  5
20A
  8
0
 62
   213
 10
0.0
 20
0.0
 30
0.0
 70
   128
 71
   116
 72
   115
 73
   -31
 74
  -116
  0
VERTEX
  5
20B
  8
0
 62
   213
 10
0.0
 20
0.0
 30
0.0
 70
   128
 71
    32
 72
    33
 73
  -117
 74
   -32
  0
VERTEX
  5
20C
  8
0
 62
   213
 10
0.0
 20
0.0
 30
0.0
 70
   128
 71
   117
 72
   116
 73
   -32
 74
  -117
  0
VERTEX
  5
20D
  8
0
 62
   213
 10
0.0
 20
0.0
 30
0.0
 70
   128
 71
    33
 72
    34
 73
  -118
 74
   -33
  0
VERTEX
  5
20E
  8
0
 62
   213
 10
0.0
 20
0.0
 30
0.0
 70
   128
 71
   118
 72
   117
 73
   -33
 74
  -118
  0
VERTEX
  5
20F
  8
0
 62
   213
 10
0.0
 20
0.0
 30
0.0
 70
   128
 71
    34
 72
    35
 73
  -119
 74
   -34
  0
VERTEX
  5
210
  8
0
 62
   213
 10
0.0
 20
0.0
 30
0.0
 70
   128
 71
   119
 72
   118
 73
   -34
 74
  -119
  0
VERTEX
  5
211
  8
0
 62
   213
 10
0.0
 20
0.0
 30
0.0
 70
   128
 71
    35
 72
    36
 73
  -120
 74
   -35
  0
VERTEX
  5
212
  8
0
 62
   213
 10
0.0
 20
0.0
 30
0.0
 70
   128
 71
   120
 72
   119
 73
   -35
 74
  -120
  0
VERTEX
  5
213
  8
0
 62
   213
 10
0.0
 20
0.0
 30
0.0
 70
   128
 71
    36
 72
    37
 73
  -121
 74
   -36
  0
VERTEX
  5
214
  8
0
 62
   213
 10
0.0
 20
0.0
 30
0.0
 70
   128
 71
   121
 72
   120
 73
   -36
 74
  -121
  0
VERTEX
  5
215
  8
0
 62
   213
 10
0.0
 20
0.0
 30
0.0
 70
   128
 71
    37
 72
    26
 73
  -110
 74
   -37
  0
VERTEX
  5
216
  8
0
 62
   213
 10
0.0
 20
0.0
 30
0.0
 70
   128
 71
   110
 72
   121
 73
   -37
 74
  -110
  0
VERTEX
  5
217
  8
0
 62
   213
 10
0.0
 20
0.0
 30
0.0
 70
   128
 71
    38
 72
    39
 73
   -51
 74
   -38
  0
VERTEX
  5
218
  8
0
 62
   213
 10
0.0
 20
0.0
 30
0.0
 70
   128
 71
    51
 72
    50
 73
   -38
 74
   -51
  0
VERTEX
  5
219
  8
0
 62
   213
 10
0.0
 20
0.0
 30
0.0
 70
   128
 71
    39
 72
    40
 73
   -52
 74
   -39
  0
VERTEX
  5
21A
  8
0
 62
   213
 10
0.0
 20
0.0
 30
0.0
 70
   128
 71
    52
 72
    51
 73
   -39
 74
   -52
  0
VERTEX
  5
21B
  8
0
 62
   213
 10
0.0
 20
0.0
 30
0.0
 70
   128
 71
    40
 72
    41
 73
   -53
 74
   -40
  0
VERTEX
  5
21C
  8
0
 62
   213
 10
0.0
 20
0.0
 30
0.0
 70
   128
 71
    53
 72
    52
 73
   -40
 74
   -53
  0
VERTEX
  5
21D
  8
0
 62
   213
 10
0.0
 20
0.0
 30
0.0
 70
   128
 71
    41
 72
    42
 73
   -54
 74
   -41
  0
VERTEX
  5
21E
  8
0
 62
   213
 10
0.0
 20
0.0
 30
0.0
 70
   128
 71
    54
 72
    53
 73
   -41
 74
   -54
  0
VERTEX
  5
21F
  8
0
 62
   213
 10
0.0
 20
0.0
 30
0.0
 70
   128
 71
    42
 72
    43
 73
   -55
 74
   -42
  0
VERTEX
  5
220
  8
0
 62
   213
 10
0.0
 20
0.0
 30
0.0
 70
   128
 71
    55
 72
    54
 73
   -42
 74
   -55
  0
VERTEX
  5
221
  8
0
 62
   213
 10
0.0
 20
0.0
 30
0.0
 70
   128
 71
    43
 72
    44
 73
   -56
 74
   -43
  0
VERTEX
  5
222
  8
0
 62
   213
 10
0.0
 20
0.0
 30
0.0
 70
   128
 71
    56
 72
    55
 73
   -43
 74
   -56
  0
VERTEX
  5
223
  8
0
 62
   213
 10
0.0
 20
0.0
 30
0.0
 70
   128
 71
    44
 72
    45
 73
   -57
 74
   -44
  0
VERTEX
  5
224
  8
0
 62
   213
 10
0.0
 20
0.0
 30
0.0
 70
   128
 71
    57
 72
    56
 73
   -44
 74
   -57
  0
VERTEX
  5
225
  8
0
 62
   213
 10
0.0
 20
0.0
 30
0.0
 70
   128
 71
    45
 72
    46
 73
   -58
 74
   -45
  0
VERTEX
  5
226
  8
0
 62
   213
 10
0.0
 20
0.0
 30
0.0
 70
   128
 71
    58
 72
    57
 73
   -45
 74
   -58
  0
VERTEX
  5
227
  8
0
 62
   213
 10
0.0
 20
0.0
 30
0.0
 70
   128
 71
    46
 72
    47
 73
   -59
 74
   -46
  0
VERTEX
  5
228
  8
0
 62
   213
 10
0.0
 20
0.0
 30
0.0
 70
   128
 71
    59
 72
    58
 73
   -46
 74
   -59
  0
VERTEX
  5
229
  8
0
 62
   213
 10
0.0
 20
0.0
 30
0.0
 70
   128
 71
    47
 72
    48
 73
   -60
 74
   -47
  0
VERTEX
  5
22A
  8
0
 62
   213
 10
0.0
 20
0.0
 30
0.0
 70
   128
 71
    60
 72
    59
 73
   -47
 74
   -60
  0
VERTEX
  5
22B
  8
0
 62
   213
 10
0.0
 20
0.0
 30
0.0
 70
   128
 71
    48
 72
    49
 73
   -61
 74
   -48
  0
VERTEX
  5
22C
  8
0
 62
   213
 10
0.0
 20
0.0
 30
0.0
 70
   128
 71
    61
 72
    60
 73
   -48
 74
   -61
  0
VERTEX
  5
22D
  8
0
 62
   213
 10
0.0
 20
0.0
 30
0.0
 70
   128
 71
    49
 72
    38
 73
   -50
 74
   -49
  0
VERTEX
  5
22E
  8
0
 62
   213
 10
0.0
 20
0.0
 30
0.0
 70
   128
 71
    50
 72
    61
 73
   -49
 74
   -50
  0
VERTEX
  5
22F
  8
0
 62
   213
 10
0.0
 20
0.0
 30
0.0
 70
   128
 71
    50
 72
    51
 73
   -63
 74
   -50
  0
VERTEX
  5
230
  8
0
 62
   213
 10
0.0
 20
0.0
 30
0.0
 70
   128
 71
    63
 72
    62
 73
   -50
 74
   -63
  0
VERTEX
  5
231
  8
0
 62
   213
 10
0.0
 20
0.0
 30
0.0
 70
   128
 71
    51
 72
    52
 73
   -64
 74
   -51
  0
VERTEX
  5
232
  8
0
 62
   213
 10
0.0
 20
0.0
 30
0.0
 70
   128
 71
    64
 72
    63
 73
   -51
 74
   -64
  0
VERTEX
  5
233
  8
0
 62
   213
 10
0.0
 20
0.0
 30
0.0
 70
   128
 71
    52
 72
    53
 73
   -65
 74
   -52
  0
VERTEX
  5
234
  8
0
 62
   213
 10
0.0
 20
0.0
 30
0.0
 70
   128
 71
    65
 72
    64
 73
   -52
 74
   -65
  0
VERTEX
  5
235
  8
0
 62
   213
 10
0.0
 20
0.0
 30
0.0
 70
   128
 71
    53
 72
    54
 73
   -66
 74
   -53
  0
VERTEX
  5
236
  8
0
 62
   213
 10
0.0
 20
0.0
 30
0.0
 70
   128
 71
    66
 72
    65
 73
   -53
 74
   -66
  0
VERTEX
  5
237
  8
0
 62
   213
 10
0.0
 20
0.0
 30
0.0
 70
   128
 71
    54
 72
    55
 73
   -67
 74
   -54
  0
VERTEX
  5
238
  8
0
 62
   213
 10
0.0
 20
0.0
 30
0.0
 70
   128
 71
    67
 72
    66
 73
   -54
 74
   -67
  0
VERTEX
  5
239
  8
0
 62
   213
 10
0.0
 20
0.0
 30
0.0
 70
   128
 71
    55
 72
    56
 73
   -68
 74
   -55
  0
VERTEX
  5
23A
  8
0
 62
   213
 10
0.0
 20
0.0
 30
0.0
 70
   128
 71
    68
 72
    67
 73
   -55
 74
   -68
  0
VERTEX
  5
23B
  8
0
 62
   213
 10
0.0
 20
0.0
 30
0.0
 70
   128
 71
    56
 72
    57
 73
   -69
 74
   -56
  0
VERTEX
  5
23C
  8
0
 62
   213
 10
0.0
 20
0.0
 30
0.0
 70
   128
 71
    69
 72
    68
 73
   -56
 74
   -69
  0
VERTEX
  5
23D
  8
0
 62
   213
 10
0.0
 20
0.0
 30
0.0
 70
   128
 71
    57
 72
    58
 73
   -70
 74
   -57
  0
VERTEX
  5
23E
  8
0
 62
   213
 10
0.0
 20
0.0
 30
0.0
 70
   128
 71
    70
 72
    69
 73
   -57
 74
   -70
  0
VERTEX
  5
23F
  8
0
 62
   213
 10
0.0
 20
0.0
 30
0.0
 70
   128
 71
    58
 72
    59
 73
   -71
 74
   -58
  0
VERTEX
  5
240
  8
0
 62
   213
 10
0.0
 20
0.0
 30
0.0
 70
   128
 71
    71
 72
    70
 73
   -58
 74
   -71
  0
VERTEX
  5
241
  8
0
 62
   213
 10
0.0
 20
0.0
 30
0.0
 70
   128
 71
    59
 72
    60
 73
   -72
 74
   -59
  0
VERTEX
  5
242
  8
0
 62
   213
 10
0.0
 20
0.0
 30
0.0
 70
   128
 71
    72
 72
    71
 73
   -59
 74
   -72
  0
VERTEX
  5
243
  8
0
 62
   213
 10
0.0
 20
0.0
 30
0.0
 70
   128
 71
    60
 72
    61
 73
   -73
 74
   -60
  0
VERTEX
  5
244
  8
0
 62
   213
 10
0.0
 20
0.0
 30
0.0
 70
   128
 71
    73
 72
    72
 73
   -60
 74
   -73
  0
VERTEX
  5
245
  8
0
 62
   213
 10
0.0
 20
0.0
 30
0.0
 70
   128
 71
    61
 72
    50
 73
   -62
 74
   -61
  0
VERTEX
  5
246
  8
0
 62
   213
 10
0.0
 20
0.0
 30
0.0
 70
   128
 71
    62
 72
    73
 73
   -61
 74
   -62
  0
VERTEX
  5
247
  8
0
 62
   213
 10
0.0
 20
0.0
 30
0.0
 70
   128
 71
    62
 72
    63
 73
   -75
 74
   -62
  0
VERTEX
  5
248
  8
0
 62
   213
 10
0.0
 20
0.0
 30
0.0
 70
   128
 71
    75
 72
    74
 73
   -62
 74
   -75
  0
VERTEX
  5
249
  8
0
 62
   213
 10
0.0
 20
0.0
 30
0.0
 70
   128
 71
    63
 72
    64
 73
   -76
 74
   -63
  0
VERTEX
  5
24A
  8
0
 62
   213
 10
0.0
 20
0.0
 30
0.0
 70
   128
 71
    76
 72
    75
 73
   -63
 74
   -76
  0
VERTEX
  5
24B
  8
0
 62
   213
 10
0.0
 20
0.0
 30
0.0
 70
   128
 71
    64
 72
    65
 73
   -77
 74
   -64
  0
VERTEX
  5
24C
  8
0
 62
   213
 10
0.0
 20
0.0
 30
0.0
 70
   128
 71
    77
 72
    76
 73
   -64
 74
   -77
  0
VERTEX
  5
24D
  8
0
 62
   213
 10
0.0
 20
0.0
 30
0.0
 70
   128
 71
    65
 72
    66
 73
   -78
 74
   -65
  0
VERTEX
  5
24E
  8
0
 62
   213
 10
0.0
 20
0.0
 30
0.0
 70
   128
 71
    78
 72
    77
 73
   -65
 74
   -78
  0
VERTEX
  5
24F
  8
0
 62
   213
 10
0.0
 20
0.0
 30
0.0
 70
   128
 71
    66
 72
    67
 73
   -79
 74
   -66
  0
VERTEX
  5
250
  8
0
 62
   213
 10
0.0
 20
0.0
 30
0.0
 70
   128
 71
    79
 72
    78
 73
   -66
 74
   -79
  0
VERTEX
  5
251
  8
0
 62
   213
 10
0.0
 20
0.0
 30
0.0
 70
   128
 71
    67
 72
    68
 73
   -80
 74
   -67
  0
VERTEX
  5
252
  8
0
 62
   213
 10
0.0
 20
0.0
 30
0.0
 70
   128
 71
    80
 72
    79
 73
   -67
 74
   -80
  0
VERTEX
  5
253
  8
0
 62
   213
 10
0.0
 20
0.0
 30
0.0
 70
   128
 71
    68
 72
    69
 73
   -81
 74
   -68
  0
VERTEX
  5
254
  8
0
 62
   213
 10
0.0
 20
0.0
 30
0.0
 70
   128
 71
    81
 72
    80
 73
   -68
 74
   -81
  0
VERTEX
  5
255
  8
0
 62
   213
 10
0.0
 20
0.0
 30
0.0
 70
   128
 71
    69
 72
    70
 73
   -82
 74
   -69
  0
VERTEX
  5
256
  8
0
 62
   213
 10
0.0
 20
0.0
 30
0.0
 70
   128
 71
    82
 72
    81
 73
   -69
 74
   -82
  0
VERTEX
  5
257
  8
0
 62
   213
 10
0.0
 20
0.0
 30
0.0
 70
   128
 71
    70
 72
    71
 73
   -83
 74
   -70
  0
VERTEX
  5
258
  8
0
 62
   213
 10
0.0
 20
0.0
 30
0.0
 70
   128
 71
    83
 72
    82
 73
   -70
 74
   -83
  0
VERTEX
  5
259
  8
0
 62
   213
 10
0.0
 20
0.0
 30
0.0
 70
   128
 71
    71
 72
    72
 73
   -84
 74
   -71
  0
VERTEX
  5
25A
  8
0
 62
   213
 10
0.0
 20
0.0
 30
0.0
 70
   128
 71
    84
 72
    83
 73
   -71
 74
   -84
  0
VERTEX
  5
25B
  8
0
 62
   213
 10
0.0
 20
0.0
 30
0.0
 70
   128
 71
    72
 72
    73
 73
   -85
 74
   -72
  0
VERTEX
  5
25C
  8
0
 62
   213
 10
0.0
 20
0.0
 30
0.0
 70
   128
 71
    85
 72
    84
 73
   -72
 74
   -85
  0
VERTEX
  5
25D
  8
0
 62
   213
 10
0.0
 20
0.0
 30
0.0
 70
   128
 71
    73
 72
    62
 73
   -74
 74
   -73
  0
VERTEX
  5
25E
  8
0
 62
   213
 10
0.0
 20
0.0
 30
0.0
 70
   128
 71
    74
 72
    85
 73
   -73
 74
   -74
  0
VERTEX
  5
25F
  8
0
 62
   213
 10
0.0
 20
0.0
 30
0.0
 70
   128
 71
    74
 72
    75
 73
   -87
 74
   -74
  0
VERTEX
  5
260
  8
0
 62
   213
 10
0.0
 20
0.0
 30
0.0
 70
   128
 71
    87
 72
    86
 73
   -74
 74
   -87
  0
VERTEX
  5
261
  8
0
 62
   213
 10
0.0
 20
0.0
 30
0.0
 70
   128
 71
    75
 72
    76
 73
   -88
 74
   -75
  0
VERTEX
  5
262
  8
0
 62
   213
 10
0.0
 20
0.0
 30
0.0
 70
   128
 71
    88
 72
    87
 73
   -75
 74
   -88
  0
VERTEX
  5
263
  8
0
 62
   213
 10
0.0
 20
0.0
 30
0.0
 70
   128
 71
    76
 72
    77
 73
   -89
 74
   -76
  0
VERTEX
  5
264
  8
0
 62
   213
 10
0.0
 20
0.0
 30
0.0
 70
   128
 71
    89
 72
    88
 73
   -76
 74
   -89
  0
VERTEX
  5
265
  8
0
 62
   213
 10
0.0
 20
0.0
 30
0.0
 70
   128
 71
    77
 72
    78
 73
   -90
 74
   -77
  0
VERTEX
  5
266
  8
0
 62
   213
 10
0.0
 20
0.0
 30
0.0
 70
   128
 71
    90
 72
    89
 73
   -77
 74
   -90
  0
VERTEX
  5
267
  8
0
 62
   213
 10
0.0
 20
0.0
 30
0.0
 70
   128
 71
    78
 72
    79
 73
   -91
 74
   -78
  0
VERTEX
  5
268
  8
0
 62
   213
 10
0.0
 20
0.0
 30
0.0
 70
   128
 71
    91
 72
    90
 73
   -78
 74
   -91
  0
VERTEX
  5
269
  8
0
 62
   213
 10
0.0
 20
0.0
 30
0.0
 70
   128
 71
    79
 72
    80
 73
   -92
 74
   -79
  0
VERTEX
  5
26A
  8
0
 62
   213
 10
0.0
 20
0.0
 30
0.0
 70
   128
 71
    92
 72
    91
 73
   -79
 74
   -92
  0
VERTEX
  5
26B
  8
0
 62
   213
 10
0.0
 20
0.0
 30
0.0
 70
   128
 71
    80
 72
    81
 73
   -93
 74
   -80
  0
VERTEX
  5
26C
  8
0
 62
   213
 10
0.0
 20
0.0
 30
0.0
 70
   128
 71
    93
 72
    92
 73
   -80
 74
   -93
  0
VERTEX
  5
26D
  8
0
 62
   213
 10
0.0
 20
0.0
 30
0.0
 70
   128
 71
    81
 72
    82
 73
   -94
 74
   -81
  0
VERTEX
  5
26E
  8
0
 62
   213
 10
0.0
 20
0.0
 30
0.0
 70
   128
 71
    94
 72
    93
 73
   -81
 74
   -94
  0
VERTEX
  5
26F
  8
0
 62
   213
 10
0.0
 20
0.0
 30
0.0
 70
   128
 71
    82
 72
    83
 73
   -95
 74
   -82
  0
VERTEX
  5
270
  8
0
 62
   213
 10
0.0
 20
0.0
 30
0.0
 70
   128
 71
    95
 72
    94
 73
   -82
 74
   -95
  0
VERTEX
  5
271
  8
0
 62
   213
 10
0.0
 20
0.0
 30
0.0
 70
   128
 71
    83
 72
    84
 73
   -96
 74
   -83
  0
VERTEX
  5
272
  8
0
 62
   213
 10
0.0
 20
0.0
 30
0.0
 70
   128
 71
    96
 72
    95
 73
   -83
 74
   -96
  0
VERTEX
  5
273
  8
0
 62
   213
 10
0.0
 20
0.0
 30
0.0
 70
   128
 71
    84
 72
    85
 73
   -97
 74
   -84
  0
VERTEX
  5
274
  8
0
 62
   213
 10
0.0
 20
0.0
 30
0.0
 70
   128
 71
    97
 72
    96
 73
   -84
 74
   -97
  0
VERTEX
  5
275
  8
0
 62
   213
 10
0.0
 20
0.0
 30
0.0
 70
   128
 71
    85
 72
    74
 73
   -86
 74
   -85
  0
VERTEX
  5
276
  8
0
 62
   213
 10
0.0
 20
0.0
 30
0.0
 70
   128
 71
    86
 72
    97
 73
   -85
 74
   -86
  0
VERTEX
  5
277
  8
0
 62
   213
 10
0.0
 20
0.0
 30
0.0
 70
   128
 71
    86
 72
    87
 73
   -99
 74
   -86
  0
VERTEX
  5
278
  8
0
 62
   213
 10
0.0
 20
0.0
 30
0.0
 70
   128
 71
    99
 72
    98
 73
   -86
 74
   -99
  0
VERTEX
  5
279
  8
0
 62
   213
 10
0.0
 20
0.0
 30
0.0
 70
   128
 71
    87
 72
    88
 73
  -100
 74
   -87
  0
VERTEX
  5
27A
  8
0
 62
   213
 10
0.0
 20
0.0
 30
0.0
 70
   128
 71
   100
 72
    99
 73
   -87
 74
  -100
  0
VERTEX
  5
27B
  8
0
 62
   213
 10
0.0
 20
0.0
 30
0.0
 70
   128
 71
    88
 72
    89
 73
  -101
 74
   -88
  0
VERTEX
  5
27C
  8
0
 62
   213
 10
0.0
 20
0.0
 30
0.0
 70
   128
 71
   101
 72
   100
 73
   -88
 74
  -101
  0
VERTEX
  5
27D
  8
0
 62
   213
 10
0.0
 20
0.0
 30
0.0
 70
   128
 71
    89
 72
    90
 73
  -102
 74
   -89
  0
VERTEX
  5
27E
  8
0
 62
   213
 10
0.0
 20
0.0
 30
0.0
 70
   128
 71
   102
 72
   101
 73
   -89
 74
  -102
  0
VERTEX
  5
27F
  8
0
 62
   213
 10
0.0
 20
0.0
 30
0.0
 70
   128
 71
    90
 72
    91
 73
  -103
 74
   -90
  0
VERTEX
  5
280
  8
0
 62
   213
 10
0.0
 20
0.0
 30
0.0
 70
   128
 71
   103
 72
   102
 73
   -90
 74
  -103
  0
VERTEX
  5
281
  8
0
 62
   213
 10
0.0
 20
0.0
 30
0.0
 70
   128
 71
    91
 72
    92
 73
  -104
 74
   -91
  0
VERTEX
  5
282
  8
0
 62
   213
 10
0.0
 20
0.0
 30
0.0
 70
   128
 71
   104
 72
   103
 73
   -91
 74
  -104
  0
VERTEX
  5
283
  8
0
 62
   213
 10
0.0
 20
0.0
 30
0.0
 70
   128
 71
    92
 72
    93
 73
  -105
 74
   -92
  0
VERTEX
  5
284
  8
0
 62
   213
 10
0.0
 20
0.0
 30
0.0
 70
   128
 71
   105
 72
   104
 73
   -92
 74
  -105
  0
VERTEX
  5
285
  8
0
 62
   213
 10
0.0
 20
0.0
 30
0.0
 70
   128
 71
    93
 72
    94
 73
  -106
 74
   -93
  0
VERTEX
  5
286
  8
0
 62
   213
 10
0.0
 20
0.0
 30
0.0
 70
   128
 71
   106
 72
   105
 73
   -93
 74
  -106
  0
VERTEX
  5
287
  8
0
 62
   213
 10
0.0
 20
0.0
 30
0.0
 70
   128
 71
    94
 72
    95
 73
  -107
 74
   -94
  0
VERTEX
  5
288
  8
0
 62
   213
 10
0.0
 20
0.0
 30
0.0
 70
   128
 71
   107
 72
   106
 73
   -94
 74
  -107
  0
VERTEX
  5
289
  8
0
 62
   213
 10
0.0
 20
0.0
 30
0.0
 70
   128
 71
    95
 72
    96
 73
  -108
 74
   -95
  0
VERTEX
  5
28A
  8
0
 62
   213
 10
0.0
 20
0.0
 30
0.0
 70
   128
 71
   108
 72
   107
 73
   -95
 74
  -108
  0
VERTEX
  5
28B
  8
0
 62
   213
 10
0.0
 20
0.0
 30
0.0
 70
   128
 71
    96
 72
    97
 73
  -109
 74
   -96
  0
VERTEX
  5
28C
  8
0
 62
   213
 10
0.0
 20
0.0
 30
0.0
 70
   128
 71
   109
 72
   108
 73
   -96
 74
  -109
  0
VERTEX
  5
28D
  8
0
 62
   213
 10
0.0
 20
0.0
 30
0.0
 70
   128
 71
    97
 72
    86
 73
   -98
 74
   -97
  0
VERTEX
  5
28E
  8
0
 62
   213
 10
0.0
 20
0.0
 30
0.0
 70
   128
 71
    98
 72
   109
 73
   -97
 74
   -98
  0
VERTEX
  5
28F
  8
0
 62
   213
 10
0.0
 20
0.0
 30
0.0
 70
   128
 71
    38
 72
  -110
 73
    39
 74
   -38
  0
VERTEX
  5
290
  8
0
 62
   213
 10
0.0
 20
0.0
 30
0.0
 70
   128
 71
   111
 72
   -39
 73
   110
 74
  -111
  0
VERTEX
  5
291
  8
0
 62
   213
 10
0.0
 20
0.0
 30
0.0
 70
   128
 71
    39
 72
  -111
 73
    40
 74
   -39
  0
VERTEX
  5
292
  8
0
 62
   213
 10
0.0
 20
0.0
 30
0.0
 70
   128
 71
   112
 72
   -40
 73
   111
 74
  -112
  0
VERTEX
  5
293
  8
0
 62
   213
 10
0.0
 20
0.0
 30
0.0
 70
   128
 71
    40
 72
  -112
 73
    41
 74
   -40
  0
VERTEX
  5
294
  8
0
 62
   213
 10
0.0
 20
0.0
 30
0.0
 70
   128
 71
   113
 72
   -41
 73
   112
 74
  -113
  0
VERTEX
  5
295
  8
0
 62
   213
 10
0.0
 20
0.0
 30
0.0
 70
   128
 71
    41
 72
  -113
 73
    42
 74
   -41
  0
VERTEX
  5
296
  8
0
 62
   213
 10
0.0
 20
0.0
 30
0.0
 70
   128
 71
   114
 72
   -42
 73
   113
 74
  -114
  0
VERTEX
  5
297
  8
0
 62
   213
 10
0.0
 20
0.0
 30
0.0
 70
   128
 71
    42
 72
  -114
 73
    43
 74
   -42
  0
VERTEX
  5
298
  8
0
 62
   213
 10
0.0
 20
0.0
 30
0.0
 70
   128
 71
   115
 72
   -43
 73
   114
 74
  -115
  0
VERTEX
  5
299
  8
0
 62
   213
 10
0.0
 20
0.0
 30
0.0
 70
   128
 71
    43
 72
  -115
 73
    44
 74
   -43
  0
VERTEX
  5
29A
  8
0
 62
   213
 10
0.0
 20
0.0
 30
0.0
 70
   128
 71
   116
 72
   -44
 73
   115
 74
  -116
  0
VERTEX
  5
29B
  8
0
 62
   213
 10
0.0
 20
0.0
 30
0.0
 70
   128
 71
    44
 72
  -116
 73
    45
 74
   -44
  0
VERTEX
  5
29C
  8
0
 62
   213
 10
0.0
 20
0.0
 30
0.0
 70
   128
 71
   117
 72
   -45
 73
   116
 74
  -117
  0
VERTEX
  5
29D
  8
0
 62
   213
 10
0.0
 20
0.0
 30
0.0
 70
   128
 71
    45
 72
  -117
 73
    46
 74
   -45
  0
VERTEX
  5
29E
  8
0
 62
   213
 10
0.0
 20
0.0
 30
0.0
 70
   128
 71
   118
 72
   -46
 73
   117
 74
  -118
  0
VERTEX
  5
29F
  8
0
 62
   213
 10
0.0
 20
0.0
 30
0.0
 70
   128
 71
    46
 72
  -118
 73
    47
 74
   -46
  0
VERTEX
  5
2A0
  8
0
 62
   213
 10
0.0
 20
0.0
 30
0.0
 70
   128
 71
   119
 72
   -47
 73
   118
 74
  -119
  0
VERTEX
  5
2A1
  8
0
 62
   213
 10
0.0
 20
0.0
 30
0.0
 70
   128
 71
    47
 72
  -119
 73
    48
 74
   -47
  0
VERTEX
  5
2A2
  8
0
 62
   213
 10
0.0
 20
0.0
 30
0.0
 70
   128
 71
   120
 72
   -48
 73
   119
 74
  -120
  0
VERTEX
  5
2A3
  8
0
 62
   213
 10
0.0
 20
0.0
 30
0.0
 70
   128
 71
    48
 72
  -120
 73
    49
 74
   -48
  0
VERTEX
  5
2A4
  8
0
 62
   213
 10
0.0
 20
0.0
 30
0.0
 70
   128
 71
   121
 72
   -49
 73
   120
 74
  -121
  0
VERTEX
  5
2A5
  8
0
 62
   213
 10
0.0
 20
0.0
 30
0.0
 70
   128
 71
   110
 72
   -38
 73
   121
 74
  -110
  0
VERTEX
  5
2A6
  8
0
 62
   213
 10
0.0
 20
0.0
 30
0.0
 70
   128
 71
    49
 72
  -121
 73
    38
 74
   -49
  0
VERTEX
  5
2A7
  8
0
 62
   213
 10
0.0
 20
0.0
 30
0.0
 70
   128
 71
  -122
 72
   135
 73
   134
 74
  -122
  0
VERTEX
  5
2A8
  8
0
 62
   213
 10
0.0
 20
0.0
 30
0.0
 70
   128
 71
   122
 72
   123
 73
  -135
 74
  -122
  0
VERTEX
  5
2A9
  8
0
 62
   213
 10
0.0
 20
0.0
 30
0.0
 70
   128
 71
  -123
 72
   136
 73
   135
 74
  -123
  0
VERTEX
  5
2AA
  8
0
 62
   213
 10
0.0
 20
0.0
 30
0.0
 70
   128
 71
   123
 72
   124
 73
  -136
 74
  -123
  0
VERTEX
  5
2AB
  8
0
 62
   213
 10
0.0
 20
0.0
 30
0.0
 70
   128
 71
  -124
 72
   137
 73
   136
 74
  -124
  0
VERTEX
  5
2AC
  8
0
 62
   213
 10
0.0
 20
0.0
 30
0.0
 70
   128
 71
   124
 72
   125
 73
  -137
 74
  -124
  0
VERTEX
  5
2AD
  8
0
 62
   213
 10
0.0
 20
0.0
 30
0.0
 70
   128
 71
  -125
 72
   138
 73
   137
 74
  -125
  0
VERTEX
  5
2AE
  8
0
 62
   213
 10
0.0
 20
0.0
 30
0.0
 70
   128
 71
   125
 72
   126
 73
  -138
 74
  -125
  0
VERTEX
  5
2AF
  8
0
 62
   213
 10
0.0
 20
0.0
 30
0.0
 70
   128
 71
  -126
 72
   139
 73
   138
 74
  -126
  0
VERTEX
  5
2B0
  8
0
 62
   213
 10
0.0
 20
0.0
 30
0.0
 70
   128
 71
   126
 72
   127
 73
  -139
 74
  -126
  0
VERTEX
  5
2B1
  8
0
 62
   213
 10
0.0
 20
0.0
 30
0.0
 70
   128
 71
  -127
 72
   140
 73
   139
 74
  -127
  0
VERTEX
  5
2B2
  8
0
 62
   213
 10
0.0
 20
0.0
 30
0.0
 70
   128
 71
   127
 72
   128
 73
  -140
 74
  -127
  0
VERTEX
  5
2B3
  8
0
 62
   213
 10
0.0
 20
0.0
 30
0.0
 70
   128
 71
  -128
 72
   141
 73
   140
 74
  -128
  0
VERTEX
  5
2B4
  8
0
 62
   213
 10
0.0
 20
0.0
 30
0.0
 70
   128
 71
   128
 72
   129
 73
  -141
 74
  -128
  0
VERTEX
  5
2B5
  8
0
 62
   213
 10
0.0
 20
0.0
 30
0.0
 70
   128
 71
  -129
 72
   142
 73
   141
 74
  -129
  0
VERTEX
  5
2B6
  8
0
 62
   213
 10
0.0
 20
0.0
 30
0.0
 70
   128
 71
   129
 72
   130
 73
  -142
 74
  -129
  0
VERTEX
  5
2B7
  8
0
 62
   213
 10
0.0
 20
0.0
 30
0.0
 70
   128
 71
  -130
 72
   143
 73
   142
 74
  -130
  0
VERTEX
  5
2B8
  8
0
 62
   213
 10
0.0
 20
0.0
 30
0.0
 70
   128
 71
   130
 72
   131
 73
  -143
 74
  -130
  0
VERTEX
  5
2B9
  8
0
 62
   213
 10
0.0
 20
0.0
 30
0.0
 70
   128
 71
  -131
 72
   144
 73
   143
 74
  -131
  0
VERTEX
  5
2BA
  8
0
 62
   213
 10
0.0
 20
0.0
 30
0.0
 70
   128
 71
   131
 72
   132
 73
  -144
 74
  -131
  0
VERTEX
  5
2BB
  8
0
 62
   213
 10
0.0
 20
0.0
 30
0.0
 70
   128
 71
  -132
 72
   145
 73
   144
 74
  -132
  0
VERTEX
  5
2BC
  8
0
 62
   213
 10
0.0
 20
0.0
 30
0.0
 70
   128
 71
   132
 72
   133
 73
  -145
 74
  -132
  0
VERTEX
  5
2BD
  8
0
 62
   213
 10
0.0
 20
0.0
 30
0.0
 70
   128
 71
  -133
 72
   134
 73
   145
 74
  -133
  0
VERTEX
  5
2BE
  8
0
 62
   213
 10
0.0
 20
0.0
 30
0.0
 70
   128
 71
   133
 72
   122
 73
  -134
 74
  -133
  0
VERTEX
  5
2BF
  8
0
 62
   213
 10
0.0
 20
0.0
 30
0.0
 70
   128
 71
  -146
 72
   219
 73
  -220
 74
  -146
  0
VERTEX
  5
2C0
  8
0
 62
   213
 10
0.0
 20
0.0
 30
0.0
 70
   128
 71
  -146
 72
   220
 73
  -221
 74
  -146
  0
VERTEX
  5
2C1
  8
0
 62
   213
 10
0.0
 20
0.0
 30
0.0
 70
   128
 71
  -146
 72
   221
 73
  -222
 74
  -146
  0
VERTEX
  5
2C2
  8
0
 62
   213
 10
0.0
 20
0.0
 30
0.0
 70
   128
 71
  -146
 72
   222
 73
  -223
 74
  -146
  0
VERTEX
  5
2C3
  8
0
 62
   213
 10
0.0
 20
0.0
 30
0.0
 70
   128
 71
  -146
 72
   223
 73
  -224
 74
  -146
  0
VERTEX
  5
2C4
  8
0
 62
   213
 10
0.0
 20
0.0
 30
0.0
 70
   128
 71
  -146
 72
   224
 73
  -225
 74
  -146
  0
VERTEX
  5
2C5
  8
0
 62
   213
 10
0.0
 20
0.0
 30
0.0
 70
   128
 71
  -146
 72
   225
 73
  -226
 74
  -146
  0
VERTEX
  5
2C6
  8
0
 62
   213
 10
0.0
 20
0.0
 30
0.0
 70
   128
 71
  -146
 72
   226
 73
  -227
 74
  -146
  0
VERTEX
  5
2C7
  8
0
 62
   213
 10
0.0
 20
0.0
 30
0.0
 70
   128
 71
  -146
 72
   227
 73
  -228
 74
  -146
  0
VERTEX
  5
2C8
  8
0
 62
   213
 10
0.0
 20
0.0
 30
0.0
 70
   128
 71
  -146
 72
   228
 73
  -229
 74
  -146
  0
VERTEX
  5
2C9
  8
0
 62
   213
 10
0.0
 20
0.0
 30
0.0
 70
   128
 71
  -146
 72
   229
 73
  -230
 74
  -146
  0
VERTEX
  5
2CA
  8
0
 62
   213
 10
0.0
 20
0.0
 30
0.0
 70
   128
 71
  -146
 72
   230
 73
  -219
 74
  -146
  0
VERTEX
  5
2CB
  8
0
 62
   213
 10
0.0
 20
0.0
 30
0.0
 70
   128
 71
   134
 72
   135
 73
  -148
 74
  -134
  0
VERTEX
  5
2CC
  8
0
 62
   213
 10
0.0
 20
0.0
 30
0.0
 70
   128
 71
   148
 72
   147
 73
  -134
 74
  -148
  0
VERTEX
  5
2CD
  8
0
 62
   213
 10
0.0
 20
0.0
 30
0.0
 70
   128
 71
   135
 72
   136
 73
  -149
 74
  -135
  0
VERTEX
  5
2CE
  8
0
 62
   213
 10
0.0
 20
0.0
 30
0.0
 70
   128
 71
   149
 72
   148
 73
  -135
 74
  -149
  0
VERTEX
  5
2CF
  8
0
 62
   213
 10
0.0
 20
0.0
 30
0.0
 70
   128
 71
   136
 72
   137
 73
  -150
 74
  -136
  0
VERTEX
  5
2D0
  8
0
 62
   213
 10
0.0
 20
0.0
 30
0.0
 70
   128
 71
   150
 72
   149
 73
  -136
 74
  -150
  0
VERTEX
  5
2D1
  8
0
 62
   213
 10
0.0
 20
0.0
 30
0.0
 70
   128
 71
   137
 72
   138
 73
  -151
 74
  -137
  0
VERTEX
  5
2D2
  8
0
 62
   213
 10
0.0
 20
0.0
 30
0.0
 70
   128
 71
   151
 72
   150
 73
  -137
 74
  -151
  0
VERTEX
  5
2D3
  8
0
 62
   213
 10
0.0
 20
0.0
 30
0.0
 70
   128
 71
   138
 72
   139
 73
  -152
 74
  -138
  0
VERTEX
  5
2D4
  8
0
 62
   213
 10
0.0
 20
0.0
 30
0.0
 70
   128
 71
   152
 72
   151
 73
  -138
 74
  -152
  0
VERTEX
  5
2D5
  8
0
 62
   213
 10
0.0
 20
0.0
 30
0.0
 70
   128
 71
   139
 72
   140
 73
  -153
 74
  -139
  0
VERTEX
  5
2D6
  8
0
 62
   213
 10
0.0
 20
0.0
 30
0.0
 70
   128
 71
   153
 72
   152
 73
  -139
 74
  -153
  0
VERTEX
  5
2D7
  8
0
 62
   213
 10
0.0
 20
0.0
 30
0.0
 70
   128
 71
   140
 72
   141
 73
  -154
 74
  -140
  0
VERTEX
  5
2D8
  8
0
 62
   213
 10
0.0
 20
0.0
 30
0.0
 70
   128
 71
   154
 72
   153
 73
  -140
 74
  -154
  0
VERTEX
  5
2D9
  8
0
 62
   213
 10
0.0
 20
0.0
 30
0.0
 70
   128
 71
   141
 72
   142
 73
  -155
 74
  -141
  0
VERTEX
  5
2DA
  8
0
 62
   213
 10
0.0
 20
0.0
 30
0.0
 70
   128
 71
   155
 72
   154
 73
  -141
 74
  -155
  0
VERTEX
  5
2DB
  8
0
 62
   213
 10
0.0
 20
0.0
 30
0.0
 70
   128
 71
   142
 72
   143
 73
  -156
 74
  -142
  0
VERTEX
  5
2DC
  8
0
 62
   213
 10
0.0
 20
0.0
 30
0.0
 70
   128
 71
   156
 72
   155
 73
  -142
 74
  -156
  0
VERTEX
  5
2DD
  8
0
 62
   213
 10
0.0
 20
0.0
 30
0.0
 70
   128
 71
   143
 72
   144
 73
  -157
 74
  -143
  0
VERTEX
  5
2DE
  8
0
 62
   213
 10
0.0
 20
0.0
 30
0.0
 70
   128
 71
   157
 72
   156
 73
  -143
 74
  -157
  0
VERTEX
  5
2DF
  8
0
 62
   213
 10
0.0
 20
0.0
 30
0.0
 70
   128
 71
   144
 72
   145
 73
  -158
 74
  -144
  0
VERTEX
  5
2E0
  8
0
 62
   213
 10
0.0
 20
0.0
 30
0.0
 70
   128
 71
   158
 72
   157
 73
  -144
 74
  -158
  0
VERTEX
  5
2E1
  8
0
 62
   213
 10
0.0
 20
0.0
 30
0.0
 70
   128
 71
   145
 72
   134
 73
  -147
 74
  -145
  0
VERTEX
  5
2E2
  8
0
 62
   213
 10
0.0
 20
0.0
 30
0.0
 70
   128
 71
   147
 72
   158
 73
  -145
 74
  -147
  0
VERTEX
  5
2E3
  8
0
 62
   213
 10
0.0
 20
0.0
 30
0.0
 70
   128
 71
   147
 72
   148
 73
  -232
 74
  -147
  0
VERTEX
  5
2E4
  8
0
 62
   213
 10
0.0
 20
0.0
 30
0.0
 70
   128
 71
   232
 72
   231
 73
  -147
 74
  -232
  0
VERTEX
  5
2E5
  8
0
 62
   213
 10
0.0
 20
0.0
 30
0.0
 70
   128
 71
   148
 72
   149
 73
  -233
 74
  -148
  0
VERTEX
  5
2E6
  8
0
 62
   213
 10
0.0
 20
0.0
 30
0.0
 70
   128
 71
   233
 72
   232
 73
  -148
 74
  -233
  0
VERTEX
  5
2E7
  8
0
 62
   213
 10
0.0
 20
0.0
 30
0.0
 70
   128
 71
   149
 72
   150
 73
  -234
 74
  -149
  0
VERTEX
  5
2E8
  8
0
 62
   213
 10
0.0
 20
0.0
 30
0.0
 70
   128
 71
   234
 72
   233
 73
  -149
 74
  -234
  0
VERTEX
  5
2E9
  8
0
 62
   213
 10
0.0
 20
0.0
 30
0.0
 70
   128
 71
   150
 72
   151
 73
  -235
 74
  -150
  0
VERTEX
  5
2EA
  8
0
 62
   213
 10
0.0
 20
0.0
 30
0.0
 70
   128
 71
   235
 72
   234
 73
  -150
 74
  -235
  0
VERTEX
  5
2EB
  8
0
 62
   213
 10
0.0
 20
0.0
 30
0.0
 70
   128
 71
   151
 72
   152
 73
  -236
 74
  -151
  0
VERTEX
  5
2EC
  8
0
 62
   213
 10
0.0
 20
0.0
 30
0.0
 70
   128
 71
   236
 72
   235
 73
  -151
 74
  -236
  0
VERTEX
  5
2ED
  8
0
 62
   213
 10
0.0
 20
0.0
 30
0.0
 70
   128
 71
   152
 72
   153
 73
  -237
 74
  -152
  0
VERTEX
  5
2EE
  8
0
 62
   213
 10
0.0
 20
0.0
 30
0.0
 70
   128
 71
   237
 72
   236
 73
  -152
 74
  -237
  0
VERTEX
  5
2EF
  8
0
 62
   213
 10
0.0
 20
0.0
 30
0.0
 70
   128
 71
   153
 72
   154
 73
  -238
 74
  -153
  0
VERTEX
  5
2F0
  8
0
 62
   213
 10
0.0
 20
0.0
 30
0.0
 70
   128
 71
   238
 72
   237
 73
  -153
 74
  -238
  0
VERTEX
  5
2F1
  8
0
 62
   213
 10
0.0
 20
0.0
 30
0.0
 70
   128
 71
   154
 72
   155
 73
  -239
 74
  -154
  0
VERTEX
  5
2F2
  8
0
 62
   213
 10
0.0
 20
0.0
 30
0.0
 70
   128
 71
   239
 72
   238
 73
  -154
 74
  -239
  0
VERTEX
  5
2F3
  8
0
 62
   213
 10
0.0
 20
0.0
 30
0.0
 70
   128
 71
   155
 72
   156
 73
  -240
 74
  -155
  0
VERTEX
  5
2F4
  8
0
 62
   213
 10
0.0
 20
0.0
 30
0.0
 70
   128
 71
   240
 72
   239
 73
  -155
 74
  -240
  0
VERTEX
  5
2F5
  8
0
 62
   213
 10
0.0
 20
0.0
 30
0.0
 70
   128
 71
   156
 72
   157
 73
  -241
 74
  -156
  0
VERTEX
  5
2F6
  8
0
 62
   213
 10
0.0
 20
0.0
 30
0.0
 70
   128
 71
   241
 72
   240
 73
  -156
 74
  -241
  0
VERTEX
  5
2F7
  8
0
 62
   213
 10
0.0
 20
0.0
 30
0.0
 70
   128
 71
   157
 72
   158
 73
  -242
 74
  -157
  0
VERTEX
  5
2F8
  8
0
 62
   213
 10
0.0
 20
0.0
 30
0.0
 70
   128
 71
   242
 72
   241
 73
  -157
 74
  -242
  0
VERTEX
  5
2F9
  8
0
 62
   213
 10
0.0
 20
0.0
 30
0.0
 70
   128
 71
   158
 72
   147
 73
  -231
 74
  -158
  0
VERTEX
  5
2FA
  8
0
 62
   213
 10
0.0
 20
0.0
 30
0.0
 70
   128
 71
   231
 72
   242
 73
  -158
 74
  -231
  0
VERTEX
  5
2FB
  8
0
 62
   213
 10
0.0
 20
0.0
 30
0.0
 70
   128
 71
   159
 72
   160
 73
  -172
 74
  -159
  0
VERTEX
  5
2FC
  8
0
 62
   213
 10
0.0
 20
0.0
 30
0.0
 70
   128
 71
   172
 72
   171
 73
  -159
 74
  -172
  0
VERTEX
  5
2FD
  8
0
 62
   213
 10
0.0
 20
0.0
 30
0.0
 70
   128
 71
   160
 72
   161
 73
  -173
 74
  -160
  0
VERTEX
  5
2FE
  8
0
 62
   213
 10
0.0
 20
0.0
 30
0.0
 70
   128
 71
   173
 72
   172
 73
  -160
 74
  -173
  0
VERTEX
  5
2FF
  8
0
 62
   213
 10
0.0
 20
0.0
 30
0.0
 70
   128
 71
   161
 72
   162
 73
  -174
 74
  -161
  0
VERTEX
  5
300
  8
0
 62
   213
 10
0.0
 20
0.0
 30
0.0
 70
   128
 71
   174
 72
   173
 73
  -161
 74
  -174
  0
VERTEX
  5
301
  8
0
 62
   213
 10
0.0
 20
0.0
 30
0.0
 70
   128
 71
   162
 72
   163
 73
  -175
 74
  -162
  0
VERTEX
  5
302
  8
0
 62
   213
 10
0.0
 20
0.0
 30
0.0
 70
   128
 71
   175
 72
   174
 73
  -162
 74
  -175
  0
VERTEX
  5
303
  8
0
 62
   213
 10
0.0
 20
0.0
 30
0.0
 70
   128
 71
   163
 72
   164
 73
  -176
 74
  -163
  0
VERTEX
  5
304
  8
0
 62
   213
 10
0.0
 20
0.0
 30
0.0
 70
   128
 71
   176
 72
   175
 73
  -163
 74
  -176
  0
VERTEX
  5
305
  8
0
 62
   213
 10
0.0
 20
0.0
 30
0.0
 70
   128
 71
   164
 72
   165
 73
  -177
 74
  -164
  0
VERTEX
  5
306
  8
0
 62
   213
 10
0.0
 20
0.0
 30
0.0
 70
   128
 71
   177
 72
   176
 73
  -164
 74
  -177
  0
VERTEX
  5
307
  8
0
 62
   213
 10
0.0
 20
0.0
 30
0.0
 70
   128
 71
   165
 72
   166
 73
  -178
 74
  -165
  0
VERTEX
  5
308
  8
0
 62
   213
 10
0.0
 20
0.0
 30
0.0
 70
   128
 71
   178
 72
   177
 73
  -165
 74
  -178
  0
VERTEX
  5
309
  8
0
 62
   213
 10
0.0
 20
0.0
 30
0.0
 70
   128
 71
   166
 72
   167
 73
  -179
 74
  -166
  0
VERTEX
  5
30A
  8
0
 62
   213
 10
0.0
 20
0.0
 30
0.0
 70
   128
 71
   179
 72
   178
 73
  -166
 74
  -179
  0
VERTEX
  5
30B
  8
0
 62
   213
 10
0.0
 20
0.0
 30
0.0
 70
   128
 71
   167
 72
   168
 73
  -180
 74
  -167
  0
VERTEX
  5
30C
  8
0
 62
   213
 10
0.0
 20
0.0
 30
0.0
 70
   128
 71
   180
 72
   179
 73
  -167
 74
  -180
  0
VERTEX
  5
30D
  8
0
 62
   213
 10
0.0
 20
0.0
 30
0.0
 70
   128
 71
   168
 72
   169
 73
  -181
 74
  -168
  0
VERTEX
  5
30E
  8
0
 62
   213
 10
0.0
 20
0.0
 30
0.0
 70
   128
 71
   181
 72
   180
 73
  -168
 74
  -181
  0
VERTEX
  5
30F
  8
0
 62
   213
 10
0.0
 20
0.0
 30
0.0
 70
   128
 71
   169
 72
   170
 73
  -182
 74
  -169
  0
VERTEX
  5
310
  8
0
 62
   213
 10
0.0
 20
0.0
 30
0.0
 70
   128
 71
   182
 72
   181
 73
  -169
 74
  -182
  0
VERTEX
  5
311
  8
0
 62
   213
 10
0.0
 20
0.0
 30
0.0
 70
   128
 71
   170
 72
   159
 73
  -171
 74
  -170
  0
VERTEX
  5
312
  8
0
 62
   213
 10
0.0
 20
0.0
 30
0.0
 70
   128
 71
   171
 72
   182
 73
  -170
 74
  -171
  0
VERTEX
  5
313
  8
0
 62
   213
 10
0.0
 20
0.0
 30
0.0
 70
   128
 71
   171
 72
   172
 73
  -184
 74
  -171
  0
VERTEX
  5
314
  8
0
 62
   213
 10
0.0
 20
0.0
 30
0.0
 70
   128
 71
   184
 72
   183
 73
  -171
 74
  -184
  0
VERTEX
  5
315
  8
0
 62
   213
 10
0.0
 20
0.0
 30
0.0
 70
   128
 71
   172
 72
   173
 73
  -185
 74
  -172
  0
VERTEX
  5
316
  8
0
 62
   213
 10
0.0
 20
0.0
 30
0.0
 70
   128
 71
   185
 72
   184
 73
  -172
 74
  -185
  0
VERTEX
  5
317
  8
0
 62
   213
 10
0.0
 20
0.0
 30
0.0
 70
   128
 71
   173
 72
   174
 73
  -186
 74
  -173
  0
VERTEX
  5
318
  8
0
 62
   213
 10
0.0
 20
0.0
 30
0.0
 70
   128
 71
   186
 72
   185
 73
  -173
 74
  -186
  0
VERTEX
  5
319
  8
0
 62
   213
 10
0.0
 20
0.0
 30
0.0
 70
   128
 71
   174
 72
   175
 73
  -187
 74
  -174
  0
VERTEX
  5
31A
  8
0
 62
   213
 10
0.0
 20
0.0
 30
0.0
 70
   128
 71
   187
 72
   186
 73
  -174
 74
  -187
  0
VERTEX
  5
31B
  8
0
 62
   213
 10
0.0
 20
0.0
 30
0.0
 70
   128
 71
   175
 72
   176
 73
  -188
 74
  -175
  0
VERTEX
  5
31C
  8
0
 62
   213
 10
0.0
 20
0.0
 30
0.0
 70
   128
 71
   188
 72
   187
 73
  -175
 74
  -188
  0
VERTEX
  5
31D
  8
0
 62
   213
 10
0.0
 20
0.0
 30
0.0
 70
   128
 71
   176
 72
   177
 73
  -189
 74
  -176
  0
VERTEX
  5
31E
  8
0
 62
   213
 10
0.0
 20
0.0
 30
0.0
 70
   128
 71
   189
 72
   188
 73
  -176
 74
  -189
  0
VERTEX
  5
31F
  8
0
 62
   213
 10
0.0
 20
0.0
 30
0.0
 70
   128
 71
   177
 72
   178
 73
  -190
 74
  -177
  0
VERTEX
  5
320
  8
0
 62
   213
 10
0.0
 20
0.0
 30
0.0
 70
   128
 71
   190
 72
   189
 73
  -177
 74
  -190
  0
VERTEX
  5
321
  8
0
 62
   213
 10
0.0
 20
0.0
 30
0.0
 70
   128
 71
   178
 72
   179
 73
  -191
 74
  -178
  0
VERTEX
  5
322
  8
0
 62
   213
 10
0.0
 20
0.0
 30
0.0
 70
   128
 71
   191
 72
   190
 73
  -178
 74
  -191
  0
VERTEX
  5
323
  8
0
 62
   213
 10
0.0
 20
0.0
 30
0.0
 70
   128
 71
   179
 72
   180
 73
  -192
 74
  -179
  0
VERTEX
  5
324
  8
0
 62
   213
 10
0.0
 20
0.0
 30
0.0
 70
   128
 71
   192
 72
   191
 73
  -179
 74
  -192
  0
VERTEX
  5
325
  8
0
 62
   213
 10
0.0
 20
0.0
 30
0.0
 70
   128
 71
   180
 72
   181
 73
  -193
 74
  -180
  0
VERTEX
  5
326
  8
0
 62
   213
 10
0.0
 20
0.0
 30
0.0
 70
   128
 71
   193
 72
   192
 73
  -180
 74
  -193
  0
VERTEX
  5
327
  8
0
 62
   213
 10
0.0
 20
0.0
 30
0.0
 70
   128
 71
   181
 72
   182
 73
  -194
 74
  -181
  0
VERTEX
  5
328
  8
0
 62
   213
 10
0.0
 20
0.0
 30
0.0
 70
   128
 71
   194
 72
   193
 73
  -181
 74
  -194
  0
VERTEX
  5
329
  8
0
 62
   213
 10
0.0
 20
0.0
 30
0.0
 70
   128
 71
   182
 72
   171
 73
  -183
 74
  -182
  0
VERTEX
  5
32A
  8
0
 62
   213
 10
0.0
 20
0.0
 30
0.0
 70
   128
 71
   183
 72
   194
 73
  -182
 74
  -183
  0
VERTEX
  5
32B
  8
0
 62
   213
 10
0.0
 20
0.0
 30
0.0
 70
   128
 71
   183
 72
   184
 73
  -196
 74
  -183
  0
VERTEX
  5
32C
  8
0
 62
   213
 10
0.0
 20
0.0
 30
0.0
 70
   128
 71
   196
 72
   195
 73
  -183
 74
  -196
  0
VERTEX
  5
32D
  8
0
 62
   213
 10
0.0
 20
0.0
 30
0.0
 70
   128
 71
   184
 72
   185
 73
  -197
 74
  -184
  0
VERTEX
  5
32E
  8
0
 62
   213
 10
0.0
 20
0.0
 30
0.0
 70
   128
 71
   197
 72
   196
 73
  -184
 74
  -197
  0
VERTEX
  5
32F
  8
0
 62
   213
 10
0.0
 20
0.0
 30
0.0
 70
   128
 71
   185
 72
   186
 73
  -198
 74
  -185
  0
VERTEX
  5
330
  8
0
 62
   213
 10
0.0
 20
0.0
 30
0.0
 70
   128
 71
   198
 72
   197
 73
  -185
 74
  -198
  0
VERTEX
  5
331
  8
0
 62
   213
 10
0.0
 20
0.0
 30
0.0
 70
   128
 71
   186
 72
   187
 73
  -199
 74
  -186
  0
VERTEX
  5
332
  8
0
 62
   213
 10
0.0
 20
0.0
 30
0.0
 70
   128
 71
   199
 72
   198
 73
  -186
 74
  -199
  0
VERTEX
  5
333
  8
0
 62
   213
 10
0.0
 20
0.0
 30
0.0
 70
   128
 71
   187
 72
   188
 73
  -200
 74
  -187
  0
VERTEX
  5
334
  8
0
 62
   213
 10
0.0
 20
0.0
 30
0.0
 70
   128
 71
   200
 72
   199
 73
  -187
 74
  -200
  0
VERTEX
  5
335
  8
0
 62
   213
 10
0.0
 20
0.0
 30
0.0
 70
   128
 71
   188
 72
   189
 73
  -201
 74
  -188
  0
VERTEX
  5
336
  8
0
 62
   213
 10
0.0
 20
0.0
 30
0.0
 70
   128
 71
   201
 72
   200
 73
  -188
 74
  -201
  0
VERTEX
  5
337
  8
0
 62
   213
 10
0.0
 20
0.0
 30
0.0
 70
   128
 71
   189
 72
   190
 73
  -202
 74
  -189
  0
VERTEX
  5
338
  8
0
 62
   213
 10
0.0
 20
0.0
 30
0.0
 70
   128
 71
   202
 72
   201
 73
  -189
 74
  -202
  0
VERTEX
  5
339
  8
0
 62
   213
 10
0.0
 20
0.0
 30
0.0
 70
   128
 71
   190
 72
   191
 73
  -203
 74
  -190
  0
VERTEX
  5
33A
  8
0
 62
   213
 10
0.0
 20
0.0
 30
0.0
 70
   128
 71
   203
 72
   202
 73
  -190
 74
  -203
  0
VERTEX
  5
33B
  8
0
 62
   213
 10
0.0
 20
0.0
 30
0.0
 70
   128
 71
   191
 72
   192
 73
  -204
 74
  -191
  0
VERTEX
  5
33C
  8
0
 62
   213
 10
0.0
 20
0.0
 30
0.0
 70
   128
 71
   204
 72
   203
 73
  -191
 74
  -204
  0
VERTEX
  5
33D
  8
0
 62
   213
 10
0.0
 20
0.0
 30
0.0
 70
   128
 71
   192
 72
   193
 73
  -205
 74
  -192
  0
VERTEX
  5
33E
  8
0
 62
   213
 10
0.0
 20
0.0
 30
0.0
 70
   128
 71
   205
 72
   204
 73
  -192
 74
  -205
  0
VERTEX
  5
33F
  8
0
 62
   213
 10
0.0
 20
0.0
 30
0.0
 70
   128
 71
   193
 72
   194
 73
  -206
 74
  -193
  0
VERTEX
  5
340
  8
0
 62
   213
 10
0.0
 20
0.0
 30
0.0
 70
   128
 71
   206
 72
   205
 73
  -193
 74
  -206
  0
VERTEX
  5
341
  8
0
 62
   213
 10
0.0
 20
0.0
 30
0.0
 70
   128
 71
   194
 72
   183
 73
  -195
 74
  -194
  0
VERTEX
  5
342
  8
0
 62
   213
 10
0.0
 20
0.0
 30
0.0
 70
   128
 71
   195
 72
   206
 73
  -194
 74
  -195
  0
VERTEX
  5
343
  8
0
 62
   213
 10
0.0
 20
0.0
 30
0.0
 70
   128
 71
   195
 72
   196
 73
  -208
 74
  -195
  0
VERTEX
  5
344
  8
0
 62
   213
 10
0.0
 20
0.0
 30
0.0
 70
   128
 71
   208
 72
   207
 73
  -195
 74
  -208
  0
VERTEX
  5
345
  8
0
 62
   213
 10
0.0
 20
0.0
 30
0.0
 70
   128
 71
   196
 72
   197
 73
  -209
 74
  -196
  0
VERTEX
  5
346
  8
0
 62
   213
 10
0.0
 20
0.0
 30
0.0
 70
   128
 71
   209
 72
   208
 73
  -196
 74
  -209
  0
VERTEX
  5
347
  8
0
 62
   213
 10
0.0
 20
0.0
 30
0.0
 70
   128
 71
   197
 72
   198
 73
  -210
 74
  -197
  0
VERTEX
  5
348
  8
0
 62
   213
 10
0.0
 20
0.0
 30
0.0
 70
   128
 71
   210
 72
   209
 73
  -197
 74
  -210
  0
VERTEX
  5
349
  8
0
 62
   213
 10
0.0
 20
0.0
 30
0.0
 70
   128
 71
   198
 72
   199
 73
  -211
 74
  -198
  0
VERTEX
  5
34A
  8
0
 62
   213
 10
0.0
 20
0.0
 30
0.0
 70
   128
 71
   211
 72
   210
 73
  -198
 74
  -211
  0
VERTEX
  5
34B
  8
0
 62
   213
 10
0.0
 20
0.0
 30
0.0
 70
   128
 71
   199
 72
   200
 73
  -212
 74
  -199
  0
VERTEX
  5
34C
  8
0
 62
   213
 10
0.0
 20
0.0
 30
0.0
 70
   128
 71
   212
 72
   211
 73
  -199
 74
  -212
  0
VERTEX
  5
34D
  8
0
 62
   213
 10
0.0
 20
0.0
 30
0.0
 70
   128
 71
   200
 72
   201
 73
  -213
 74
  -200
  0
VERTEX
  5
34E
  8
0
 62
   213
 10
0.0
 20
0.0
 30
0.0
 70
   128
 71
   213
 72
   212
 73
  -200
 74
  -213
  0
VERTEX
  5
34F
  8
0
 62
   213
 10
0.0
 20
0.0
 30
0.0
 70
   128
 71
   201
 72
   202
 73
  -214
 74
  -201
  0
VERTEX
  5
350
  8
0
 62
   213
 10
0.0
 20
0.0
 30
0.0
 70
   128
 71
   214
 72
   213
 73
  -201
 74
  -214
  0
VERTEX
  5
351
  8
0
 62
   213
 10
0.0
 20
0.0
 30
0.0
 70
   128
 71
   202
 72
   203
 73
  -215
 74
  -202
  0
VERTEX
  5
352
  8
0
 62
   213
 10
0.0
 20
0.0
 30
0.0
 70
   128
 71
   215
 72
   214
 73
  -202
 74
  -215
  0
VERTEX
  5
353
  8
0
 62
   213
 10
0.0
 20
0.0
 30
0.0
 70
   128
 71
   203
 72
   204
 73
  -216
 74
  -203
  0
VERTEX
  5
354
  8
0
 62
   213
 10
0.0
 20
0.0
 30
0.0
 70
   128
 71
   216
 72
   215
 73
  -203
 74
  -216
  0
VERTEX
  5
355
  8
0
 62
   213
 10
0.0
 20
0.0
 30
0.0
 70
   128
 71
   204
 72
   205
 73
  -217
 74
  -204
  0
VERTEX
  5
356
  8
0
 62
   213
 10
0.0
 20
0.0
 30
0.0
 70
   128
 71
   217
 72
   216
 73
  -204
 74
  -217
  0
VERTEX
  5
357
  8
0
 62
   213
 10
0.0
 20
0.0
 30
0.0
 70
   128
 71
   205
 72
   206
 73
  -218
 74
  -205
  0
VERTEX
  5
358
  8
0
 62
   213
 10
0.0
 20
0.0
 30
0.0
 70
   128
 71
   218
 72
   217
 73
  -205
 74
  -218
  0
VERTEX
  5
359
  8
0
 62
   213
 10
0.0
 20
0.0
 30
0.0
 70
   128
 71
   206
 72
   195
 73
  -207
 74
  -206
  0
VERTEX
  5
35A
  8
0
 62
   213
 10
0.0
 20
0.0
 30
0.0
 70
   128
 71
   207
 72
   218
 73
  -206
 74
  -207
  0
VERTEX
  5
35B
  8
0
 62
   213
 10
0.0
 20
0.0
 30
0.0
 70
   128
 71
   207
 72
   208
 73
  -220
 74
  -207
  0
VERTEX
  5
35C
  8
0
 62
   213
 10
0.0
 20
0.0
 30
0.0
 70
   128
 71
   220
 72
   219
 73
  -207
 74
  -220
  0
VERTEX
  5
35D
  8
0
 62
   213
 10
0.0
 20
0.0
 30
0.0
 70
   128
 71
   208
 72
   209
 73
  -221
 74
  -208
  0
VERTEX
  5
35E
  8
0
 62
   213
 10
0.0
 20
0.0
 30
0.0
 70
   128
 71
   221
 72
   220
 73
  -208
 74
  -221
  0
VERTEX
  5
35F
  8
0
 62
   213
 10
0.0
 20
0.0
 30
0.0
 70
   128
 71
   209
 72
   210
 73
  -222
 74
  -209
  0
VERTEX
  5
360
  8
0
 62
   213
 10
0.0
 20
0.0
 30
0.0
 70
   128
 71
   222
 72
   221
 73
  -209
 74
  -222
  0
VERTEX
  5
361
  8
0
 62
   213
 10
0.0
 20
0.0
 30
0.0
 70
   128
 71
   210
 72
   211
 73
  -223
 74
  -210
  0
VERTEX
  5
362
  8
0
 62
   213
 10
0.0
 20
0.0
 30
0.0
 70
   128
 71
   223
 72
   222
 73
  -210
 74
  -223
  0
VERTEX
  5
363
  8
0
 62
   213
 10
0.0
 20
0.0
 30
0.0
 70
   128
 71
   211
 72
   212
 73
  -224
 74
  -211
  0
VERTEX
  5
364
  8
0
 62
   213
 10
0.0
 20
0.0
 30
0.0
 70
   128
 71
   224
 72
   223
 73
  -211
 74
  -224
  0
VERTEX
  5
365
  8
0
 62
   213
 10
0.0
 20
0.0
 30
0.0
 70
   128
 71
   212
 72
   213
 73
  -225
 74
  -212
  0
VERTEX
  5
366
  8
0
 62
   213
 10
0.0
 20
0.0
 30
0.0
 70
   128
 71
   225
 72
   224
 73
  -212
 74
  -225
  0
VERTEX
  5
367
  8
0
 62
   213
 10
0.0
 20
0.0
 30
0.0
 70
   128
 71
   213
 72
   214
 73
  -226
 74
  -213
  0
VERTEX
  5
368
  8
0
 62
   213
 10
0.0
 20
0.0
 30
0.0
 70
   128
 71
   226
 72
   225
 73
  -213
 74
  -226
  0
VERTEX
  5
369
  8
0
 62
   213
 10
0.0
 20
0.0
 30
0.0
 70
   128
 71
   214
 72
   215
 73
  -227
 74
  -214
  0
VERTEX
  5
36A
  8
0
 62
   213
 10
0.0
 20
0.0
 30
0.0
 70
   128
 71
   227
 72
   226
 73
  -214
 74
  -227
  0
VERTEX
  5
36B
  8
0
 62
   213
 10
0.0
 20
0.0
 30
0.0
 70
   128
 71
   215
 72
   216
 73
  -228
 74
  -215
  0
VERTEX
  5
36C
  8
0
 62
   213
 10
0.0
 20
0.0
 30
0.0
 70
   128
 71
   228
 72
   227
 73
  -215
 74
  -228
  0
VERTEX
  5
36D
  8
0
 62
   213
 10
0.0
 20
0.0
 30
0.0
 70
   128
 71
   216
 72
   217
 73
  -229
 74
  -216
  0
VERTEX
  5
36E
  8
0
 62
   213
 10
0.0
 20
0.0
 30
0.0
 70
   128
 71
   229
 72
   228
 73
  -216
 74
  -229
  0
VERTEX
  5
36F
  8
0
 62
   213
 10
0.0
 20
0.0
 30
0.0
 70
   128
 71
   217
 72
   218
 73
  -230
 74
  -217
  0
VERTEX
  5
370
  8
0
 62
   213
 10
0.0
 20
0.0
 30
0.0
 70
   128
 71
   230
 72
   229
 73
  -217
 74
  -230
  0
VERTEX
  5
371
  8
0
 62
   213
 10
0.0
 20
0.0
 30
0.0
 70
   128
 71
   218
 72
   207
 73
  -219
 74
  -218
  0
VERTEX
  5
372
  8
0
 62
   213
 10
0.0
 20
0.0
 30
0.0
 70
   128
 71
   219
 72
   230
 73
  -218
 74
  -219
  0
VERTEX
  5
373
  8
0
 62
   213
 10
0.0
 20
0.0
 30
0.0
 70
   128
 71
   159
 72
  -231
 73
   160
 74
  -159
  0
VERTEX
  5
374
  8
0
 62
   213
 10
0.0
 20
0.0
 30
0.0
 70
   128
 71
   232
 72
  -160
 73
   231
 74
  -232
  0
VERTEX
  5
375
  8
0
 62
   213
 10
0.0
 20
0.0
 30
0.0
 70
   128
 71
   160
 72
  -232
 73
   161
 74
  -160
  0
VERTEX
  5
376
  8
0
 62
   213
 10
0.0
 20
0.0
 30
0.0
 70
   128
 71
   233
 72
  -161
 73
   232
 74
  -233
  0
VERTEX
  5
377
  8
0
 62
   213
 10
0.0
 20
0.0
 30
0.0
 70
   128
 71
   161
 72
  -233
 73
   162
 74
  -161
  0
VERTEX
  5
378
  8
0
 62
   213
 10
0.0
 20
0.0
 30
0.0
 70
   128
 71
   234
 72
  -162
 73
   233
 74
  -234
  0
VERTEX
  5
379
  8
0
 62
   213
 10
0.0
 20
0.0
 30
0.0
 70
   128
 71
   162
 72
  -234
 73
   163
 74
  -162
  0
VERTEX
  5
37A
  8
0
 62
   213
 10
0.0
 20
0.0
 30
0.0
 70
   128
 71
   235
 72
  -163
 73
   234
 74
  -235
  0
VERTEX
  5
37B
  8
0
 62
   213
 10
0.0
 20
0.0
 30
0.0
 70
   128
 71
   163
 72
  -235
 73
   164
 74
  -163
  0
VERTEX
  5
37C
  8
0
 62
   213
 10
0.0
 20
0.0
 30
0.0
 70
   128
 71
   236
 72
  -164
 73
   235
 74
  -236
  0
VERTEX
  5
37D
  8
0
 62
   213
 10
0.0
 20
0.0
 30
0.0
 70
   128
 71
   164
 72
  -236
 73
   165
 74
  -164
  0
VERTEX
  5
37E
  8
0
 62
   213
 10
0.0
 20
0.0
 30
0.0
 70
   128
 71
   237
 72
  -165
 73
   236
 74
  -237
  0
VERTEX
  5
37F
  8
0
 62
   213
 10
0.0
 20
0.0
 30
0.0
 70
   128
 71
   165
 72
  -237
 73
   166
 74
  -165
  0
VERTEX
  5
380
  8
0
 62
   213
 10
0.0
 20
0.0
 30
0.0
 70
   128
 71
   238
 72
  -166
 73
   237
 74
  -238
  0
VERTEX
  5
381
  8
0
 62
   213
 10
0.0
 20
0.0
 30
0.0
 70
   128
 71
   166
 72
  -238
 73
   167
 74
  -166
  0
VERTEX
  5
382
  8
0
 62
   213
 10
0.0
 20
0.0
 30
0.0
 70
   128
 71
   239
 72
  -167
 73
   238
 74
  -239
  0
VERTEX
  5
383
  8
0
 62
   213
 10
0.0
 20
0.0
 30
0.0
 70
   128
 71
   167
 72
  -239
 73
   168
 74
  -167
  0
VERTEX
  5
384
  8
0
 62
   213
 10
0.0
 20
0.0
 30
0.0
 70
   128
 71
   240
 72
  -168
 73
   239
 74
  -240
  0
VERTEX
  5
385
  8
0
 62
   213
 10
0.0
 20
0.0
 30
0.0
 70
   128
 71
   168
 72
  -240
 73
   169
 74
  -168
  0
VERTEX
  5
386
  8
0
 62
   213
 10
0.0
 20
0.0
 30
0.0
 70
   128
 71
   241
 72
  -169
 73
   240
 74
  -241
  0
VERTEX
  5
387
  8
0
 62
   213
 10
0.0
 20
0.0
 30
0.0
 70
   128
 71
   169
 72
  -241
 73
   170
 74
  -169
  0
VERTEX
  5
388
  8
0
 62
   213
 10
0.0
 20
0.0
 30
0.0
 70
   128
 71
   242
 72
  -170
 73
   241
 74
  -242
  0
VERTEX
  5
389
  8
0
 62
   213
 10
0.0
 20
0.0
 30
0.0
 70
   128
 71
   231
 72
  -159
 73
   242
 74
  -231
  0
VERTEX
  5
38A
  8
0
 62
   213
 10
0.0
 20
0.0
 30
0.0
 70
   128
 71
   170
 72
  -242
 73
   159
 74
  -170
  0
VERTEX
  5
38B
  8
0
 62
   213
 10
0.0
 20
0.0
 30
0.0
 70
   128
 71
  -243
 72
   262
 73
  -261
 74
  -243
  0
VERTEX
  5
38C
  8
0
 62
   213
 10
0.0
 20
0.0
 30
0.0
 70
   128
 71
  -243
 72
   263
 73
  -262
 74
  -243
  0
VERTEX
  5
38D
  8
0
 62
   213
 10
0.0
 20
0.0
 30
0.0
 70
   128
 71
  -243
 72
   264
 73
  -263
 74
  -243
  0
VERTEX
  5
38E
  8
0
 62
   213
 10
0.0
 20
0.0
 30
0.0
 70
   128
 71
  -243
 72
   265
 73
  -264
 74
  -243
  0
VERTEX
  5
38F
  8
0
 62
   213
 10
0.0
 20
0.0
 30
0.0
 70
   128
 71
  -243
 72
   266
 73
  -265
 74
  -243
  0
VERTEX
  5
390
  8
0
 62
   213
 10
0.0
 20
0.0
 30
0.0
 70
   128
 71
  -243
 72
   267
 73
  -266
 74
  -243
  0
VERTEX
  5
391
  8
0
 62
   213
 10
0.0
 20
0.0
 30
0.0
 70
   128
 71
  -243
 72
   268
 73
  -267
 74
  -243
  0
VERTEX
  5
392
  8
0
 62
   213
 10
0.0
 20
0.0
 30
0.0
 70
   128
 71
  -243
 72
   261
 73
  -268
 74
  -243
  0
VERTEX
  5
393
  8
0
 62
   213
 10
0.0
 20
0.0
 30
0.0
 70
   128
 71
  -244
 72
   253
 73
   252
 74
  -244
  0
VERTEX
  5
394
  8
0
 62
   213
 10
0.0
 20
0.0
 30
0.0
 70
   128
 71
   244
 72
   245
 73
  -253
 74
  -244
  0
VERTEX
  5
395
  8
0
 62
   213
 10
0.0
 20
0.0
 30
0.0
 70
   128
 71
  -245
 72
   254
 73
   253
 74
  -245
  0
VERTEX
  5
396
  8
0
 62
   213
 10
0.0
 20
0.0
 30
0.0
 70
   128
 71
   245
 72
   246
 73
  -254
 74
  -245
  0
VERTEX
  5
397
  8
0
 62
   213
 10
0.0
 20
0.0
 30
0.0
 70
   128
 71
  -246
 72
   255
 73
   254
 74
  -246
  0
VERTEX
  5
398
  8
0
 62
   213
 10
0.0
 20
0.0
 30
0.0
 70
   128
 71
   246
 72
   247
 73
  -255
 74
  -246
  0
VERTEX
  5
399
  8
0
 62
   213
 10
0.0
 20
0.0
 30
0.0
 70
   128
 71
  -247
 72
   256
 73
   255
 74
  -247
  0
VERTEX
  5
39A
  8
0
 62
   213
 10
0.0
 20
0.0
 30
0.0
 70
   128
 71
   247
 72
   248
 73
  -256
 74
  -247
  0
VERTEX
  5
39B
  8
0
 62
   213
 10
0.0
 20
0.0
 30
0.0
 70
   128
 71
  -248
 72
   257
 73
   256
 74
  -248
  0
VERTEX
  5
39C
  8
0
 62
   213
 10
0.0
 20
0.0
 30
0.0
 70
   128
 71
   248
 72
   249
 73
  -257
 74
  -248
  0
VERTEX
  5
39D
  8
0
 62
   213
 10
0.0
 20
0.0
 30
0.0
 70
   128
 71
  -249
 72
   258
 73
   257
 74
  -249
  0
VERTEX
  5
39E
  8
0
 62
   213
 10
0.0
 20
0.0
 30
0.0
 70
   128
 71
   249
 72
   250
 73
  -258
 74
  -249
  0
VERTEX
  5
39F
  8
0
 62
   213
 10
0.0
 20
0.0
 30
0.0
 70
   128
 71
  -250
 72
   259
 73
   258
 74
  -250
  0
VERTEX
  5
3A0
  8
0
 62
   213
 10
0.0
 20
0.0
 30
0.0
 70
   128
 71
   250
 72
   251
 73
  -259
 74
  -250
  0
VERTEX
  5
3A1
  8
0
 62
   213
 10
0.0
 20
0.0
 30
0.0
 70
   128
 71
  -251
 72
   252
 73
   259
 74
  -251
  0
VERTEX
  5
3A2
  8
0
 62
   213
 10
0.0
 20
0.0
 30
0.0
 70
   128
 71
   251
 72
   244
 73
  -252
 74
  -251
  0
VERTEX
  5
3A3
  8
0
 62
   213
 10
0.0
 20
0.0
 30
0.0
 70
   128
 71
  -260
 72
   269
 73
  -270
 74
  -260
  0
VERTEX
  5
3A4
  8
0
 62
   213
 10
0.0
 20
0.0
 30
0.0
 70
   128
 71
  -260
 72
   270
 73
  -271
 74
  -260
  0
VERTEX
  5
3A5
  8
0
 62
   213
 10
0.0
 20
0.0
 30
0.0
 70
   128
 71
  -260
 72
   271
 73
  -272
 74
  -260
  0
VERTEX
  5
3A6
  8
0
 62
   213
 10
0.0
 20
0.0
 30
0.0
 70
   128
 71
  -260
 72
   272
 73
  -273
 74
  -260
  0
VERTEX
  5
3A7
  8
0
 62
   213
 10
0.0
 20
0.0
 30
0.0
 70
   128
 71
  -260
 72
   273
 73
  -274
 74
  -260
  0
VERTEX
  5
3A8
  8
0
 62
   213
 10
0.0
 20
0.0
 30
0.0
 70
   128
 71
  -260
 72
   274
 73
  -275
 74
  -260
  0
VERTEX
  5
3A9
  8
0
 62
   213
 10
0.0
 20
0.0
 30
0.0
 70
   128
 71
  -260
 72
   275
 73
  -276
 74
  -260
  0
VERTEX
  5
3AA
  8
0
 62
   213
 10
0.0
 20
0.0
 30
0.0
 70
   128
 71
  -260
 72
   276
 73
  -269
 74
  -260
  0
VERTEX
  5
3AB
  8
0
 62
   213
 10
0.0
 20
0.0
 30
0.0
 70
   128
 71
   245
 72
   244
 73
  -261
 74
  -245
  0
VERTEX
  5
3AC
  8
0
 62
   213
 10
0.0
 20
0.0
 30
0.0
 70
   128
 71
   261
 72
   262
 73
  -245
 74
  -261
  0
VERTEX
  5
3AD
  8
0
 62
   213
 10
0.0
 20
0.0
 30
0.0
 70
   128
 71
   246
 72
   245
 73
  -262
 74
  -246
  0
VERTEX
  5
3AE
  8
0
 62
   213
 10
0.0
 20
0.0
 30
0.0
 70
   128
 71
   262
 72
   263
 73
  -246
 74
  -262
  0
VERTEX
  5
3AF
  8
0
 62
   213
 10
0.0
 20
0.0
 30
0.0
 70
   128
 71
   247
 72
   246
 73
  -263
 74
  -247
  0
VERTEX
  5
3B0
  8
0
 62
   213
 10
0.0
 20
0.0
 30
0.0
 70
   128
 71
   263
 72
   264
 73
  -247
 74
  -263
  0
VERTEX
  5
3B1
  8
0
 62
   213
 10
0.0
 20
0.0
 30
0.0
 70
   128
 71
   248
 72
   247
 73
  -264
 74
  -248
  0
VERTEX
  5
3B2
  8
0
 62
   213
 10
0.0
 20
0.0
 30
0.0
 70
   128
 71
   264
 72
   265
 73
  -248
 74
  -264
  0
VERTEX
  5
3B3
  8
0
 62
   213
 10
0.0
 20
0.0
 30
0.0
 70
   128
 71
   249
 72
   248
 73
  -265
 74
  -249
  0
VERTEX
  5
3B4
  8
0
 62
   213
 10
0.0
 20
0.0
 30
0.0
 70
   128
 71
   265
 72
   266
 73
  -249
 74
  -265
  0
VERTEX
  5
3B5
  8
0
 62
   213
 10
0.0
 20
0.0
 30
0.0
 70
   128
 71
   250
 72
   249
 73
  -266
 74
  -250
  0
VERTEX
  5
3B6
  8
0
 62
   213
 10
0.0
 20
0.0
 30
0.0
 70
   128
 71
   266
 72
   267
 73
  -250
 74
  -266
  0
VERTEX
  5
3B7
  8
0
 62
   213
 10
0.0
 20
0.0
 30
0.0
 70
   128
 71
   251
 72
   250
 73
  -267
 74
  -251
  0
VERTEX
  5
3B8
  8
0
 62
   213
 10
0.0
 20
0.0
 30
0.0
 70
   128
 71
   267
 72
   268
 73
  -251
 74
  -267
  0
VERTEX
  5
3B9
  8
0
 62
   213
 10
0.0
 20
0.0
 30
0.0
 70
   128
 71
   244
 72
   251
 73
  -268
 74
  -244
  0
VERTEX
  5
3BA
  8
0
 62
   213
 10
0.0
 20
0.0
 30
0.0
 70
   128
 71
   268
 72
   261
 73
  -244
 74
  -268
  0
VERTEX
  5
3BB
  8
0
 62
   213
 10
0.0
 20
0.0
 30
0.0
 70
   128
 71
   252
 72
   253
 73
  -270
 74
  -252
  0
VERTEX
  5
3BC
  8
0
 62
   213
 10
0.0
 20
0.0
 30
0.0
 70
   128
 71
   270
 72
   269
 73
  -252
 74
  -270
  0
VERTEX
  5
3BD
  8
0
 62
   213
 10
0.0
 20
0.0
 30
0.0
 70
   128
 71
   253
 72
   254
 73
  -271
 74
  -253
  0
VERTEX
  5
3BE
  8
0
 62
   213
 10
0.0
 20
0.0
 30
0.0
 70
   128
 71
   271
 72
   270
 73
  -253
 74
  -271
  0
VERTEX
  5
3BF
  8
0
 62
   213
 10
0.0
 20
0.0
 30
0.0
 70
   128
 71
   254
 72
   255
 73
  -272
 74
  -254
  0
VERTEX
  5
3C0
  8
0
 62
   213
 10
0.0
 20
0.0
 30
0.0
 70
   128
 71
   272
 72
   271
 73
  -254
 74
  -272
  0
VERTEX
  5
3C1
  8
0
 62
   213
 10
0.0
 20
0.0
 30
0.0
 70
   128
 71
   255
 72
   256
 73
  -273
 74
  -255
  0
VERTEX
  5
3C2
  8
0
 62
   213
 10
0.0
 20
0.0
 30
0.0
 70
   128
 71
   273
 72
   272
 73
  -255
 74
  -273
  0
VERTEX
  5
3C3
  8
0
 62
   213
 10
0.0
 20
0.0
 30
0.0
 70
   128
 71
   256
 72
   257
 73
  -274
 74
  -256
  0
VERTEX
  5
3C4
  8
0
 62
   213
 10
0.0
 20
0.0
 30
0.0
 70
   128
 71
   274
 72
   273
 73
  -256
 74
  -274
  0
VERTEX
  5
3C5
  8
0
 62
   213
 10
0.0
 20
0.0
 30
0.0
 70
   128
 71
   257
 72
   258
 73
  -275
 74
  -257
  0
VERTEX
  5
3C6
  8
0
 62
   213
 10
0.0
 20
0.0
 30
0.0
 70
   128
 71
   275
 72
   274
 73
  -257
 74
  -275
  0
VERTEX
  5
3C7
  8
0
 62
   213
 10
0.0
 20
0.0
 30
0.0
 70
   128
 71
   258
 72
   259
 73
  -276
 74
  -258
  0
VERTEX
  5
3C8
  8
0
 62
   213
 10
0.0
 20
0.0
 30
0.0
 70
   128
 71
   276
 72
   275
 73
  -258
 74
  -276
  0
VERTEX
  5
3C9
  8
0
 62
   213
 10
0.0
 20
0.0
 30
0.0
 70
   128
 71
   259
 72
   252
 73
  -269
 74
  -259
  0
VERTEX
  5
3CA
  8
0
 62
   213
 10
0.0
 20
0.0
 30
0.0
 70
   128
 71
   269
 72
   276
 73
  -259
 74
  -269
  0
SEQEND
  5
3CB
  8
0
 62
   213
  0
ENDSEC
  0
EOF
