999
DXF file: C:\Chris\10-Komponent\Input INFO\20180713\20200108-HC版本\普通版\f22378_front.dxf
999
Pro/ENGINEER 2019030 by Parametric Technology Corporation
  0
SECTION
  2
HEADER
  9
$ACADVER
  1
AC1021
  9
$DWGCODEPAGE
  3
ANSI_1252
  9
$EXTMAX
 10
841.0
 20
594.0
 30
0.0
  9
$EXTMIN
 10
0.0
 20
0.0
 30
0.0
  9
$LIMMIN
 10
0.0
 20
0.0
  9
$LIMMAX
 10
841.0
 20
594.0
  9
$VIEWCTR
 10
420.5
 20
297.0
  9
$VIEWSIZE
 40
594.0
  9
$CLAYER
  8
0
  9
$LTSCALE
 40
46.255
  9
$CELTYPE
  6
BYLAYER
  9
$DIMSCALE
 40
1.0
  9
$DIMASZ
 40
4.7625
  9
$DIMEXO
 40
1.5875
  9
$DIMDLI
 40
31.958
  9
$DIMEXE
 40
3.175
  9
$DIMCEN
 40
7.569
  9
$DIMLFAC
 40
1.0
  9
$DIMBLK
  1
_FILLED
  9
$DIMALT
 70
1
  9
$DIMALTD
 70
2
  9
$DIMALTTD
 70
2
  9
$DIMALTF
 40
0.0393700787
  9
$DIMTXT
 40
3.96875
  9
$DIMTOL
 70
1
  9
$DIMLIM
 70
0
  9
$DIMTFAC
 40
1.0
  9
$DIMTP
 40
0.01
  9
$DIMTM
 40
0.01
  9
$DIMGAP
 40
0.625
  9
$DIMDSEP
 70
46
  9
$AUNITS
 70
0
  9
$PDMODE
 70
3
  9
$PDSIZE
 40
7.9375
  9
$HANDSEED
  5
2DB
  9
$TILEMODE
 70
1
  9
$MEASUREMENT
 70
1
  9
$INSUNITS
 70
4
  0
ENDSEC
  0
SECTION
  2
CLASSES
  0
CLASS
  1
ACDBDICTIONARYWDFLT
  2
AcDbDictionaryWithDefault
  3
AutoCAD 2000
 90
0
 91
1
280
0
281
0
  0
CLASS
  1
ACDBPLACEHOLDER
  2
AcDbPlaceHolder
  3
AutoCAD 2000
 90
0
 91
1
280
0
281
0
  0
CLASS
  1
LAYOUT
  2
AcDbLayout
  3
AutoCAD 2000
 90
0
 91
0
280
0
281
0
  0
ENDSEC
  0
SECTION
  2
TABLES
  0
TABLE
  2
VPORT
  5
8
100
AcDbSymbolTable
 70
2
  0
VPORT
  5
1F4
100
AcDbSymbolTableRecord
100
AcDbViewportTableRecord
  2
*ACTIVE
 70
0
 10
0.0
 20
0.0
 11
1.0
 21
1.0
 12
420.5
 22
297.0
 13
0.0
 23
0.0
 14
1.0
 24
1.0
 15
0.0
 25
0.0
 16
0.0
 26
0.0
 36
1.0
 17
0.0
 27
0.0
 37
0.0
 40
594.0
 41
1.4158249158
 42
50.0
 43
0.0
 44
0.0
 50
0.0
 51
0.0
 71
0
 72
100
 73
1
 74
1
 75
0
 76
0
 77
0
 78
0
  0
ENDTAB
  0
TABLE
  2
LTYPE
  5
5
100
AcDbSymbolTable
 70
6
  0
LTYPE
  5
14
100
AcDbSymbolTableRecord
100
AcDbLinetypeTableRecord
  2
BYBLOCK
 70
0
  3

 72
65
 73
0
 40
0.0
  0
LTYPE
  5
15
100
AcDbSymbolTableRecord
100
AcDbLinetypeTableRecord
  2
BYLAYER
 70
0
  3

 72
65
 73
0
 40
0.0
  0
LTYPE
  5
16
100
AcDbSymbolTableRecord
100
AcDbLinetypeTableRecord
  2
CONTINUOUS
 70
64
  3
Solid line
 72
65
 73
0
 40
0.0
  0
LTYPE
  5
1F5
100
AcDbSymbolTableRecord
100
AcDbLinetypeTableRecord
  2
CENTER
 70
64
  3
____ _ ____ _ ____ _ ____ _ ____ _ ____ _ ____
 72
65
 73
4
 40
0.6
 49
0.375
 74
0
 49
-0.075
 74
0
 49
0.075
 74
0
 49
-0.075
 74
0
  0
LTYPE
  5
1F6
100
AcDbSymbolTableRecord
100
AcDbLinetypeTableRecord
  2
HIDDEN
 70
64
  3
- - - - - - - - - - - - - - - - - - - -
 72
65
 73
2
 40
0.2
 49
0.1
 74
0
 49
-0.1
 74
0
  0
LTYPE
  5
1F7
100
AcDbSymbolTableRecord
100
AcDbLinetypeTableRecord
  2
PHANTOM
 70
64
  3
_____ _ _ _____ _ _ _____ _ _ _____
 72
65
 73
6
 40
0.8
 49
0.45
 74
0
 49
-0.05
 74
0
 49
0.1
 74
0
 49
-0.05
 74
0
 49
0.1
 74
0
 49
-0.05
 74
0
  0
LTYPE
  5
1F8
100
AcDbSymbolTableRecord
100
AcDbLinetypeTableRecord
  2
DOT
 70
64
  3
. . . . . . . . . . . . . . . . . . . .
 72
65
 73
2
 40
0.2
 49
0.1
 74
0
 49
-0.1
 74
0
  0
LTYPE
  5
1F9
100
AcDbSymbolTableRecord
100
AcDbLinetypeTableRecord
  2
DASHED
 70
64
  3
- - - - - - - - - - - - - - - - - - - -
 72
65
 73
2
 40
0.2
 49
0.1
 74
0
 49
-0.1
 74
0
  0
ENDTAB
  0
TABLE
  2
LAYER
  5
2
100
AcDbSymbolTable
 70
36
  0
LAYER
  5
10
100
AcDbSymbolTableRecord
100
AcDbLayerTableRecord
  2
0
 70
0
 62
7
  6
CONTINUOUS
370
-3
390
F
  0
LAYER
  5
1FA
100
AcDbSymbolTableRecord
100
AcDbLayerTableRecord
  2
DEFAULT_1
 70
0
 62
7
  6
CENTER
370
-3
390
F
  0
LAYER
  5
1FB
100
AcDbSymbolTableRecord
100
AcDbLayerTableRecord
  2
DEFAULT_2
 70
0
 62
8
  6
HIDDEN
370
-3
390
F
  0
LAYER
  5
1FC
100
AcDbSymbolTableRecord
100
AcDbLayerTableRecord
  2
DEFAULT_3
 70
0
 62
7
  6
PHANTOM
370
-3
390
F
  0
LAYER
  5
1FD
100
AcDbSymbolTableRecord
100
AcDbLayerTableRecord
  2
01___PRT_ALL_DTM_PLN
 70
0
 62
7
  6
CONTINUOUS
370
-3
390
F
  0
LAYER
  5
1FE
100
AcDbSymbolTableRecord
100
AcDbLayerTableRecord
  2
01___PRT_DEF_DTM_PLN
 70
0
 62
7
  6
CONTINUOUS
370
-3
390
F
  0
LAYER
  5
1FF
100
AcDbSymbolTableRecord
100
AcDbLayerTableRecord
  2
02___PRT_ALL_AXES
 70
0
 62
7
  6
CONTINUOUS
370
-3
390
F
  0
LAYER
  5
200
100
AcDbSymbolTableRecord
100
AcDbLayerTableRecord
  2
03___PRT_ALL_CURVES
 70
0
 62
7
  6
CONTINUOUS
370
-3
390
F
  0
LAYER
  5
201
100
AcDbSymbolTableRecord
100
AcDbLayerTableRecord
  2
04___PRT_ALL_DTM_PNT
 70
0
 62
7
  6
CONTINUOUS
370
-3
390
F
  0
LAYER
  5
202
100
AcDbSymbolTableRecord
100
AcDbLayerTableRecord
  2
05___PRT_ALL_DTM_CSYS
 70
0
 62
7
  6
CONTINUOUS
370
-3
390
F
  0
LAYER
  5
203
100
AcDbSymbolTableRecord
100
AcDbLayerTableRecord
  2
05___PRT_DEF_DTM_CSYS
 70
0
 62
7
  6
CONTINUOUS
370
-3
390
F
  0
LAYER
  5
204
100
AcDbSymbolTableRecord
100
AcDbLayerTableRecord
  2
06___PRT_ALL_SURFS
 70
0
 62
7
  6
CONTINUOUS
370
-3
390
F
  0
LAYER
  5
205
100
AcDbSymbolTableRecord
100
AcDbLayerTableRecord
  2
DATUM_AXIS
 70
0
 62
7
  6
CONTINUOUS
370
-3
390
F
  0
LAYER
  5
206
100
AcDbSymbolTableRecord
100
AcDbLayerTableRecord
  2
DATUM_PLANE
 70
0
 62
7
  6
CONTINUOUS
370
-3
390
F
  0
LAYER
  5
207
100
AcDbSymbolTableRecord
100
AcDbLayerTableRecord
  2
DATUM_POINT
 70
0
 62
7
  6
CONTINUOUS
370
-3
390
F
  0
LAYER
  5
208
100
AcDbSymbolTableRecord
100
AcDbLayerTableRecord
  2
_CURVE
 70
0
 62
7
  6
CONTINUOUS
370
-3
390
F
  0
LAYER
  5
209
100
AcDbSymbolTableRecord
100
AcDbLayerTableRecord
  2
_SURFACE
 70
0
 62
7
  6
CONTINUOUS
370
-3
390
F
  0
ENDTAB
  0
TABLE
  2
STYLE
  5
3
100
AcDbSymbolTable
 70
1
  0
STYLE
  5
11
100
AcDbSymbolTableRecord
100
AcDbTextStyleTableRecord
  2
STANDARD
 70
0
 40
0.0
 41
0.8
 50
0.0
 71
0
 42
0.2
  3
txt
  4

  0
STYLE
  5
20A
100
AcDbSymbolTableRecord
100
AcDbTextStyleTableRecord
  2
TEXTSTYLE_1
 70
0
 40
0.0
 41
0.8
 50
0.0
 71
0
 42
0.2
  3
gdt
  4

  0
ENDTAB
  0
TABLE
  2
VIEW
  5
6
100
AcDbSymbolTable
 70
0
  0
ENDTAB
  0
TABLE
  2
UCS
  5
7
100
AcDbSymbolTable
 70
0
  0
ENDTAB
  0
TABLE
  2
APPID
  5
9
100
AcDbSymbolTable
 70
1
  0
APPID
  5
20B
100
AcDbSymbolTableRecord
100
AcDbRegAppTableRecord
  2
ACAD
 70
0
  0
ENDTAB
  0
TABLE
  2
BLOCK_RECORD
  5
1
100
AcDbSymbolTable
 70
0
  0
BLOCK_RECORD
  5
20C
100
AcDbSymbolTableRecord
100
AcDbBlockTableRecord
  2
*Model_Space
  0
BLOCK_RECORD
  5
20D
100
AcDbSymbolTableRecord
100
AcDbBlockTableRecord
  2
*Paper_Space
  0
BLOCK_RECORD
  5
20E
100
AcDbSymbolTableRecord
100
AcDbBlockTableRecord
  2
_FILLED
  0
ENDTAB
  0
TABLE
  2
DIMSTYLE
  5
A
100
AcDbSymbolTable
 70
1
100
AcDbDimStyleTable
 71
0
  0
DIMSTYLE
105
20F
100
AcDbSymbolTableRecord
100
AcDbDimStyleTableRecord
  2
STANDARD
 70
0
  3

  4

 40
1.0
 41
4.7625
 42
1.5875
 43
0.38
 44
3.175
 45
0.0
 46
0.0
 47
0.01
 48
0.01
140
3.96875
141
0.09
142
0.0
143
0.0393700787
144
1.0
145
0.0
146
1.0
147
0.625
 71
1.0
 72
0.0
 73
1
 74
1
 75
0
 76
0
 77
0
 78
8
 79
2
170
1
171
2
172
0
173
0
174
0
175
0
176
0
177
0
178
0
270
2
179
3
271
3
272
3
273
2
274
2
275
0
280
0
281
0
282
0
283
1
284
8
285
0
286
0
287
3
288
0
340
11
278
46
341
20E
342
20E
343
20E
344
20E
  0
ENDTAB
  0
ENDSEC
  0
SECTION
  2
BLOCKS
  0
BLOCK
  5
20
100
AcDbEntity
  8
0
100
AcDbBlockBegin
  2
*Model_Space
 70
0
 10
0.0
 20
0.0
 30
0.0
  3
*Model_Space
  1

  0
ENDBLK
  5
21
100
AcDbEntity
  8
0
100
AcDbBlockEnd
  0
BLOCK
  5
1C
100
AcDbEntity
  8
0
100
AcDbBlockBegin
  2
*Paper_Space
 70
0
 10
0.0
 20
0.0
 30
0.0
  3
*Paper_Space
  1

  0
ENDBLK
  5
1D
100
AcDbEntity
  8
0
100
AcDbBlockEnd
  0
BLOCK
  5
210
100
AcDbEntity
  8
0
100
AcDbBlockBegin
  2
_FILLED
 70
64
 10
0.0
 20
0.0
  3
_FILLED
  1

  0
SOLID
  5
211
100
AcDbEntity
  8
0
  6
BYBLOCK
 62
0
100
AcDbTrace
 10
0.0
 20
0.0
 11
-1.0
 21
0.1666666667
 12
-1.0
 22
-0.1666666667
 13
-1.0
 23
-0.1666666667
  0
ENDBLK
  5
212
100
AcDbEntity
  8
0
  6
BYBLOCK
 62
0
100
AcDbBlockEnd
  0
ENDSEC
  0
SECTION
  2
ENTITIES
  0
LINE
  5
213
100
AcDbEntity
  8
0
100
AcDbLine
 62
7
  6
CONTINUOUS
 10
0.0
 20
0.0
 11
0.0
 21
594.0
  0
LINE
  5
214
100
AcDbEntity
  8
0
100
AcDbLine
 62
7
  6
CONTINUOUS
 10
0.0
 20
0.0
 11
841.0
 21
0.0
  0
LINE
  5
215
100
AcDbEntity
  8
0
100
AcDbLine
 62
7
  6
CONTINUOUS
 10
0.0
 20
594.0
 11
841.0
 21
594.0
  0
LINE
  5
216
100
AcDbEntity
  8
0
100
AcDbLine
 62
7
  6
CONTINUOUS
 10
841.0
 20
0.0
 11
841.0
 21
594.0
  0
LWPOLYLINE
  5
217
100
AcDbEntity
  8
06___PRT_ALL_SURFS
100
AcDbPolyline
 62
7
  6
CONTINUOUS
 90
4
 70
0
 10
253.1019428705
 20
783.7784312
 10
252.753845227
 20
783.6103053884
 10
252.4225569884
 20
783.393023385
 10
252.1217261594
 20
783.1329222824
  0
LINE
  5
218
100
AcDbEntity
  8
06___PRT_ALL_SURFS
100
AcDbLine
 62
7
  6
CONTINUOUS
 10
310.3157211451
 20
34.6985655236
 11
564.2857301404
 21
34.6985655236
  0
LWPOLYLINE
  5
219
100
AcDbEntity
  8
06___PRT_ALL_SURFS
100
AcDbPolyline
 62
7
  6
CONTINUOUS
 90
4
 70
0
 10
251.1760703511
 20
769.7286727782
 10
251.0401071005
 20
769.454923361
 10
250.9131162002
 20
769.08467389
 10
250.8354111103
 20
768.7010419612
  0
LWPOLYLINE
  5
21A
100
AcDbEntity
  8
06___PRT_ALL_SURFS
100
AcDbPolyline
 62
7
  6
CONTINUOUS
 90
3
 70
0
 10
251.3352673376
 20
781.7864365934
 10
251.2570350449
 20
781.4006133064
 10
251.2299594513
 20
781.0113327494
  0
LWPOLYLINE
  5
21B
100
AcDbEntity
  8
0
100
AcDbPolyline
 62
7
  6
CONTINUOUS
 90
5
 70
0
 10
305.4639827541
 20
66.4485655236
 10
305.4664713595
 20
66.4406699349
 10
305.4827749522
 20
66.3579138978
 10
305.5145217098
 20
66.1812661287
 10
305.5608484152
 20
65.9106227839
  0
LWPOLYLINE
  5
21C
100
AcDbEntity
  8
06___PRT_ALL_SURFS
100
AcDbPolyline
 62
7
  6
CONTINUOUS
 90
5
 70
0
 10
251.1601024965
 20
768.3116534224
 10
251.1613165242
 20
768.3333228117
 10
251.1625804991
 20
768.3781527662
 10
251.1638943371
 20
768.4461432824
 10
251.1666948131
 20
768.6570712061
  0
LINE
  5
21D
100
AcDbEntity
  8
06___PRT_ALL_SURFS
100
AcDbLine
 62
7
  6
CONTINUOUS
 10
250.8354111103
 20
768.7010419612
 11
250.8083147
 21
768.3105583248
  0
LWPOLYLINE
  5
21E
100
AcDbEntity
  8
06___PRT_ALL_SURFS
100
AcDbPolyline
 62
7
  6
CONTINUOUS
 90
4
 70
0
 10
278.499482544
 20
235.6985655236
 10
278.4877198073
 20
235.7420532286
 10
278.4521344015
 20
235.9270849778
 10
278.3940319821
 20
236.2568419587
  0
LWPOLYLINE
  5
21F
100
AcDbEntity
  8
06___PRT_ALL_SURFS
100
AcDbPolyline
 62
7
  6
CONTINUOUS
 90
3
 70
0
 10
272.4452094636
 20
273.6985655236
 10
272.4610673963
 20
273.6363532875
 10
272.500129871
 20
273.4301281474
  0
LINE
  5
220
100
AcDbEntity
  8
0
100
AcDbLine
 62
7
  6
CONTINUOUS
 10
252.1715205702
 20
406.349796483
 11
251.5433262971
 21
412.2850010439
  0
LINE
  5
221
100
AcDbEntity
  8
0
100
AcDbLine
 62
7
  6
CONTINUOUS
 10
250.5832010706
 20
427.4741115556
 11
250.6824459847
 21
426.5276555488
  0
LINE
  5
222
100
AcDbEntity
  8
0
100
AcDbLine
 62
7
  6
CONTINUOUS
 10
251.5433262971
 20
412.2850010439
 11
250.9051267683
 21
418.6985649117
  0
LINE
  5
223
100
AcDbEntity
  8
0
100
AcDbLine
 62
7
  6
CONTINUOUS
 10
250.4535268227
 20
428.7999110302
 11
250.5832010706
 21
427.4741115556
  0
LINE
  5
224
100
AcDbEntity
  8
0
100
AcDbLine
 62
7
  6
CONTINUOUS
 10
250.3507000562
 20
424.63822946
 11
250.9053244361
 21
418.6985800405
  0
LWPOLYLINE
  5
225
100
AcDbEntity
  8
0
100
AcDbPolyline
 62
7
  6
CONTINUOUS
 90
3
 70
0
 10
250.1795915138
 20
431.8384153475
 10
250.2806213795
 20
430.6898967917
 10
250.4535268227
 20
428.7999110302
  0
LINE
  5
226
100
AcDbEntity
  8
0
100
AcDbLine
 62
7
  6
CONTINUOUS
 10
249.8630370451
 20
430.1984510364
 11
250.3507000562
 21
424.63822946
  0
LWPOLYLINE
  5
227
100
AcDbEntity
  8
0
100
AcDbPolyline
 62
7
  6
CONTINUOUS
 90
12
 70
0
 10
249.8631704673
 20
430.1984623223
 10
249.7285110596
 20
431.8757716991
 10
249.6056263562
 20
433.6098736708
 10
249.4958592179
 20
435.4008289786
 10
249.4003193193
 20
437.249895558
 10
249.3200339586
 20
439.1559103751
 10
249.2557933141
 20
441.1152823314
 10
249.2078154451
 20
443.1319375088
 10
249.1762135867
 20
445.2019586489
 10
249.16066252
 20
447.3099452889
 10
249.1601173423
 20
449.4602991582
 10
249.1732674785
 20
451.6485022215
  0
LINE
  5
228
100
AcDbEntity
  8
0
100
AcDbLine
 62
7
  6
CONTINUOUS
 10
250.3019513429
 20
430.1971884239
 11
250.1027405877
 21
432.9227525713
  0
LWPOLYLINE
  5
229
100
AcDbEntity
  8
0
100
AcDbPolyline
 62
7
  6
CONTINUOUS
 90
3
 70
0
 10
255.6488485269
 20
436.4312040418
 10
255.8139655309
 20
433.7671061096
 10
255.8488267206
 20
433.1321720489
  0
LWPOLYLINE
  5
22A
100
AcDbEntity
  8
0
100
AcDbPolyline
 62
7
  6
CONTINUOUS
 90
32
 70
0
 10
255.9737363584
 20
430.3340074798
 10
255.979327187
 20
430.235435549
 10
255.9847698545
 20
430.1513352198
 10
255.9899748161
 20
430.0799249488
 10
255.995165345
 20
430.0185321998
 10
256.0003894921
 20
429.9657736421
 10
256.0055992065
 20
429.9207965565
 10
256.0108736088
 20
429.8823939059
 10
256.016237458
 20
429.8497119327
 10
256.0216659951
 20
429.8220932987
 10
256.0271640639
 20
429.7988548296
 10
256.0327452687
 20
429.7794104073
 10
256.0383960052
 20
429.7632512987
 10
256.0440803046
 20
429.7499132963
 10
256.0498118398
 20
429.7389745023
 10
256.0555769379
 20
429.7300803022
 10
256.0612986121
 20
429.7229261866
 10
256.0669752196
 20
429.7172267065
 10
256.0726084032
 20
429.7127194964
 10
256.0781261039
 20
429.7091838281
 10
256.0835025826
 20
429.7064444359
 10
256.0887635784
 20
429.7043369005
 10
256.0939142502
 20
429.7027176513
 10
256.0989339918
 20
429.7014947371
 10
256.1038434093
 20
429.7005850357
 10
256.1087094802
 20
429.6999091248
 10
256.1135261122
 20
429.6994205731
 10
256.1182993975
 20
429.6990796101
 10
256.1231145908
 20
429.6988478713
 10
256.1279720053
 20
429.698701116
 10
256.1328713278
 20
429.6986180278
 10
256.137347586
 20
429.6985812713
  0
LINE
  5
22B
100
AcDbEntity
  8
0
100
AcDbLine
 62
7
  6
CONTINUOUS
 10
255.9613496751
 20
430.5862501134
 11
255.9737363584
 21
430.3340074798
  0
LWPOLYLINE
  5
22C
100
AcDbEntity
  8
0
100
AcDbPolyline
 62
7
  6
CONTINUOUS
 90
3
 70
0
 10
255.8488267206
 20
433.1321720489
 10
255.9128734071
 20
431.7605273459
 10
255.9613496751
 20
430.5862501134
  0
LINE
  5
22D
100
AcDbEntity
  8
06___PRT_ALL_SURFS
100
AcDbLine
 62
7
  6
CONTINUOUS
 10
250.7718536744
 20
710.5485655236
 11
250.8492266748
 21
728.0485655236
  0
LINE
  5
22E
100
AcDbEntity
  8
06___PRT_ALL_SURFS
100
AcDbLine
 62
7
  6
CONTINUOUS
 10
250.8928334589
 20
728.0485655236
 11
250.8151783434
 21
710.5485655236
  0
LINE
  5
22F
100
AcDbEntity
  8
0
100
AcDbLine
 62
7
  6
CONTINUOUS
 10
251.2421356065
 20
781.0112965351
 11
250.5684350556
 21
619.4086375538
  0
LINE
  5
230
100
AcDbEntity
  8
0
100
AcDbLine
 62
7
  6
CONTINUOUS
 10
250.0835449411
 20
588.2737444247
 11
250.8083373061
 21
768.3105582344
  0
LINE
  5
231
100
AcDbEntity
  8
0
100
AcDbLine
 62
7
  6
CONTINUOUS
 10
249.6924603159
 20
483.6279859908
 11
249.7812358409
 21
511.4166894529
  0
LINE
  5
232
100
AcDbEntity
  8
0
100
AcDbLine
 62
7
  6
CONTINUOUS
 10
250.5684350556
 20
619.4086375538
 11
250.2052039453
 21
531.0331283269
  0
LINE
  5
233
100
AcDbEntity
  8
0
100
AcDbLine
 62
7
  6
CONTINUOUS
 10
250.2052039453
 20
531.0331283269
 11
250.0229130619
 21
484.6581972821
  0
LINE
  5
234
100
AcDbEntity
  8
0
100
AcDbLine
 62
7
  6
CONTINUOUS
 10
249.7812358409
 20
511.4166894529
 11
250.0835449411
 21
588.2737444247
  0
LWPOLYLINE
  5
235
100
AcDbEntity
  8
0
100
AcDbPolyline
 62
7
  6
CONTINUOUS
 90
11
 70
0
 10
249.5781449486
 20
453.4510908825
 10
249.5603763549
 20
450.5501116533
 10
249.5638050935
 20
447.816480052
 10
249.5883508831
 20
445.2845196025
 10
249.6327112936
 20
442.9198655943
 10
249.6933114022
 20
440.7605506509
 10
249.7653090074
 20
438.8310769032
 10
249.8450255097
 20
437.10660647
 10
249.9298489963
 20
435.5511310631
 10
250.0170035626
 20
434.1525728963
 10
250.1027405877
 20
432.9227525713
  0
LINE
  5
236
100
AcDbEntity
  8
0
100
AcDbLine
 62
7
  6
CONTINUOUS
 10
250.0229130619
 20
484.6581972821
 11
249.9757790768
 21
478.0598566301
  0
LINE
  5
237
100
AcDbEntity
  8
0
100
AcDbLine
 62
7
  6
CONTINUOUS
 10
249.6404794894
 20
477.3854347011
 11
249.6924603159
 21
483.6279859908
  0
LINE
  5
238
100
AcDbEntity
  8
06___PRT_ALL_SURFS
100
AcDbLine
 62
7
  6
CONTINUOUS
 10
251.1666948131
 20
768.6570712061
 11
251.2299594513
 21
781.0113327494
  0
LINE
  5
239
100
AcDbEntity
  8
0
100
AcDbLine
 62
7
  6
CONTINUOUS
 10
249.9757790768
 20
478.0598566301
 11
249.9157097858
 21
473.2049808843
  0
LINE
  5
23A
100
AcDbEntity
  8
0
100
AcDbLine
 62
7
  6
CONTINUOUS
 10
249.5830824383
 20
473.227040463
 11
249.6404794894
 21
477.3854347011
  0
LINE
  5
23B
100
AcDbEntity
  8
0
100
AcDbLine
 62
7
  6
CONTINUOUS
 10
249.1732674785
 20
451.6485022215
 11
249.2323418237
 21
456.0505766019
  0
LINE
  5
23C
100
AcDbEntity
  8
0
100
AcDbLine
 62
7
  6
CONTINUOUS
 10
249.6610825792
 20
459.3206535627
 11
249.5781449486
 21
453.4510908825
  0
LINE
  5
23D
100
AcDbEntity
  8
0
100
AcDbLine
 62
7
  6
CONTINUOUS
 10
249.9157097858
 20
473.2049808843
 11
249.6610825792
 21
459.3206535627
  0
LINE
  5
23E
100
AcDbEntity
  8
0
100
AcDbLine
 62
7
  6
CONTINUOUS
 10
249.4629658378
 20
466.9300032699
 11
249.5830824383
 21
473.227040463
  0
LINE
  5
23F
100
AcDbEntity
  8
0
100
AcDbLine
 62
7
  6
CONTINUOUS
 10
249.2323418237
 20
456.0505766019
 11
249.4629658378
 21
466.9300032699
  0
LINE
  5
240
100
AcDbEntity
  8
06___PRT_ALL_SURFS
100
AcDbLine
 62
7
  6
CONTINUOUS
 10
272.500129871
 20
273.4301281474
 11
272.6464643571
 21
272.5870194369
  0
LINE
  5
241
100
AcDbEntity
  8
06___PRT_ALL_SURFS
100
AcDbLine
 62
7
  6
CONTINUOUS
 10
278.3940319821
 20
236.2568419587
 11
278.2090471934
 21
237.3444438025
  0
LINE
  5
242
100
AcDbEntity
  8
06___PRT_ALL_SURFS
100
AcDbLine
 62
7
  6
CONTINUOUS
 10
272.6464643571
 20
272.5870194369
 11
273.1987474471
 21
269.2673501433
  0
LINE
  5
243
100
AcDbEntity
  8
0
100
AcDbLine
 62
7
  6
CONTINUOUS
 10
305.5608484152
 20
65.9106227839
 11
306.0810155904
 21
62.7260240276
  0
LINE
  5
244
100
AcDbEntity
  8
06___PRT_ALL_SURFS
100
AcDbLine
 62
7
  6
CONTINUOUS
 10
278.2090471934
 20
237.3444438025
 11
276.4640473669
 21
248.0854235617
  0
LINE
  5
245
100
AcDbEntity
  8
06___PRT_ALL_SURFS
100
AcDbLine
 62
7
  6
CONTINUOUS
 10
310.315720204
 20
34.6985655222
 11
258.5973183629
 21
359.2476777642
  0
LINE
  5
246
100
AcDbEntity
  8
06___PRT_ALL_SURFS
100
AcDbLine
 62
7
  6
CONTINUOUS
 10
273.1987474471
 20
269.2673501433
 11
276.0723862497
 21
251.4091469642
  0
LINE
  5
247
100
AcDbEntity
  8
0
100
AcDbLine
 62
7
  6
CONTINUOUS
 10
306.0810155904
 20
62.7260240276
 11
306.6919480482
 21
58.9194910843
  0
LINE
  5
248
100
AcDbEntity
  8
0
100
AcDbLine
 62
7
  6
CONTINUOUS
 10
258.5973175324
 20
359.2476772116
 11
257.2592920605
 21
367.7279612393
  0
LINE
  5
249
100
AcDbEntity
  8
06___PRT_ALL_SURFS
100
AcDbLine
 62
7
  6
CONTINUOUS
 10
276.4640473669
 20
248.0854235617
 11
272.9524493981
 21
270.2727928946
  0
LINE
  5
24A
100
AcDbEntity
  8
0
100
AcDbLine
 62
7
  6
CONTINUOUS
 10
306.6919480482
 20
58.9194910843
 11
307.4094276679
 21
54.3387638819
  0
LWPOLYLINE
  5
24B
100
AcDbEntity
  8
06___PRT_ALL_SURFS
100
AcDbPolyline
 62
7
  6
CONTINUOUS
 90
6
 70
0
 10
272.9524493981
 20
270.2727928946
 10
272.6068664749
 20
272.5362282908
 10
272.5332496571
 20
273.0331548313
 10
272.4816763432
 20
273.3944245787
 10
272.4518406324
 20
273.6168380165
 10
272.4452094636
 20
273.6985655236
  0
LINE
  5
24C
100
AcDbEntity
  8
0
100
AcDbLine
 62
7
  6
CONTINUOUS
 10
257.2592920605
 20
367.7279612393
 11
256.6139809673
 21
371.9476296513
  0
LWPOLYLINE
  5
24D
100
AcDbEntity
  8
06___PRT_ALL_SURFS
100
AcDbPolyline
 62
7
  6
CONTINUOUS
 90
7
 70
0
 10
276.0723862497
 20
251.4091469642
 10
278.3213352764
 20
236.9798222213
 10
278.3994216344
 20
236.4513515885
 10
278.4552326043
 20
236.0591254883
 10
278.4892689087
 20
235.8082803994
 10
278.5002909577
 20
235.7023172571
 10
278.499482544
 20
235.6985655236
  0
LWPOLYLINE
  5
24E
100
AcDbEntity
  8
0
100
AcDbPolyline
 62
7
  6
CONTINUOUS
 90
4
 70
0
 10
307.4094276679
 20
54.3387638819
 10
307.6005353419
 20
53.0688503197
 10
307.6140018596
 20
52.9671826774
 10
307.6151898783
 20
52.9485655236
  0
LINE
  5
24F
100
AcDbEntity
  8
0
100
AcDbLine
 62
7
  6
CONTINUOUS
 10
256.6139809673
 20
371.9476296513
 11
255.9974608077
 21
376.1121070841
  0
LINE
  5
250
100
AcDbEntity
  8
0
100
AcDbLine
 62
7
  6
CONTINUOUS
 10
255.9974608077
 20
376.1121070841
 11
255.3961582773
 21
380.3262008178
  0
LINE
  5
251
100
AcDbEntity
  8
0
100
AcDbLine
 62
7
  6
CONTINUOUS
 10
255.3961582773
 20
380.3262008178
 11
254.7772778653
 21
384.8407001814
  0
LINE
  5
252
100
AcDbEntity
  8
0
100
AcDbLine
 62
7
  6
CONTINUOUS
 10
254.7772778653
 20
384.8407001814
 11
254.1281814205
 21
389.7934717161
  0
LINE
  5
253
100
AcDbEntity
  8
0
100
AcDbLine
 62
7
  6
CONTINUOUS
 10
254.1281814205
 20
389.7934717161
 11
253.4650333062
 21
395.1133401791
  0
LINE
  5
254
100
AcDbEntity
  8
0
100
AcDbLine
 62
7
  6
CONTINUOUS
 10
253.4650333062
 20
395.1133401791
 11
252.8089635845
 21
400.6604331269
  0
LWPOLYLINE
  5
255
100
AcDbEntity
  8
0
100
AcDbPolyline
 62
7
  6
CONTINUOUS
 90
40
 70
0
 10
250.6824459847
 20
426.5276555488
 10
250.7219292316
 20
426.1765538435
 10
250.7571428244
 20
425.8754079371
 10
250.7883920486
 20
425.6197681176
 10
250.8153408624
 20
425.4132192109
 10
250.8396870427
 20
425.2355435455
 10
250.8616364915
 20
425.0838329274
 10
250.8809773157
 20
424.9605494086
 10
250.8987849816
 20
424.8537809333
 10
250.9152055428
 20
424.7616594216
 10
250.9300924688
 20
424.6858285643
 10
250.9440824959
 20
424.6197783309
 10
250.957287174
 20
424.5624272931
 10
250.9695960816
 20
424.5147428011
 10
250.9813122936
 20
424.4733524842
 10
250.9924863192
 20
424.4377987402
 10
251.0030681545
 20
424.4084666265
 10
251.0132086131
 20
424.3832736716
 10
251.0229271792
 20
424.3619848154
 10
251.032203285
 20
424.3447804299
 10
251.0411259793
 20
424.3302124578
 10
251.0497150429
 20
424.3181046473
 10
251.0579481484
 20
424.3085897868
 10
251.0658494816
 20
424.3006873821
 10
251.0734189267
 20
424.2942725445
 10
251.0806523368
 20
424.2894297634
 10
251.0875665725
 20
424.2854934925
 10
251.0941398317
 20
424.2823611743
 10
251.1003891932
 20
424.2800992099
 10
251.1063897341
 20
424.2783001038
 10
251.1121278338
 20
424.27689037
 10
251.1176135963
 20
424.2759186812
 10
251.1229586416
 20
424.2751697425
 10
251.1281625157
 20
424.2746050508
 10
251.1332237862
 20
424.2742504286
 10
251.1382538357
 20
424.2739965645
 10
251.14325554
 20
424.2738296333
 10
251.1482254562
 20
424.2737602961
 10
251.153266624
 20
424.2737244284
 10
251.1583830149
 20
424.2737199487
  0
LINE
  5
256
100
AcDbEntity
  8
0
100
AcDbLine
 62
7
  6
CONTINUOUS
 10
252.8089635845
 20
400.6604331269
 11
252.1715205702
 21
406.349796483
  0
LWPOLYLINE
  5
257
100
AcDbEntity
  8
0
100
AcDbPolyline
 62
7
  6
CONTINUOUS
 90
26
 70
0
 10
618.4923266745
 20
429.6998379789
 10
618.497920033
 20
429.7006027671
 10
618.503541066
 20
429.7016753267
 10
618.5092004255
 20
429.7031367345
 10
618.5148874595
 20
429.7050785019
 10
618.5206189097
 20
429.7076305246
 10
618.5264073272
 20
429.7109310155
 10
618.5322401608
 20
429.7151461898
 10
618.5380964989
 20
429.7205137646
 10
618.5439759724
 20
429.7272760086
 10
618.5498789503
 20
429.7357194843
 10
618.5557856288
 20
429.7462640959
 10
618.561694429
 20
429.7593242304
 10
618.5676069297
 20
429.7753850659
 10
618.5735080633
 20
429.7951713834
 10
618.5793860192
 20
429.8193715986
 10
618.585252608
 20
429.84880969
 10
618.5911281948
 20
429.8847598933
 10
618.5969796717
 20
429.928365274
 10
618.6028401466
 20
429.9810425562
 10
618.6088293084
 20
430.0451242159
 10
618.614860071
 20
430.1225674475
 10
618.6210195206
 20
430.2158766368
 10
618.6276886042
 20
430.3294906091
 10
618.6346330325
 20
430.4669761969
 10
618.6511346074
 20
430.8357731185
  0
LWPOLYLINE
  5
258
100
AcDbEntity
  8
0
100
AcDbPolyline
 62
7
  6
CONTINUOUS
 90
3
 70
0
 10
618.9421128731
 20
424.0451319061
 10
620.9858959033
 20
424.1978562617
 10
621.1240537824
 20
424.2071474679
  0
LINE
  5
259
100
AcDbEntity
  8
0
100
AcDbLine
 62
7
  6
CONTINUOUS
 10
618.5373831415
 20
424.0194295186
 11
618.9421128731
 21
424.0451319061
  0
LWPOLYLINE
  5
25A
100
AcDbEntity
  8
0
100
AcDbPolyline
 62
7
  6
CONTINUOUS
 90
3
 70
0
 10
621.1240537824
 20
424.2071474679
 10
621.3556060725
 20
424.2214119677
 10
621.4529514059
 20
424.2269300149
  0
LWPOLYLINE
  5
25B
100
AcDbEntity
  8
0
100
AcDbPolyline
 62
7
  6
CONTINUOUS
 90
4
 70
0
 10
255.6163197289
 20
424.0480366494
 10
255.9834482582
 20
424.0241494963
 10
256.374222461
 20
424.001341592
 10
257.6478438965
 20
423.9321037842
  0
LINE
  5
25C
100
AcDbEntity
  8
0
100
AcDbLine
 62
7
  6
CONTINUOUS
 10
253.2416044727
 20
424.221669123
 11
253.6463033337
 21
424.1957185474
  0
LINE
  5
25D
100
AcDbEntity
  8
0
100
AcDbLine
 62
7
  6
CONTINUOUS
 10
253.6463033337
 20
424.1957185474
 11
254.205130589
 21
424.1546600685
  0
LINE
  5
25E
100
AcDbEntity
  8
0
100
AcDbLine
 62
7
  6
CONTINUOUS
 10
254.205130589
 20
424.1546600685
 11
255.6163197289
 21
424.0480366494
  0
LINE
  5
25F
100
AcDbEntity
  8
0
100
AcDbLine
 62
7
  6
CONTINUOUS
 10
617.1640210487
 20
423.9430607202
 11
618.5373831415
 21
424.0194295186
  0
LINE
  5
260
100
AcDbEntity
  8
0
100
AcDbLine
 62
7
  6
CONTINUOUS
 10
614.5233165543
 20
423.8094781563
 11
617.1640210487
 21
423.9430607202
  0
LINE
  5
261
100
AcDbEntity
  8
0
100
AcDbLine
 62
7
  6
CONTINUOUS
 10
621.4529514059
 20
424.2269300149
 11
621.6972336935
 21
424.2390460477
  0
LINE
  5
262
100
AcDbEntity
  8
0
100
AcDbLine
 62
7
  6
CONTINUOUS
 10
611.5438262807
 20
423.6744061743
 11
614.5233165543
 21
423.8094781563
  0
LINE
  5
263
100
AcDbEntity
  8
0
100
AcDbLine
 62
7
  6
CONTINUOUS
 10
607.9755418695
 20
423.5306172288
 11
611.5438262807
 21
423.6744061743
  0
LINE
  5
264
100
AcDbEntity
  8
0
100
AcDbLine
 62
7
  6
CONTINUOUS
 10
621.6972336935
 20
424.2390460477
 11
622.0121130158
 21
424.2512624456
  0
LINE
  5
265
100
AcDbEntity
  8
0
100
AcDbLine
 62
7
  6
CONTINUOUS
 10
603.4728310737
 20
423.3707147006
 11
607.9755418695
 21
423.5306172288
  0
LINE
  5
266
100
AcDbEntity
  8
0
100
AcDbLine
 62
7
  6
CONTINUOUS
 10
622.0121130158
 20
424.2512624456
 11
622.1741982656
 21
424.2568167619
  0
LINE
  5
267
100
AcDbEntity
  8
0
100
AcDbLine
 62
7
  6
CONTINUOUS
 10
600.3130714069
 20
423.2761552743
 11
603.4728310737
 21
423.3707147006
  0
LWPOLYLINE
  5
268
100
AcDbEntity
  8
0
100
AcDbPolyline
 62
7
  6
CONTINUOUS
 90
3
 70
0
 10
622.1741982656
 20
424.2568167619
 10
622.3701440362
 20
424.2625238332
 10
622.4983573015
 20
424.2657526523
  0
LINE
  5
269
100
AcDbEntity
  8
0
100
AcDbLine
 62
7
  6
CONTINUOUS
 10
595.5921706558
 20
423.1593230003
 11
600.3130714069
 21
423.2761552743
  0
LWPOLYLINE
  5
26A
100
AcDbEntity
  8
0
100
AcDbPolyline
 62
7
  6
CONTINUOUS
 90
3
 70
0
 10
622.4983573015
 20
424.2657526523
 10
622.5372005913
 20
424.2664894215
 10
622.5739508377
 20
424.2673642495
  0
LINE
  5
26B
100
AcDbEntity
  8
0
100
AcDbLine
 62
7
  6
CONTINUOUS
 10
588.5664407054
 20
423.020801737
 11
595.5921706558
 21
423.1593230003
  0
LINE
  5
26C
100
AcDbEntity
  8
0
100
AcDbLine
 62
7
  6
CONTINUOUS
 10
622.6722464695
 20
424.2692729427
 11
622.7547388134
 21
424.270648186
  0
LINE
  5
26D
100
AcDbEntity
  8
0
100
AcDbLine
 62
7
  6
CONTINUOUS
 10
622.6085960062
 20
424.2681499234
 11
622.6413335641
 21
424.2686510467
  0
LINE
  5
26E
100
AcDbEntity
  8
0
100
AcDbLine
 62
7
  6
CONTINUOUS
 10
577.2281115561
 20
422.8522516292
 11
588.5664407054
 21
423.020801737
  0
LINE
  5
26F
100
AcDbEntity
  8
0
100
AcDbLine
 62
7
  6
CONTINUOUS
 10
622.7013260535
 20
424.2698706764
 11
622.7287218689
 21
424.2702192726
  0
LINE
  5
270
100
AcDbEntity
  8
0
100
AcDbLine
 62
7
  6
CONTINUOUS
 10
622.7794300277
 20
424.2710821754
 11
622.8866477308
 21
424.2723855891
  0
LWPOLYLINE
  5
271
100
AcDbEntity
  8
0
100
AcDbPolyline
 62
7
  6
CONTINUOUS
 90
36
 70
0
 10
623.4485133512
 20
424.2737089049
 10
623.4543792667
 20
424.2737689685
 10
623.4602392276
 20
424.273892559
 10
623.4660898751
 20
424.2740952717
 10
623.4720235488
 20
424.2745025878
 10
623.478040809
 20
424.2750932565
 10
623.4841396735
 20
424.275897526
 10
623.4904076494
 20
424.2771264869
 10
623.4968460913
 20
424.2787368921
 10
623.5034510652
 20
424.2807901834
 10
623.5103013084
 20
424.2836627199
 10
623.5173929582
 20
424.2872722336
 10
623.5247263159
 20
424.2917288316
 10
623.532385871
 20
424.2977060013
 10
623.5403585184
 20
424.3050598687
 10
623.5486531147
 20
424.3139737551
 10
623.5573870197
 20
424.3256229456
 10
623.5665360494
 20
424.3397603213
 10
623.576120079
 20
424.3566894799
 10
623.5863230653
 20
424.3784289731
 10
623.5971008582
 20
424.4045338218
 10
623.6084939302
 20
424.4355331986
 10
623.6208144569
 20
424.4749373929
 10
623.6339791805
 20
424.5219003098
 10
623.648068852
 20
424.5774023557
 10
623.6636438626
 20
424.6477534872
 10
623.680544001
 20
424.7312620256
 10
623.698928348
 20
424.8298539986
 10
623.7198390845
 20
424.9553925854
 10
623.7429674506
 20
425.1045197188
 10
623.7686198823
 20
425.2810439728
 10
623.7987614149
 20
425.5078607281
 10
623.8327979391
 20
425.7784639997
 10
623.8713026899
 20
426.1003037186
 10
623.9179685853
 20
426.5178621907
 10
624.0341161188
 20
427.6265502279
  0
LINE
  5
272
100
AcDbEntity
  8
0
100
AcDbLine
 62
7
  6
CONTINUOUS
 10
622.846602721
 20
424.2719632033
 11
622.8670290151
 21
424.2721529867
  0
LWPOLYLINE
  5
273
100
AcDbEntity
  8
0
100
AcDbPolyline
 62
7
  6
CONTINUOUS
 90
6
 70
0
 10
618.4646341677
 20
429.6985830065
 10
618.4696943125
 20
429.698629663
 10
618.4754327139
 20
429.6987456116
 10
618.481083015
 20
429.6989579716
 10
618.4867122929
 20
429.6993069684
 10
618.4923266745
 20
429.6998379789
  0
LINE
  5
274
100
AcDbEntity
  8
0
100
AcDbLine
 62
7
  6
CONTINUOUS
 10
554.8148613956
 20
422.6305228586
 11
577.2281115561
 21
422.8522516292
  0
LINE
  5
275
100
AcDbEntity
  8
0
100
AcDbLine
 62
7
  6
CONTINUOUS
 10
622.9409786616
 20
424.2729322964
 11
623.0841335861
 21
424.2739475681
  0
LINE
  5
276
100
AcDbEntity
  8
0
100
AcDbLine
 62
7
  6
CONTINUOUS
 10
509.7295241288
 20
422.390215486
 11
554.8148613956
 21
422.6305228586
  0
LINE
  5
277
100
AcDbEntity
  8
0
100
AcDbLine
 62
7
  6
CONTINUOUS
 10
623.0045504425
 20
424.2734725471
 11
623.0595569096
 21
424.2737975177
  0
LINE
  5
278
100
AcDbEntity
  8
0
100
AcDbLine
 62
7
  6
CONTINUOUS
 10
251.1583830149
 20
424.2737199487
 11
251.2653539585
 21
424.2741665284
  0
LINE
  5
279
100
AcDbEntity
  8
0
100
AcDbLine
 62
7
  6
CONTINUOUS
 10
624.2996986488
 20
430.1971675954
 11
624.7386112849
 21
430.1984302019
  0
LINE
  5
27A
100
AcDbEntity
  8
0
100
AcDbLine
 62
7
  6
CONTINUOUS
 10
251.2740201339
 20
424.2741790648
 11
251.3222487353
 21
424.2742762641
  0
LINE
  5
27B
100
AcDbEntity
  8
0
100
AcDbLine
 62
7
  6
CONTINUOUS
 10
623.106947423
 20
424.2740315045
 11
623.199544222
 21
424.2742677483
  0
LINE
  5
27C
100
AcDbEntity
  8
0
100
AcDbLine
 62
7
  6
CONTINUOUS
 10
256.137347586
 20
429.6985812713
 11
618.4638639375
 21
429.6985790847
  0
LINE
  5
27D
100
AcDbEntity
  8
06___PRT_ALL_SURFS
100
AcDbLine
 62
7
  6
CONTINUOUS
 10
618.4617527408
 20
429.6985291668
 11
256.120880844
 21
429.6985227281
  0
LINE
  5
27E
100
AcDbEntity
  8
0
100
AcDbLine
 62
7
  6
CONTINUOUS
 10
623.2197748263
 20
424.2742798985
 11
623.346634646
 21
424.2741315626
  0
LINE
  5
27F
100
AcDbEntity
  8
0
100
AcDbLine
 62
7
  6
CONTINUOUS
 10
251.3813136402
 20
424.2742717461
 11
251.5429339349
 21
424.2738426685
  0
LINE
  5
280
100
AcDbEntity
  8
0
100
AcDbLine
 62
7
  6
CONTINUOUS
 10
249.8630370451
 20
430.1984510364
 11
250.3019513429
 21
430.1971884239
  0
LINE
  5
281
100
AcDbEntity
  8
0
100
AcDbLine
 62
7
  6
CONTINUOUS
 10
623.3971478312
 20
424.2739532354
 11
623.4426384416
 21
424.2737274536
  0
LWPOLYLINE
  5
282
100
AcDbEntity
  8
0
100
AcDbPolyline
 62
7
  6
CONTINUOUS
 90
3
 70
0
 10
251.650783484
 20
424.2730010544
 10
251.6754776324
 20
424.2728658887
 10
251.7014704801
 20
424.272530911
  0
LINE
  5
283
100
AcDbEntity
  8
0
100
AcDbLine
 62
7
  6
CONTINUOUS
 10
623.4243434199
 20
424.2738289286
 11
623.4305539247
 21
424.2737829431
  0
LINE
  5
284
100
AcDbEntity
  8
0
100
AcDbLine
 62
7
  6
CONTINUOUS
 10
318.4228758269
 20
422.6411643645
 11
509.7295241288
 21
422.390215486
  0
LINE
  5
285
100
AcDbEntity
  8
0
100
AcDbLine
 62
7
  6
CONTINUOUS
 10
251.4088275353
 20
424.2742594138
 11
251.6047025689
 21
424.2734574843
  0
LWPOLYLINE
  5
286
100
AcDbEntity
  8
0
100
AcDbPolyline
 62
7
  6
CONTINUOUS
 90
3
 70
0
 10
251.7288736337
 20
424.2721777947
 10
251.7576573753
 20
424.2719449303
 10
251.8526211855
 20
424.2705737327
  0
LINE
  5
287
100
AcDbEntity
  8
0
100
AcDbLine
 62
7
  6
CONTINUOUS
 10
251.6047025689
 20
424.2734574843
 11
251.6271978099
 21
424.2732238535
  0
LINE
  5
288
100
AcDbEntity
  8
0
100
AcDbLine
 62
7
  6
CONTINUOUS
 10
297.0309304808
 20
422.8565653943
 11
318.4228758269
 21
422.6411643645
  0
LINE
  5
289
100
AcDbEntity
  8
0
100
AcDbLine
 62
7
  6
CONTINUOUS
 10
284.6784629393
 20
423.0449751685
 11
297.0309304808
 21
422.8565653943
  0
LINE
  5
28A
100
AcDbEntity
  8
0
100
AcDbLine
 62
7
  6
CONTINUOUS
 10
251.7878068398
 20
424.2714997404
 11
251.9975107362
 21
424.2679796772
  0
LINE
  5
28B
100
AcDbEntity
  8
0
100
AcDbLine
 62
7
  6
CONTINUOUS
 10
277.4648964071
 20
423.1949154126
 11
284.6784629393
 21
423.0449751685
  0
LINE
  5
28C
100
AcDbEntity
  8
0
100
AcDbLine
 62
7
  6
CONTINUOUS
 10
251.9975107362
 20
424.2679796772
 11
252.1197364035
 21
424.2653287528
  0
LINE
  5
28D
100
AcDbEntity
  8
0
100
AcDbLine
 62
7
  6
CONTINUOUS
 10
273.9611088538
 20
423.2852348407
 11
277.4648964071
 21
423.1949154126
  0
LINE
  5
28E
100
AcDbEntity
  8
0
100
AcDbLine
 62
7
  6
CONTINUOUS
 10
252.1197364035
 20
424.2653287528
 11
252.3021605377
 21
424.2605866407
  0
LINE
  5
28F
100
AcDbEntity
  8
0
100
AcDbLine
 62
7
  6
CONTINUOUS
 10
270.848692322
 20
423.3800564981
 11
273.9611088538
 21
423.2852348407
  0
LWPOLYLINE
  5
290
100
AcDbEntity
  8
0
100
AcDbPolyline
 62
7
  6
CONTINUOUS
 90
3
 70
0
 10
252.3021605377
 20
424.2605866407
 10
252.5007124938
 20
424.2545149558
 10
252.6689374541
 20
424.2484760537
  0
LINE
  5
291
100
AcDbEntity
  8
0
100
AcDbLine
 62
7
  6
CONTINUOUS
 10
266.4014837798
 20
423.5392124475
 11
270.848692322
 21
423.3800564981
  0
LINE
  5
292
100
AcDbEntity
  8
0
100
AcDbLine
 62
7
  6
CONTINUOUS
 10
252.6689374541
 20
424.2484760537
 11
252.8722886804
 21
424.2404421185
  0
LINE
  5
293
100
AcDbEntity
  8
0
100
AcDbLine
 62
7
  6
CONTINUOUS
 10
262.8575865871
 20
423.6829534735
 11
266.4014837798
 21
423.5392124475
  0
LINE
  5
294
100
AcDbEntity
  8
0
100
AcDbLine
 62
7
  6
CONTINUOUS
 10
260.0416467016
 20
423.8112328916
 11
262.8575865871
 21
423.6829534735
  0
LINE
  5
295
100
AcDbEntity
  8
0
100
AcDbLine
 62
7
  6
CONTINUOUS
 10
252.8722886804
 20
424.2404421185
 11
253.1351637493
 21
424.2276005551
  0
LINE
  5
296
100
AcDbEntity
  8
0
100
AcDbLine
 62
7
  6
CONTINUOUS
 10
257.6478438965
 20
423.9321037842
 11
260.0416467016
 21
423.8112328916
  0
LINE
  5
297
100
AcDbEntity
  8
0
100
AcDbLine
 62
7
  6
CONTINUOUS
 10
253.1351637493
 20
424.2276005551
 11
253.2416044727
 21
424.221669123
  0
LWPOLYLINE
  5
298
100
AcDbEntity
  8
0
100
AcDbPolyline
 62
7
  6
CONTINUOUS
 90
3
 70
0
 10
566.9862614041
 20
52.9485655236
 10
566.9874494229
 20
52.9671826774
 10
567.0009159406
 20
53.0688503197
  0
LINE
  5
299
100
AcDbEntity
  8
06___PRT_ALL_SURFS
100
AcDbLine
 62
7
  6
CONTINUOUS
 10
623.4384205748
 20
768.4172740919
 11
623.4384434598
 21
768.4164865471
  0
LWPOLYLINE
  5
29A
100
AcDbEntity
  8
06___PRT_ALL_SURFS
100
AcDbPolyline
 62
7
  6
CONTINUOUS
 90
5
 70
0
 10
623.4382034141
 20
768.4268049711
 10
623.4392797359
 20
768.3571194103
 10
623.4399895995
 20
768.3333297648
 10
623.4406792882
 20
768.3181744353
 10
623.4413487859
 20
768.3116534224
  0
LINE
  5
29B
100
AcDbEntity
  8
0
100
AcDbLine
 62
7
  6
CONTINUOUS
 10
625.0543518914
 20
471.1342094881
 11
625.343917662
 21
457.4318268711
  0
LINE
  5
29C
100
AcDbEntity
  8
0
100
AcDbLine
 62
7
  6
CONTINUOUS
 10
624.9723979532
 20
457.4193340037
 11
624.681301299
 21
473.5110710286
  0
LINE
  5
29D
100
AcDbEntity
  8
06___PRT_ALL_SURFS
100
AcDbLine
 62
7
  6
CONTINUOUS
 10
623.4385501226
 20
768.389900272
 11
623.4367289224
 21
768.5122868572
  0
LINE
  5
29E
100
AcDbEntity
  8
0
100
AcDbLine
 62
7
  6
CONTINUOUS
 10
624.9815479206
 20
475.7274701064
 11
625.0543518914
 21
471.1342094881
  0
LWPOLYLINE
  5
29F
100
AcDbEntity
  8
0
100
AcDbPolyline
 62
7
  6
CONTINUOUS
 90
11
 70
0
 10
625.343917662
 20
457.4318268711
 10
625.4119070454
 20
453.185512314
 10
625.4322365974
 20
451.15546611
 10
625.4420626914
 20
449.1816338463
 10
625.4405552334
 20
447.2484210848
 10
625.427023455
 20
445.3657205829
 10
625.4009393987
 20
443.5237021105
 10
625.3608190607
 20
441.6772261162
 10
625.3051945322
 20
439.8194382426
 10
625.2330408304
 20
437.957310636
 10
625.1420378354
 20
436.0665108916
  0
LINE
  5
2A0
100
AcDbEntity
  8
0
100
AcDbLine
 62
7
  6
CONTINUOUS
 10
624.9327732158
 20
480.2095155541
 11
624.9815479206
 21
475.7274701064
  0
LINE
  5
2A1
100
AcDbEntity
  8
0
100
AcDbLine
 62
7
  6
CONTINUOUS
 10
624.681301299
 20
473.5110710286
 11
624.6122153257
 21
479.5037543042
  0
LINE
  5
2A2
100
AcDbEntity
  8
06___PRT_ALL_SURFS
100
AcDbLine
 62
7
  6
CONTINUOUS
 10
623.4363542696
 20
768.5382214129
 11
623.4312174594
 21
769.0104884954
  0
LINE
  5
2A3
100
AcDbEntity
  8
06___PRT_ALL_SURFS
100
AcDbLine
 62
7
  6
CONTINUOUS
 10
623.3714918311
 20
781.0113327494
 11
623.4318967347
 21
768.932858445
  0
LINE
  5
2A4
100
AcDbEntity
  8
0
100
AcDbLine
 62
7
  6
CONTINUOUS
 10
624.895307113
 20
486.6972774037
 11
624.9327732158
 21
480.2095155541
  0
LINE
  5
2A5
100
AcDbEntity
  8
0
100
AcDbLine
 62
7
  6
CONTINUOUS
 10
624.6122153257
 20
479.5037543042
 11
624.5707055165
 21
486.5630158401
  0
LINE
  5
2A6
100
AcDbEntity
  8
0
100
AcDbLine
 62
7
  6
CONTINUOUS
 10
623.7931139854
 20
768.310555928
 11
624.5717976416
 21
575.3976683633
  0
LINE
  5
2A7
100
AcDbEntity
  8
0
100
AcDbLine
 62
7
  6
CONTINUOUS
 10
624.3462215501
 20
543.822028337
 11
623.3593156697
 21
781.011298023
  0
LINE
  5
2A8
100
AcDbEntity
  8
0
100
AcDbLine
 62
7
  6
CONTINUOUS
 10
624.5717976416
 20
575.3976683633
 11
624.8603120541
 21
501.6976656609
  0
LINE
  5
2A9
100
AcDbEntity
  8
0
100
AcDbLine
 62
7
  6
CONTINUOUS
 10
624.5707055165
 20
486.5630158401
 11
624.3462215501
 21
543.822028337
  0
LINE
  5
2AA
100
AcDbEntity
  8
0
100
AcDbLine
 62
7
  6
CONTINUOUS
 10
624.8603120541
 20
501.6976656609
 11
624.895307113
 21
486.6972774037
  0
LINE
  5
2AB
100
AcDbEntity
  8
0
100
AcDbLine
 62
7
  6
CONTINUOUS
 10
618.6511346074
 20
430.8357731185
 11
618.6726839905
 21
431.3815995742
  0
LWPOLYLINE
  5
2AC
100
AcDbEntity
  8
0
100
AcDbPolyline
 62
7
  6
CONTINUOUS
 90
3
 70
0
 10
618.6726839905
 20
431.3815995742
 10
618.7328372979
 20
432.74468495
 10
618.7687050067
 20
433.4147917075
  0
LWPOLYLINE
  5
2AD
100
AcDbEntity
  8
0
100
AcDbPolyline
 62
7
  6
CONTINUOUS
 90
4
 70
0
 10
625.1420378354
 20
436.0665108916
 10
625.0300503291
 20
434.1389912734
 10
624.8959129736
 20
432.1829529513
 10
624.738280468
 20
430.1984582359
  0
LWPOLYLINE
  5
2AE
100
AcDbEntity
  8
0
100
AcDbPolyline
 62
7
  6
CONTINUOUS
 90
14
 70
0
 10
624.6319321968
 20
434.8947743796
 10
624.6875651266
 20
435.8263233448
 10
624.7431081948
 20
436.8456664589
 10
624.7973462152
 20
437.952039928
 10
624.8490929206
 20
439.1463021067
 10
624.89763833
 20
440.4476994841
 10
624.9414671571
 20
441.8568528936
 10
624.9790601277
 20
443.3732609332
 10
625.009161592
 20
445.0145078857
 10
625.0303422153
 20
446.7902565726
 10
625.0411765869
 20
448.6909537047
 10
625.0407232023
 20
450.7053464217
 10
625.02859618
 20
452.8523224461
 10
624.9723979532
 20
457.4193340037
  0
LINE
  5
2AF
100
AcDbEntity
  8
0
100
AcDbLine
 62
7
  6
CONTINUOUS
 10
618.7687050067
 20
433.4147917075
 11
618.9526792224
 21
436.4312091292
  0
LINE
  5
2B0
100
AcDbEntity
  8
0
100
AcDbLine
 62
7
  6
CONTINUOUS
 10
624.5557314761
 20
433.7294031613
 11
624.6319321968
 21
434.8947743796
  0
LWPOLYLINE
  5
2B1
100
AcDbEntity
  8
0
100
AcDbPolyline
 62
7
  6
CONTINUOUS
 90
3
 70
0
 10
624.2996986488
 20
430.1971675954
 10
624.4681710323
 20
432.5148590055
 10
624.5557314761
 20
433.7294031613
  0
LINE
  5
2B2
100
AcDbEntity
  8
0
100
AcDbLine
 62
7
  6
CONTINUOUS
 10
624.7386112849
 20
430.1984302019
 11
624.2176174819
 21
424.2704617171
  0
LINE
  5
2B3
100
AcDbEntity
  8
0
100
AcDbLine
 62
7
  6
CONTINUOUS
 10
624.2010588324
 20
429.3704882351
 11
624.422038901
 21
431.8381294053
  0
LINE
  5
2B4
100
AcDbEntity
  8
0
100
AcDbLine
 62
7
  6
CONTINUOUS
 10
624.2176174819
 20
424.2704617171
 11
623.6963245449
 21
418.6985652062
  0
LINE
  5
2B5
100
AcDbEntity
  8
0
100
AcDbLine
 62
7
  6
CONTINUOUS
 10
624.0341161188
 20
427.6265502279
 11
624.2010588324
 21
429.3704882351
  0
LINE
  5
2B6
100
AcDbEntity
  8
0
100
AcDbLine
 62
7
  6
CONTINUOUS
 10
623.6963245449
 20
418.6985652062
 11
623.0898187989
 21
412.5939354166
  0
LINE
  5
2B7
100
AcDbEntity
  8
0
100
AcDbLine
 62
7
  6
CONTINUOUS
 10
623.0898187989
 20
412.5939354166
 11
622.4479471722
 21
406.5152573792
  0
LINE
  5
2B8
100
AcDbEntity
  8
0
100
AcDbLine
 62
7
  6
CONTINUOUS
 10
622.4479471722
 20
406.5152573792
 11
621.7962130662
 21
400.6927913179
  0
LINE
  5
2B9
100
AcDbEntity
  8
0
100
AcDbLine
 62
7
  6
CONTINUOUS
 10
621.7962130662
 20
400.6927913179
 11
621.1630664964
 21
395.3329765665
  0
LINE
  5
2BA
100
AcDbEntity
  8
0
100
AcDbLine
 62
7
  6
CONTINUOUS
 10
621.1630664964
 20
395.3329765665
 11
620.564147213
 21
390.5063264737
  0
LINE
  5
2BB
100
AcDbEntity
  8
0
100
AcDbLine
 62
7
  6
CONTINUOUS
 10
620.564147213
 20
390.5063264737
 11
619.9902187168
 21
386.0853475822
  0
LINE
  5
2BC
100
AcDbEntity
  8
0
100
AcDbLine
 62
7
  6
CONTINUOUS
 10
619.9902187168
 20
386.0853475822
 11
619.4121684212
 21
381.8142326758
  0
LINE
  5
2BD
100
AcDbEntity
  8
0
100
AcDbLine
 62
7
  6
CONTINUOUS
 10
619.4121684212
 20
381.8142326758
 11
618.8071278916
 21
377.5179792594
  0
LINE
  5
2BE
100
AcDbEntity
  8
0
100
AcDbLine
 62
7
  6
CONTINUOUS
 10
618.8071278916
 20
377.5179792594
 11
618.1773729618
 21
373.2148201715
  0
LINE
  5
2BF
100
AcDbEntity
  8
0
100
AcDbLine
 62
7
  6
CONTINUOUS
 10
567.0009159406
 20
53.0688503197
 11
567.1920236145
 21
54.3387638819
  0
LINE
  5
2C0
100
AcDbEntity
  8
0
100
AcDbLine
 62
7
  6
CONTINUOUS
 10
618.1773729618
 20
373.2148201715
 11
617.5178420261
 21
368.8649784904
  0
LINE
  5
2C1
100
AcDbEntity
  8
0
100
AcDbLine
 62
7
  6
CONTINUOUS
 10
567.1920236145
 20
54.3387638819
 11
567.9095032343
 21
58.9194910843
  0
LWPOLYLINE
  5
2C2
100
AcDbEntity
  8
0
100
AcDbPolyline
 62
7
  6
CONTINUOUS
 90
3
 70
0
 10
617.5178420261
 20
368.8649784904
 10
616.2789813949
 20
360.9737335072
 10
616.0041337506
 20
359.2476772158
  0
LINE
  5
2C3
100
AcDbEntity
  8
06___PRT_ALL_SURFS
100
AcDbLine
 62
7
  6
CONTINUOUS
 10
616.0041329196
 20
359.2476777642
 11
564.2857316126
 21
34.6985655231
  0
LINE
  5
2C4
100
AcDbEntity
  8
0
100
AcDbLine
 62
7
  6
CONTINUOUS
 10
568.1630969142
 20
60.4779669579
 11
568.520435692
 21
62.7260240276
  0
LINE
  5
2C5
100
AcDbEntity
  8
0
100
AcDbLine
 62
7
  6
CONTINUOUS
 10
567.9095032343
 20
58.9194910843
 11
568.1630969142
 21
60.4779669579
  0
LINE
  5
2C6
100
AcDbEntity
  8
0
100
AcDbLine
 62
7
  6
CONTINUOUS
 10
568.520435692
 20
62.7260240276
 11
569.0406028672
 21
65.9106227839
  0
LWPOLYLINE
  5
2C7
100
AcDbEntity
  8
0
100
AcDbPolyline
 62
7
  6
CONTINUOUS
 90
5
 70
0
 10
569.0406028672
 20
65.9106227839
 10
569.0869295726
 20
66.1812661287
 10
569.1186763302
 20
66.3579138978
 10
569.1349799229
 20
66.4406699349
 10
569.1374685283
 20
66.4485655236
  0
LINE
  5
2C8
100
AcDbEntity
  8
06___PRT_ALL_SURFS
100
AcDbLine
 62
7
  6
CONTINUOUS
 10
623.3444162376
 20
781.4006133064
 11
623.3714918311
 21
781.0113327494
  0
LINE
  5
2C9
100
AcDbEntity
  8
06___PRT_ALL_SURFS
100
AcDbLine
 62
7
  6
CONTINUOUS
 10
623.2543561986
 20
781.7852666702
 11
623.3321314194
 21
781.4017127406
  0
LINE
  5
2CA
100
AcDbEntity
  8
06___PRT_ALL_SURFS
100
AcDbLine
 62
7
  6
CONTINUOUS
 10
250.8151783434
 20
710.5485655236
 11
250.7718536744
 21
710.5485655236
  0
LINE
  5
2CB
100
AcDbEntity
  8
06___PRT_ALL_SURFS
100
AcDbLine
 62
7
  6
CONTINUOUS
 10
250.8492266748
 20
728.0485655236
 11
250.8928334589
 21
728.0485655236
  0
LWPOLYLINE
  5
2CC
100
AcDbEntity
  8
06___PRT_ALL_SURFS
100
AcDbPolyline
 62
7
  6
CONTINUOUS
 90
5
 70
0
 10
623.4253830825
 20
769.7286393821
 10
623.561328346
 20
769.4549275301
 10
623.6883207777
 20
769.0846746646
 10
623.7660265914
 20
768.7010381698
 10
623.793122526
 20
768.3105489571
  0
LINE
  5
2CD
100
AcDbEntity
  8
06___PRT_ALL_SURFS
100
AcDbLine
 62
7
  6
CONTINUOUS
 10
250.8083373061
 20
768.3105582344
 11
251.0034948686
 21
768.3116164598
  0
LINE
  5
2CE
100
AcDbEntity
  8
06___PRT_ALL_SURFS
100
AcDbLine
 62
7
  6
CONTINUOUS
 10
251.0034948686
 20
768.3116164598
 11
251.1601024965
 21
768.3116534224
  0
LINE
  5
2CF
100
AcDbEntity
  8
06___PRT_ALL_SURFS
100
AcDbLine
 62
7
  6
CONTINUOUS
 10
623.4413487859
 20
768.3116534224
 11
623.5979546706
 21
768.3116165496
  0
LINE
  5
2D0
100
AcDbEntity
  8
06___PRT_ALL_SURFS
100
AcDbLine
 62
7
  6
CONTINUOUS
 10
623.5979546706
 20
768.3116165496
 11
623.7931139854
 21
768.310555928
  0
LWPOLYLINE
  5
2D1
100
AcDbEntity
  8
06___PRT_ALL_SURFS
100
AcDbPolyline
 62
7
  6
CONTINUOUS
 90
10
 70
0
 10
253.8515753592
 20
783.973038778
 10
253.4676980643
 20
783.8968928056
 10
253.096998893
 20
783.7714232347
 10
252.7457864453
 20
783.598765089
 10
252.4200377451
 20
783.3818564647
 10
252.1252965173
 20
783.1243885396
 10
251.8665788159
 20
782.8307427364
 10
251.6482877161
 20
782.5059162297
 10
251.4741383485
 20
782.155436935
 10
251.3470945955
 20
781.7852693318
  0
LINE
  5
2D2
100
AcDbEntity
  8
06___PRT_ALL_SURFS
100
AcDbLine
 62
7
  6
CONTINUOUS
 10
254.2299228388
 20
783.9985655236
 11
253.8377092297
 21
783.9728112779
  0
LINE
  5
2D3
100
AcDbEntity
  8
06___PRT_ALL_SURFS
100
AcDbLine
 62
7
  6
CONTINUOUS
 10
623.3593156697
 20
781.011298023
 11
623.3714918311
 21
781.0113327494
  0
LINE
  5
2D4
100
AcDbEntity
  8
06___PRT_ALL_SURFS
100
AcDbLine
 62
7
  6
CONTINUOUS
 10
254.2299228388
 20
783.9985655236
 11
620.3593522133
 21
783.9985655236
  0
LINE
  5
2D5
100
AcDbEntity
  8
06___PRT_ALL_SURFS
100
AcDbLine
 62
7
  6
CONTINUOUS
 10
251.2299594513
 20
781.0113327494
 11
251.2421356065
 21
781.0112965351
  0
LINE
  5
2D6
100
AcDbEntity
  8
06___PRT_ALL_SURFS
100
AcDbLine
 62
7
  6
CONTINUOUS
 10
620.3593522133
 20
783.9985655236
 11
620.7498775625
 21
783.9730384034
  0
LWPOLYLINE
  5
2D7
100
AcDbEntity
  8
06___PRT_ALL_SURFS
100
AcDbPolyline
 62
7
  6
CONTINUOUS
 90
10
 70
0
 10
620.7637420528
 20
783.9728112779
 10
621.1391554562
 20
783.8986930815
 10
621.4995084121
 20
783.7784311999
 10
621.8476060556
 20
783.6103053882
 10
622.1788942942
 20
783.3930233848
 10
622.4797251232
 20
783.1329222822
 10
622.7407207086
 20
782.838905035
 10
622.9609313953
 20
782.5134800387
 10
623.1374008973
 20
782.1604180949
 10
623.2661839449
 20
781.7864365934
  0
LWPOLYLINE
  5
2D8
100
AcDbEntity
  8
06___PRT_ALL_SURFS
100
AcDbPolyline
 62
7
  6
CONTINUOUS
 90
4
 70
0
 10
621.5044574047
 20
783.7714206637
 10
621.8556704045
 20
783.5987611892
 10
622.1814189531
 20
783.3818514001
 10
622.4761594386
 20
783.1243826824
  0
ENDSEC
  0
SECTION
  2
OBJECTS
  0
DICTIONARY
  5
C
100
AcDbDictionary
280
0
281
1
  3
ACAD_GROUP
350
D
  3
ACAD_MLINESTYLE
350
17
  3
ACAD_LAYOUT
350
1A
  3
ACAD_PLOTSETTINGS
350
19
  3
ACAD_PLOTSTYLENAME
350
E
  0
DICTIONARY
  5
D
102
{ACAD_REACTORS
330
C
102
}
100
AcDbDictionary
280
0
281
1
  0
ACDBDICTIONARYWDFLT
  5
E
102
{ACAD_REACTORS
330
C
102
}
100
AcDbDictionary
281
1
  3
Normal
350
F
100
AcDbDictionaryWithDefault
340
F
  0
DICTIONARY
  5
17
102
{ACAD_REACTORS
330
C
102
}
100
AcDbDictionary
280
0
281
1
  3
Standard
350
18
  0
DICTIONARY
  5
19
102
{ACAD_REACTORS
330
C
102
}
100
AcDbDictionary
281
1
  0
DICTIONARY
  5
1A
102
{ACAD_REACTORS
330
C
102
}
100
AcDbDictionary
281
1
  3
Model
350
2D9
  3
Layout1
350
2DA
  0
ACDBPLACEHOLDER
  5
F
102
{ACAD_REACTORS
330
E
102
}
  0
MLINESTYLE
  5
18
102
{ACAD_REACTORS
330
17
102
}
100
AcDbMlineStyle
  2
STANDARD
 70
0
  3

 62
256
 51
90.0
 52
90.0
 71
2
 49
0.5
 62
256
  6
BYLAYER
 49
-0.5
 62
256
  6
BYLAYER
  0
LAYOUT
  5
2D9
102
{ACAD_REACTORS
330
1A
102
}
100
AcDbPlotSettings
  1

  2
none_device
  4
ISO_A1_(594.00_x_841.00_MM)
  6

 40
0.0
 41
0.0
 42
0.0
 43
0.0
 44
841.0
 45
594.0
 46
0.0
 47
0.0
 48
0.0
 49
0.0
140
0.0
141
0.0
142
1.0
143
1.0
 70
1024
 72
1
 73
0
 74
0
  7

 75
0
147
1.0
148
0.0
149
0.0
100
AcDbLayout
  1
Model
 70
0
 71
0
 10
0.0
 20
0.0
 11
841.0
 21
594.0
 12
0.0
 22
0.0
 32
0.0
 14
0.0
 24
0.0
 34
0.0
 15
0.0
 25
0.0
 35
0.0
146
0.0
 13
0.0
 23
0.0
 33
0.0
 16
1.0
 26
0.0
 36
0.0
 17
0.0
 27
1.0
 37
0.0
 76
0
330
20C
345
0
346
0
  0
LAYOUT
  5
2DA
102
{ACAD_REACTORS
330
1A
102
}
100
AcDbPlotSettings
  1

  2
none_device
  4
ISO_A1_(594.00_x_841.00_MM)
  6

 40
0.0
 41
0.0
 42
0.0
 43
0.0
 44
841.0
 45
594.0
 46
0.0
 47
0.0
 48
0.0
 49
0.0
140
0.0
141
0.0
142
1.0
143
1.0
 70
0
 72
1
 73
0
 74
0
  7

 75
0
147
1.0
148
0.0
149
0.0
100
AcDbLayout
  1
Layout1
 70
0
 71
1
 10
0.0
 20
0.0
 11
841.0
 21
594.0
 12
0.0
 22
0.0
 32
0.0
 14
0.0
 24
0.0
 34
0.0
 15
0.0
 25
0.0
 35
0.0
146
0.0
 13
0.0
 23
0.0
 33
0.0
 16
1.0
 26
0.0
 36
0.0
 17
0.0
 27
1.0
 37
0.0
 76
0
330
20D
345
0
346
0
  0
ENDSEC
  0
EOF
