  0
SECTION
  2
HEADER
  9
$ACADVER
  1
AC1015
  9
$ACADMAINTVER
 70
    20
  9
$DWGCODEPAGE
  3
ANSI_936
  9
$INSBASE
 10
0.0
 20
0.0
 30
0.0
  9
$EXTMIN
 10
-1003.373376196379
 20
-106.6325409443252
 30
-0.0015258207003583
  9
$EXTMAX
 10
-121.5271296260016
 20
667.5639452857449
 30
0.0000000349246037
  9
$LIMMIN
 10
0.0
 20
0.0
  9
$LIMMAX
 10
863.6000000000001
 20
558.8
  9
$ORTHOMODE
 70
     0
  9
$REGENMODE
 70
     1
  9
$FILLMODE
 70
     1
  9
$QTEXTMODE
 70
     0
  9
$MIRRTEXT
 70
     0
  9
$LTSCALE
 40
47.498
  9
$ATTMODE
 70
     1
  9
$TEXTSIZE
 40
0.2
  9
$TRACEWID
 40
0.05
  9
$TEXTSTYLE
  7
STANDARD
  9
$CLAYER
  8
0
  9
$CELTYPE
  6
BYLAYER
  9
$CECOLOR
 62
   256
  9
$CELTSCALE
 40
1.0
  9
$DISPSILH
 70
     0
  9
$DIMSCALE
 40
1.0
  9
$DIMASZ
 40
4.7625
  9
$DIMEXO
 40
5.397499999999999
  9
$DIMDLI
 40
32.8168
  9
$DIMRND
 40
0.0
  9
$DIMDLE
 40
0.0
  9
$DIMEXE
 40
15.5448
  9
$DIMTP
 40
0.0
  9
$DIMTM
 40
0.0
  9
$DIMTXT
 40
3.96875
  9
$DIMCEN
 40
7.7724
  9
$DIMTSZ
 40
0.0
  9
$DIMTOL
 70
     1
  9
$DIMLIM
 70
     0
  9
$DIMTIH
 70
     1
  9
$DIMTOH
 70
     1
  9
$DIMSE1
 70
     0
  9
$DIMSE2
 70
     0
  9
$DIMTAD
 70
     0
  9
$DIMZIN
 70
     0
  9
$DIMBLK
  1

  9
$DIMASO
 70
     1
  9
$DIMSHO
 70
     1
  9
$DIMPOST
  1

  9
$DIMAPOST
  1

  9
$DIMALT
 70
     0
  9
$DIMALTD
 70
     2
  9
$DIMALTF
 40
25.4
  9
$DIMLFAC
 40
1.0
  9
$DIMTOFL
 70
     0
  9
$DIMTVP
 40
0.0
  9
$DIMTIX
 70
     0
  9
$DIMSOXD
 70
     0
  9
$DIMSAH
 70
     0
  9
$DIMBLK1
  1

  9
$DIMBLK2
  1

  9
$DIMSTYLE
  2
STANDARD
  9
$DIMCLRD
 70
     0
  9
$DIMCLRE
 70
     0
  9
$DIMCLRT
 70
     0
  9
$DIMTFAC
 40
1.0
  9
$DIMGAP
 40
0.09
  9
$DIMJUST
 70
     0
  9
$DIMSD1
 70
     0
  9
$DIMSD2
 70
     0
  9
$DIMTOLJ
 70
     1
  9
$DIMTZIN
 70
     0
  9
$DIMALTZ
 70
     0
  9
$DIMALTTZ
 70
     0
  9
$DIMUPT
 70
     0
  9
$DIMDEC
 70
     4
  9
$DIMTDEC
 70
     4
  9
$DIMALTU
 70
     2
  9
$DIMALTTD
 70
     2
  9
$DIMTXSTY
  7
STANDARD
  9
$DIMAUNIT
 70
     0
  9
$DIMADEC
 70
     0
  9
$DIMALTRND
 40
0.0
  9
$DIMAZIN
 70
     0
  9
$DIMDSEP
 70
    46
  9
$DIMATFIT
 70
     3
  9
$DIMFRAC
 70
     0
  9
$DIMLDRBLK
  1

  9
$DIMLUNIT
 70
     2
  9
$DIMLWD
 70
    -2
  9
$DIMLWE
 70
    -2
  9
$DIMTMOVE
 70
     0
  9
$LUNITS
 70
     2
  9
$LUPREC
 70
     2
  9
$SKETCHINC
 40
0.1
  9
$FILLETRAD
 40
0.0
  9
$AUNITS
 70
     0
  9
$AUPREC
 70
     0
  9
$MENU
  1
.
  9
$ELEVATION
 40
0.0
  9
$PELEVATION
 40
0.0
  9
$THICKNESS
 40
0.0
  9
$LIMCHECK
 70
     0
  9
$CHAMFERA
 40
0.0
  9
$CHAMFERB
 40
0.0
  9
$CHAMFERC
 40
0.0
  9
$CHAMFERD
 40
0.0
  9
$SKPOLY
 70
     0
  9
$TDCREATE
 40
2455695.499542118
  9
$TDUCREATE
 40
2455695.166208784
  9
$TDUPDATE
 40
2455695.499939630
  9
$TDUUPDATE
 40
2455695.166606296
  9
$TDINDWG
 40
0.0003984028
  9
$TDUSRTIMER
 40
0.0003982292
  9
$USRTIMER
 70
     1
  9
$ANGBASE
 50
0.0
  9
$ANGDIR
 70
     0
  9
$PDMODE
 70
     3
  9
$PDSIZE
 40
7.9375
  9
$PLINEWID
 40
0.0
  9
$SPLFRAME
 70
     0
  9
$SPLINETYPE
 70
     6
  9
$SPLINESEGS
 70
     8
  9
$HANDSEED
  5
BB6
  9
$SURFTAB1
 70
     6
  9
$SURFTAB2
 70
     6
  9
$SURFTYPE
 70
     6
  9
$SURFU
 70
     6
  9
$SURFV
 70
     6
  9
$UCSBASE
  2

  9
$UCSNAME
  2

  9
$UCSORG
 10
0.0
 20
0.0
 30
0.0
  9
$UCSXDIR
 10
1.0
 20
0.0
 30
0.0
  9
$UCSYDIR
 10
0.0
 20
1.0
 30
0.0
  9
$UCSORTHOREF
  2

  9
$UCSORTHOVIEW
 70
     0
  9
$UCSORGTOP
 10
0.0
 20
0.0
 30
0.0
  9
$UCSORGBOTTOM
 10
0.0
 20
0.0
 30
0.0
  9
$UCSORGLEFT
 10
0.0
 20
0.0
 30
0.0
  9
$UCSORGRIGHT
 10
0.0
 20
0.0
 30
0.0
  9
$UCSORGFRONT
 10
0.0
 20
0.0
 30
0.0
  9
$UCSORGBACK
 10
0.0
 20
0.0
 30
0.0
  9
$PUCSBASE
  2

  9
$PUCSNAME
  2

  9
$PUCSORG
 10
0.0
 20
0.0
 30
0.0
  9
$PUCSXDIR
 10
1.0
 20
0.0
 30
0.0
  9
$PUCSYDIR
 10
0.0
 20
1.0
 30
0.0
  9
$PUCSORTHOREF
  2

  9
$PUCSORTHOVIEW
 70
     0
  9
$PUCSORGTOP
 10
0.0
 20
0.0
 30
0.0
  9
$PUCSORGBOTTOM
 10
0.0
 20
0.0
 30
0.0
  9
$PUCSORGLEFT
 10
0.0
 20
0.0
 30
0.0
  9
$PUCSORGRIGHT
 10
0.0
 20
0.0
 30
0.0
  9
$PUCSORGFRONT
 10
0.0
 20
0.0
 30
0.0
  9
$PUCSORGBACK
 10
0.0
 20
0.0
 30
0.0
  9
$USERI1
 70
     0
  9
$USERI2
 70
     0
  9
$USERI3
 70
     0
  9
$USERI4
 70
     0
  9
$USERI5
 70
     0
  9
$USERR1
 40
0.0
  9
$USERR2
 40
0.0
  9
$USERR3
 40
0.0
  9
$USERR4
 40
0.0
  9
$USERR5
 40
0.0
  9
$WORLDVIEW
 70
     1
  9
$SHADEDGE
 70
     3
  9
$SHADEDIF
 70
    70
  9
$TILEMODE
 70
     1
  9
$MAXACTVP
 70
    64
  9
$PINSBASE
 10
0.0
 20
0.0
 30
0.0
  9
$PLIMCHECK
 70
     0
  9
$PEXTMIN
 10
1.000000000000000E+20
 20
1.000000000000000E+20
 30
1.000000000000000E+20
  9
$PEXTMAX
 10
-1.000000000000000E+20
 20
-1.000000000000000E+20
 30
-1.000000000000000E+20
  9
$PLIMMIN
 10
0.0
 20
0.0
  9
$PLIMMAX
 10
12.0
 20
9.0
  9
$UNITMODE
 70
     0
  9
$VISRETAIN
 70
     1
  9
$PLINEGEN
 70
     0
  9
$PSLTSCALE
 70
     1
  9
$TREEDEPTH
 70
  3020
  9
$CMLSTYLE
  2
Standard
  9
$CMLJUST
 70
     0
  9
$CMLSCALE
 40
1.0
  9
$PROXYGRAPHICS
 70
     1
  9
$MEASUREMENT
 70
     1
  9
$CELWEIGHT
370
    -1
  9
$ENDCAPS
280
     0
  9
$JOINSTYLE
280
     0
  9
$LWDISPLAY
290
     0
  9
$INSUNITS
 70
     4
  9
$HYPERLINKBASE
  1

  9
$STYLESHEET
  1

  9
$XEDIT
290
     1
  9
$CEPSNTYPE
380
     0
  9
$PSTYLEMODE
290
     1
  9
$FINGERPRINTGUID
  2
{D70FE1AC-1C42-437C-B9D5-CB65FA8DB8A9}
  9
$VERSIONGUID
  2
{CD52924B-69B4-4A18-9771-E9D7BB16AE57}
  9
$EXTNAMES
290
     1
  9
$PSVPSCALE
 40
0.0
  9
$OLESTARTUP
290
     0
  0
ENDSEC
  0
SECTION
  2
CLASSES
  0
CLASS
  1
ACDBDICTIONARYWDFLT
  2
AcDbDictionaryWithDefault
  3
ObjectDBX Classes
 90
        0
280
     0
281
     0
  0
CLASS
  1
ACDBPLACEHOLDER
  2
AcDbPlaceHolder
  3
ObjectDBX Classes
 90
        0
280
     0
281
     0
  0
CLASS
  1
LAYOUT
  2
AcDbLayout
  3
ObjectDBX Classes
 90
        0
280
     0
281
     0
  0
CLASS
  1
MATERIAL
  2
AcDbMaterial
  3
ObjectDBX Classes
 90
     1024
280
     0
281
     0
  0
CLASS
  1
VISUALSTYLE
  2
AcDbVisualStyle
  3
ObjectDBX Classes
 90
     4095
280
     0
281
     0
  0
CLASS
  1
TABLESTYLE
  2
AcDbTableStyle
  3
ObjectDBX Classes
 90
     4095
280
     0
281
     0
  0
CLASS
  1
SCALE
  2
AcDbScale
  3
ObjectDBX Classes
 90
     1153
280
     0
281
     0
  0
CLASS
  1
MLEADERSTYLE
  2
AcDbMLeaderStyle
  3
ACDB_MLEADERSTYLE_CLASS
 90
     4095
280
     0
281
     0
  0
CLASS
  1
CELLSTYLEMAP
  2
AcDbCellStyleMap
  3
ObjectDBX Classes
 90
     1152
280
     0
281
     0
  0
CLASS
  1
DICTIONARYVAR
  2
AcDbDictionaryVar
  3
ObjectDBX Classes
 90
        0
280
     0
281
     0
  0
CLASS
  1
ACME_DOCUMENT
  2
AcMeDbDoc
  3
AcMeServices
 90
        0
280
     0
281
     0
  0
CLASS
  1
ACMESCOPE
  2
AcMeScope
  3
AcMeServices
 90
        0
280
     0
281
     0
  0
CLASS
  1
ACMECOMMANDHISTORY
  2
AcMeCommandHistory
  3
AcMeServices
 90
        0
280
     0
281
     0
  0
CLASS
  1
ACIMSYSVARMAN
  2
AcImSysVarManager
  3
AcMeServices
 90
        0
280
     0
281
     0
  0
CLASS
  1
ACIMINTSYSVAR
  2
AcImIntSysVar
  3
AcMeServices
 90
        0
280
     0
281
     0
  0
CLASS
  1
ACMEDRAWINGMAN
  2
AcMeDrawingMan
  3
AcMeServices
 90
        0
280
     0
281
     0
  0
CLASS
  1
ACMEVIEW
  2
AcMeView
  3
AcMeServices
 90
        0
280
     0
281
     0
  0
CLASS
  1
ACDBENTITYCACHE
  2
AcMeEntityCache
  3
AcMeServices
 90
        0
280
     0
281
     0
  0
CLASS
  1
GSMANAGER
  2
AcMeGSManager
  3
AcMeServices
 90
        0
280
     0
281
     0
  0
CLASS
  1
AMDTINTERNALREACTOR
  2
AmdtInternalReactor
  3
AcMeServices
 90
        0
280
     0
281
     0
  0
CLASS
  1
ACMESTATEMGR
  2
AcMeStateMgr
  3
AcMeServices
 90
        0
280
     0
281
     0
  0
CLASS
  1
ACGREFMASTER
  2
AcGrefMaster
  3
AcAttribServices
 90
        0
280
     0
281
     0
  0
CLASS
  1
AM_DRAWING_MGR
  2
AcDmDwgMgr
  3
AcMechDwgViewMgmt
 90
        0
280
     0
281
     0
  0
CLASS
  1
AM_DWG_DOCUMENT
  2
AcDmDwgDocument
  3
AcMechDwgViewMgmt
 90
        0
280
     0
281
     0
  0
CLASS
  1
AM_DWG_SHEET
  2
AcDmSheet
  3
AcMechDwgViewMgmt
 90
        0
280
     0
281
     0
  0
CLASS
  1
AM_VIEWDIMPARMAP
  2
AcDmViewDimParMap
  3
AcMechDwgViewMgmt
 90
        0
280
     0
281
     0
  0
CLASS
  1
ACIMREALSYSVAR
  2
AcImRealSysVar
  3
AcMeServices
 90
        0
280
     0
281
     0
  0
CLASS
  1
AM_DWGMGR_NAME
  2
AcDmDwgMgrName
  3
AcMechDwgViewMgmt
 90
        0
280
     0
281
     0
  0
CLASS
  1
ACME_DATABASE
  2
AcMeDbDatabase
  3
AcMeServices
 90
        0
280
     0
281
     0
  0
CLASS
  1
ACRFINSADJUSTERMGR
  2
AcRfInsAdjusterMgr
  3
AcMeServices
 90
        0
280
     0
281
     0
  0
CLASS
  1
ACGREFACADMASTER
  2
AcGrefacadMaster
  3
AcGrefServices
 90
        0
280
     0
281
     0
  0
CLASS
  1
AMDTMENUSTATEMGR
  2
AmdtMenuStateMgr
  3
McadcomServices
 90
        0
280
     0
281
     0
  0
CLASS
  1
AMDTMCOMMENUSTATE
  2
AmdtMcomMenuState
  3
McadcomServices
 90
        0
280
     0
281
     0
  0
CLASS
  1
AMIMASTER
  2
AmiMaster
  3
AmiServices
 90
        0
280
     0
281
     0
  0
CLASS
  1
AMGSETTINGSOBJ
  2
AmgSettingsObj
  3
"AcadM|Product Description: AutoCAD Mechanical|Company: Autodesk"
 90
        0
280
     0
281
     0
  0
CLASS
  1
MAPIAMMOUDLE
  2
MApiAmModule
  3
MApiAmServices
 90
        0
280
     0
281
     0
  0
CLASS
  1
ACIMSTRSYSVAR
  2
AcImStrSysVar
  3
AcMeServices
 90
        0
280
     0
281
     0
  0
CLASS
  1
AMDTADMENUSTATE
  2
AmdtAdMenuState
  3
DesignerServices
 90
        0
280
     0
281
     0
  0
CLASS
  1
ADAPPL
  2
AcAdAppl
  3
DesignerServices
 90
        0
280
     0
281
     0
  0
CLASS
  1
DEPMGR
  2
AcAdDepMgr
  3
DesignerServices
 90
        0
280
     0
281
     0
  0
CLASS
  1
PARAMMGR
  2
AcAdParamMgr
  3
DesignerServices
 90
        0
280
     0
281
     0
  0
CLASS
  1
PARAMSCOPE
  2
AcAdParamScope
  3
DesignerServices
 90
        0
280
     0
281
     0
  0
CLASS
  1
NAMEDAPPL
  2
AcAdNamedAppl
  3
DesignerServices
 90
        0
280
     0
281
     0
  0
CLASS
  1
AMDTDMMENUSTATE
  2
AmdtDmMenuState
  3
AcMechDwgViewMgmt
 90
        0
280
     0
281
     0
  0
CLASS
  1
AMDTAMMENUSTATE
  2
AmdtAmMenuState
  3
DesignerAssemblies
 90
        0
280
     0
281
     0
  0
CLASS
  1
ACAMPROJECT
  2
AcAmProject
  3
DesignerAssemblies
 90
        0
280
     0
281
     0
  0
CLASS
  1
ACAMGRCOMPDEF
  2
AcAmGrCompDef
  3
DesignerAssemblies
 90
        0
280
     0
281
     0
  0
CLASS
  1
ACCMCONTEXT
  2
AcCmContext
  3
DesignerAssemblies
 90
        0
280
     0
281
     0
  0
CLASS
  1
ACAMCOMPDEF
  2
AcAmCompDef
  3
DesignerAssemblies
 90
        0
280
     0
281
     0
  0
CLASS
  1
ACAMCOMPDEFMGR
  2
AcAmCompDefMgr
  3
DesignerAssemblies
 90
        0
280
     0
281
     0
  0
CLASS
  1
AMCONTEXTMGR
  2
AcAmContextMgr
  3
DesignerAssemblies
 90
        0
280
     0
281
     0
  0
CLASS
  1
ACAMCONTEXTMODELER
  2
AcAmContextModeler
  3
DesignerAssemblies
 90
        0
280
     0
281
     0
  0
CLASS
  1
ACMDATADICTIONARY
  2
AcmDataDictionary
  3
"AcmSymBB|Product Description: AutoCAD Mechanical|Company: Autodesk"
 90
        0
280
     0
281
     0
  0
CLASS
  1
CATALOGSTATE
  2
AcAmCatalogState
  3
DesignerAssemblies
 90
        0
280
     0
281
     0
  0
CLASS
  1
ACAMGRCOMPDEFSET
  2
AcAmGrCompDefSet
  3
DesignerAssemblies
 90
        0
280
     0
281
     0
  0
CLASS
  1
AMDTBROWSERDBTAB
  2
AmdtBrowserDbTab
  3
McadcomServices
 90
        0
280
     0
281
     0
  0
CLASS
  1
CBROWSERAPPOBJECT
  2
CBrowserAppObject
  3
McadcomServices
 90
        0
280
     0
281
     0
  0
CLASS
  1
DM_PLACEHOLDER
  2
AcDmSelsetPlaceholder
  3
AcMechDwgViewMgmt
 90
        0
280
     0
281
     0
  0
CLASS
  1
ACMSTANDARDISO
  2
AcmStandardISO
  3
"Amdt_StdImp|Product Description: AutoCAD Mechanical|Company: Autodesk"
 90
        0
280
     0
281
     0
  0
CLASS
  1
AMGOBJPROPCFG
  2
AmgObjPropCfg
  3
"AmgLay|Product Description: AutoCAD Mechanical|Company: Autodesk"
 90
        1
280
     0
281
     0
  0
CLASS
  1
AMDTEDGESTANDARDISO13715
  2
AmdtEdgeStdISO13715
  3
"Amdt_StdImp|Product Description: AutoCAD Mechanical|Company: Autodesk"
 90
        0
280
     0
281
     0
  0
CLASS
  1
ACMSURFSTANDARDISO
  2
AcmSurfTextStdISO
  3
"Amdt_StdImp|Product Description: AutoCAD Mechanical|Company: Autodesk"
 90
        0
280
     0
281
     0
  0
CLASS
  1
ACMFCFSTANDARDISO
  2
AcmFCFStdISO
  3
"Amdt_StdImp|Product Description: AutoCAD Mechanical|Company: Autodesk"
 90
        0
280
     0
281
     0
  0
CLASS
  1
ACMWELDSTANDARDISO
  2
AcmWeldingStdISO
  3
"Amdt_StdImp|Product Description: AutoCAD Mechanical|Company: Autodesk"
 90
        0
280
     0
281
     0
  0
CLASS
  1
ACMIDSTANDARDISO
  2
AcmIdStdISO
  3
"Amdt_StdImp|Product Description: AutoCAD Mechanical|Company: Autodesk"
 90
        0
280
     0
281
     0
  0
CLASS
  1
ACMDATUMSTANDARDISO
  2
AcmDatumStdISO
  3
"Amdt_StdImp|Product Description: AutoCAD Mechanical|Company: Autodesk"
 90
        0
280
     0
281
     0
  0
CLASS
  1
ACMBOMSTANDARDISO
  2
AcmBOMStdISO
  3
"Amdt_StdImp|Product Description: AutoCAD Mechanical|Company: Autodesk"
 90
        0
280
     0
281
     0
  0
CLASS
  1
ACMDETAILSTANDARDISO
  2
AmdtDetailSymStdISO
  3
"Amdt_StdImp|Product Description: AutoCAD Mechanical|Company: Autodesk"
 90
        0
280
     0
281
     0
  0
CLASS
  1
ACMSECTIONSTANDARDISO
  2
AmdtSectionSymStdISO
  3
"Amdt_StdImp|Product Description: AutoCAD Mechanical|Company: Autodesk"
 90
        0
280
     0
281
     0
  0
CLASS
  1
ACMCENTERLINESTANDARDISO
  2
AmdtCenterLineStdISO
  3
"Amdt_StdImp|Product Description: AutoCAD Mechanical|Company: Autodesk"
 90
        0
280
     0
281
     0
  0
CLASS
  1
ACMTHREADLINESTANDARDISO
  2
AmdtThreadLineStdISO
  3
"Amdt_StdImp|Product Description: AutoCAD Mechanical|Company: Autodesk"
 90
        0
280
     0
281
     0
  0
CLASS
  1
ACMNOTESTANDARDISO
  2
AmdtNoteStdISO
  3
"Amdt_StdImp|Product Description: AutoCAD Mechanical|Company: Autodesk"
 90
        0
280
     0
281
     0
  0
CLASS
  1
ACMTAPERSTANDARDISO
  2
AcmTaperStdISO
  3
"Amdt_StdImp|Product Description: AutoCAD Mechanical|Company: Autodesk"
 90
        0
280
     0
281
     0
  0
CLASS
  1
AMDTNOTETEMPLATEDB
  2
AmdtNoteTemplateDB
  3
AMDT_STDIMP_MODULE_NAME
 90
        0
280
     0
281
     0
  0
CLASS
  1
ACAMGLAYSTD
  2
AcAmgLayStd
  3
"AmgLay|Product Description: AutoCAD Mechanical|Company: Autodesk"
 90
        0
280
     0
281
     0
  0
CLASS
  1
ACAMGDIMSTD
  2
AcAmgDimStd
  3
"AmgDim|Product Description: AutoCAD Mechanical|Company: Autodesk"
 90
        0
280
     0
281
     0
  0
CLASS
  1
ACAMGHOLECHARTSTDISO
  2
AcAmgHoleChartStdISO
  3
ACMSYMBB_MODULE_NAME
 90
        0
280
     0
281
     0
  0
CLASS
  1
ACAMGTITLESTD
  2
AcAmgTitleStd
  3
"AmgTitle|Product Description: AutoCAD Mechanical|Company: Autodesk"
 90
        0
280
     0
281
     0
  0
CLASS
  1
ACAMGFILTERDAT
  2
AcAmgFilterDat
  3
"AcadM|Product Description: AutoCAD Mechanical|Company: Autodesk"
 90
        0
280
     0
281
     0
  0
CLASS
  1
CAMSSTRUCTBTNSTATE
  2
StructBtnState
  3
L"DesignerAssemblies"
 90
        0
280
     0
281
     0
  0
ENDSEC
  0
SECTION
  2
TABLES
  0
TABLE
  2
VPORT
  5
8
330
0
100
AcDbSymbolTable
 70
     1
  0
VPORT
  5
1F4
330
8
100
AcDbSymbolTableRecord
100
AcDbViewportTableRecord
  2
*ACTIVE
 70
     0
 10
0.0
 20
0.0
 11
1.0
 21
1.0
 12
-562.4502529111905
 22
280.4657021707098
 13
0.0
 23
0.0
 14
1.0
 24
1.0
 15
0.0
 25
0.0
 16
0.0
 26
0.0
 36
1.0
 17
0.0
 27
0.0
 37
0.0
 40
782.6422660798527
 41
1.329690346083788
 42
50.0
 43
0.0
 44
0.0
 50
0.0
 51
0.0
 71
     0
 72
   100
 73
     1
 74
     1
 75
     0
 76
     0
 77
     0
 78
     0
281
     0
 65
     0
110
0.0
120
0.0
130
0.0
111
1.0
121
0.0
131
0.0
112
0.0
122
1.0
132
0.0
 79
     0
146
0.0
  0
ENDTAB
  0
TABLE
  2
LTYPE
  5
5
330
0
100
AcDbSymbolTable
 70
    17
  0
LTYPE
  5
14
330
5
100
AcDbSymbolTableRecord
100
AcDbLinetypeTableRecord
  2
BYBLOCK
 70
     0
  3

 72
    65
 73
     0
 40
0.0
  0
LTYPE
  5
15
330
5
100
AcDbSymbolTableRecord
100
AcDbLinetypeTableRecord
  2
BYLAYER
 70
     0
  3

 72
    65
 73
     0
 40
0.0
  0
LTYPE
  5
16
330
5
100
AcDbSymbolTableRecord
100
AcDbLinetypeTableRecord
  2
CONTINUOUS
 70
     0
  3
Solid line
 72
    65
 73
     0
 40
0.0
  0
LTYPE
  5
1F5
330
5
100
AcDbSymbolTableRecord
100
AcDbLinetypeTableRecord
  2
CENTER
 70
     0
  3
____ _ ____ _ ____ _ ____ _ ____ _ ____ _ ____
 72
    65
 73
     4
 40
0.6
 49
0.375
 74
     0
 49
-0.075
 74
     0
 49
0.075
 74
     0
 49
-0.075
 74
     0
  0
LTYPE
  5
1F6
330
5
100
AcDbSymbolTableRecord
100
AcDbLinetypeTableRecord
  2
HIDDEN
 70
     0
  3
- - - - - - - - - - - - - - - - - - - -
 72
    65
 73
     2
 40
0.2
 49
0.1
 74
     0
 49
-0.1
 74
     0
  0
LTYPE
  5
1F7
330
5
100
AcDbSymbolTableRecord
100
AcDbLinetypeTableRecord
  2
PHANTOM
 70
     0
  3
_____ _ _ _____ _ _ _____ _ _ _____
 72
    65
 73
     6
 40
0.8
 49
0.45
 74
     0
 49
-0.05
 74
     0
 49
0.1
 74
     0
 49
-0.05
 74
     0
 49
0.1
 74
     0
 49
-0.05
 74
     0
  0
LTYPE
  5
1F8
330
5
100
AcDbSymbolTableRecord
100
AcDbLinetypeTableRecord
  2
DOT
 70
     0
  3
. . . . . . . . . . . . . . . . . . . .
 72
    65
 73
     2
 40
0.2
 49
0.1
 74
     0
 49
-0.1
 74
     0
  0
LTYPE
  5
1F9
330
5
100
AcDbSymbolTableRecord
100
AcDbLinetypeTableRecord
  2
DASHED
 70
     0
  3
- - - - - - - - - - - - - - - - - - - -
 72
    65
 73
     2
 40
0.2
 49
0.1
 74
     0
 49
-0.1
 74
     0
  0
LTYPE
  5
B14
330
5
100
AcDbSymbolTableRecord
100
AcDbLinetypeTableRecord
  2
PHANTOM2
 70
     0
  3
Phantom (.5x) ___ _ _ ___ _ _ ___ _ _ ___ _ _
 72
    65
 73
     6
 40
31.75
 49
15.875
 74
     0
 49
-3.174999999999999
 74
     0
 49
3.174999999999999
 74
     0
 49
-3.174999999999999
 74
     0
 49
3.174999999999999
 74
     0
 49
-3.174999999999999
 74
     0
  0
LTYPE
  5
B4D
330
5
100
AcDbSymbolTableRecord
100
AcDbLinetypeTableRecord
  2
AM_ISO02W050
 70
     0
  3
__ __ __ __ __ __ __ __ __ __ __ __ __ __ __
 72
    65
 73
     2
 40
7.5
 49
6.0
 74
     0
 49
-1.5
 74
     0
  0
LTYPE
  5
B4E
330
5
100
AcDbSymbolTableRecord
100
AcDbLinetypeTableRecord
  2
AM_ISO08W050
 70
     0
  3
____ . ____ . ____ . ____ . ____ . ____ . ____
 72
    65
 73
     4
 40
18.0
 49
12.0
 74
     0
 49
-1.5
 74
     0
 49
3.0
 74
     0
 49
-1.5
 74
     0
  0
LTYPE
  5
B4F
330
5
100
AcDbSymbolTableRecord
100
AcDbLinetypeTableRecord
  2
AM_ISO09W050
 70
     0
  3
_____ . . _____ . . _____ . . ____ .. ____
 72
    65
 73
     6
 40
22.5
 49
12.0
 74
     0
 49
-1.5
 74
     0
 49
3.0
 74
     0
 49
-1.5
 74
     0
 49
3.0
 74
     0
 49
-1.5
 74
     0
  0
LTYPE
  5
B50
330
5
100
AcDbSymbolTableRecord
100
AcDbLinetypeTableRecord
  2
Amconstr
 70
     0
  3
_______________________
 72
    65
 73
     2
 40
9999.0
 49
9999.0
 74
     0
 49
0.0
 74
     0
  0
LTYPE
  5
B51
330
5
100
AcDbSymbolTableRecord
100
AcDbLinetypeTableRecord
  2
AM_ISO08W050x2
 70
     0
  3
__ . __ . __ . __ . __ . __
 72
    65
 73
     4
 40
9.0
 49
6.0
 74
     0
 49
-0.75
 74
     0
 49
1.5
 74
     0
 49
-0.75
 74
     0
  0
LTYPE
  5
B52
330
5
100
AcDbSymbolTableRecord
100
AcDbLinetypeTableRecord
  2
AM_ISO02W050x2
 70
     0
  3
 _ _ _ _ _ _ _ _ _ _ _ _
 72
    65
 73
     2
 40
3.75
 49
3.0
 74
     0
 49
-0.75
 74
     0
  0
LTYPE
  5
B55
330
5
100
AcDbSymbolTableRecord
100
AcDbLinetypeTableRecord
  2
Amzigzag
 70
     0
  3
/\/-/\/-/\/-/\/-/\/-/\/
 72
    65
 73
     2
 40
11.0001
 49
0.0001
 74
     4
 75
   136
340
B54
 46
0.04
 50
0.0
 44
0.0
 45
0.0
 49
-11.0
 74
     0
  0
LTYPE
  5
B65
330
5
100
AcDbSymbolTableRecord
100
AcDbLinetypeTableRecord
  2
ACISOWELD
 70
     0
  3
_ _ _ _ _
 72
    65
 73
     2
 40
2.0
 49
2.0
 74
     0
 49
-1.0
 74
     0
  0
LTYPE
  5
B66
330
5
100
AcDbSymbolTableRecord
100
AcDbLinetypeTableRecord
  2
ACISOTGB
 70
     0
  3
__ . . __ . .
 72
    65
 73
     6
 40
9.0
 49
4.0
 74
     0
 49
-1.0
 74
     0
 49
1.0
 74
     0
 49
-1.0
 74
     0
 49
1.0
 74
     0
 49
-1.0
 74
     0
  0
LTYPE
  5
B67
330
5
100
AcDbSymbolTableRecord
100
AcDbLinetypeTableRecord
  2
ACISOTGL
 70
     0
  3
_ _ _ _ _
 72
    65
 73
     2
 40
3.0
 49
2.0
 74
     0
 49
-1.0
 74
     0
  0
ENDTAB
  0
TABLE
  2
LAYER
  5
2
330
0
100
AcDbSymbolTable
 70
    23
  0
LAYER
  5
10
330
2
100
AcDbSymbolTableRecord
100
AcDbLayerTableRecord
  2
0
 70
     0
 62
     7
  6
CONTINUOUS
370
    -3
390
F
  0
LAYER
  5
1FA
330
2
100
AcDbSymbolTableRecord
100
AcDbLayerTableRecord
  2
DEFAULT_1
 70
     0
 62
     7
  6
CENTER
370
    -3
390
F
  0
LAYER
  5
1FB
330
2
100
AcDbSymbolTableRecord
100
AcDbLayerTableRecord
  2
DEFAULT_2
 70
     0
 62
     8
  6
HIDDEN
370
    -3
390
F
  0
LAYER
  5
1FC
330
2
100
AcDbSymbolTableRecord
100
AcDbLayerTableRecord
  2
DEFAULT_3
 70
     0
 62
     7
  6
PHANTOM
370
    -3
390
F
  0
LAYER
  5
1FD
330
2
100
AcDbSymbolTableRecord
100
AcDbLayerTableRecord
  2
1_ALL_PLANES
 70
     0
 62
     7
  6
CONTINUOUS
370
    -3
390
F
  0
LAYER
  5
1FE
330
2
100
AcDbSymbolTableRecord
100
AcDbLayerTableRecord
  2
3_ALL_AXES
 70
     0
 62
     7
  6
CONTINUOUS
370
    -3
390
F
  0
LAYER
  5
1FF
330
2
100
AcDbSymbolTableRecord
100
AcDbLayerTableRecord
  2
7_ALL_FEATURES
 70
     0
 62
     7
  6
CONTINUOUS
370
    -3
390
F
  0
LAYER
  5
200
330
2
100
AcDbSymbolTableRecord
100
AcDbLayerTableRecord
  2
AXIS
 70
     0
 62
     7
  6
CONTINUOUS
370
    -3
390
F
  0
LAYER
  5
201
330
2
100
AcDbSymbolTableRecord
100
AcDbLayerTableRecord
  2
CSYS
 70
     0
 62
     7
  6
CONTINUOUS
370
    -3
390
F
  0
LAYER
  5
202
330
2
100
AcDbSymbolTableRecord
100
AcDbLayerTableRecord
  2
DATUMS
 70
     0
 62
     7
  6
CONTINUOUS
370
    -3
390
F
  0
LAYER
  5
203
330
2
100
AcDbSymbolTableRecord
100
AcDbLayerTableRecord
  2
DATUM_AXIS
 70
     0
 62
     7
  6
CONTINUOUS
370
    -3
390
F
  0
LAYER
  5
204
330
2
100
AcDbSymbolTableRecord
100
AcDbLayerTableRecord
  2
DATUM_CSYS
 70
     0
 62
     7
  6
CONTINUOUS
370
    -3
390
F
  0
LAYER
  5
205
330
2
100
AcDbSymbolTableRecord
100
AcDbLayerTableRecord
  2
DATUM_PLANE
 70
     0
 62
     7
  6
CONTINUOUS
370
    -3
390
F
  0
LAYER
  5
206
330
2
100
AcDbSymbolTableRecord
100
AcDbLayerTableRecord
  2
DATUM_POINT
 70
     0
 62
     7
  6
CONTINUOUS
370
    -3
390
F
  0
LAYER
  5
207
330
2
100
AcDbSymbolTableRecord
100
AcDbLayerTableRecord
  2
DIM
 70
     0
 62
     7
  6
CONTINUOUS
370
    -3
390
F
  0
LAYER
  5
208
330
2
100
AcDbSymbolTableRecord
100
AcDbLayerTableRecord
  2
DTM
 70
     0
 62
     7
  6
CONTINUOUS
370
    -3
390
F
  0
LAYER
  5
209
330
2
100
AcDbSymbolTableRecord
100
AcDbLayerTableRecord
  2
DTM_MAIN
 70
     0
 62
     7
  6
CONTINUOUS
370
    -3
390
F
  0
LAYER
  5
20A
330
2
100
AcDbSymbolTableRecord
100
AcDbLayerTableRecord
  2
XSEC_DATUMS
 70
     0
 62
     7
  6
CONTINUOUS
370
    -3
390
F
  0
LAYER
  5
20B
330
2
100
AcDbSymbolTableRecord
100
AcDbLayerTableRecord
  2
_CURVE
 70
     0
 62
     7
  6
CONTINUOUS
370
    -3
390
F
  0
LAYER
  5
20C
330
2
100
AcDbSymbolTableRecord
100
AcDbLayerTableRecord
  2
_SURFACE
 70
     0
 62
     7
  6
CONTINUOUS
370
    -3
390
F
  0
LAYER
  5
20D
330
2
100
AcDbSymbolTableRecord
100
AcDbLayerTableRecord
  2
__REF_CURVE
 70
     0
 62
     7
  6
CONTINUOUS
370
    -3
390
F
  0
LAYER
  5
20E
330
2
100
AcDbSymbolTableRecord
100
AcDbLayerTableRecord
  2
__REF_SURFACE
 70
     0
 62
     7
  6
CONTINUOUS
370
    -3
390
F
  0
LAYER
  5
20F
330
2
100
AcDbSymbolTableRecord
100
AcDbLayerTableRecord
  2
___COSMETIC_THREAD
 70
     0
 62
     7
  6
CONTINUOUS
370
    -3
390
F
  0
ENDTAB
  0
TABLE
  2
STYLE
  5
3
330
0
100
AcDbSymbolTable
 70
     5
  0
STYLE
  5
11
330
3
100
AcDbSymbolTableRecord
100
AcDbTextStyleTableRecord
  2
STANDARD
 70
     0
 40
0.0
 41
0.8
 50
0.0
 71
     0
 42
0.2
  3
txt
  4

  0
STYLE
  5
210
330
3
100
AcDbSymbolTableRecord
100
AcDbTextStyleTableRecord
  2
TEXTSTYLE_1
 70
     0
 40
0.0
 41
0.8
 50
0.0
 71
     0
 42
0.2
  3
gdt
  4

  0
STYLE
  5
B54
330
3
100
AcDbSymbolTableRecord
100
AcDbTextStyleTableRecord
  2

 70
     1
 40
0.0
 41
1.0
 50
0.0
 71
     0
 42
0.2
  3
genltshp.shx
  4

  0
STYLE
  5
B56
330
3
100
AcDbSymbolTableRecord
100
AcDbTextStyleTableRecord
  2
ACISOTS
 70
     0
 40
1.0
 41
1.0
 50
0.0
 71
     0
 42
0.2
  3
isocp.shx
  4

  0
STYLE
  5
B64
330
3
100
AcDbSymbolTableRecord
100
AcDbTextStyleTableRecord
  2
ACISOGDT
 70
     0
 40
0.0
 41
1.0
 50
0.0
 71
     0
 42
0.2
  3
amgdt.shx
  4

  0
ENDTAB
  0
TABLE
  2
VIEW
  5
6
330
0
100
AcDbSymbolTable
 70
     0
  0
ENDTAB
  0
TABLE
  2
UCS
  5
7
330
0
100
AcDbSymbolTable
 70
     0
  0
ENDTAB
  0
TABLE
  2
APPID
  5
9
330
0
100
AcDbSymbolTable
 70
    10
  0
APPID
  5
211
330
9
100
AcDbSymbolTableRecord
100
AcDbRegAppTableRecord
  2
ACAD
 70
     0
  0
APPID
  5
AD9
330
9
100
AcDbSymbolTableRecord
100
AcDbRegAppTableRecord
  2
ACAD_MLEADERVER
 70
     0
  0
APPID
  5
AE7
330
9
100
AcDbSymbolTableRecord
100
AcDbRegAppTableRecord
  2
MCAD_NO_VIS
 70
     0
  0
APPID
  5
AE8
330
9
100
AcDbSymbolTableRecord
100
AcDbRegAppTableRecord
  2
ACAD_TEMP_GRAPHIC
 70
     0
  0
APPID
  5
B16
330
9
100
AcDbSymbolTableRecord
100
AcDbRegAppTableRecord
  2
AD_DRAW
 70
     0
  0
APPID
  5
B19
330
9
100
AcDbSymbolTableRecord
100
AcDbRegAppTableRecord
  2
ACATTRIBSERVICES
 70
     0
  0
APPID
  5
B3E
330
9
100
AcDbSymbolTableRecord
100
AcDbRegAppTableRecord
  2
DESIGNERASSEMBLIES
 70
     0
  0
APPID
  5
B44
330
9
100
AcDbSymbolTableRecord
100
AcDbRegAppTableRecord
  2
ACADM_DIM_EDIT
 70
     0
  0
APPID
  5
B45
330
9
100
AcDbSymbolTableRecord
100
AcDbRegAppTableRecord
  2
AMDT_DM_ADJ
 70
     0
  0
APPID
  5
BB5
330
9
100
AcDbSymbolTableRecord
100
AcDbRegAppTableRecord
  2
ACAD_DSTYLE_DIMARC_LENGTH_SYMBOL
 70
     0
  0
ENDTAB
  0
TABLE
  2
DIMSTYLE
  5
A
330
0
100
AcDbSymbolTable
 70
     8
100
AcDbDimStyleTable
 71
     1
340
214
  0
DIMSTYLE
105
214
330
A
100
AcDbSymbolTableRecord
100
AcDbDimStyleTableRecord
  2
STANDARD
 70
     0
 41
4.7625
 71
     1
 78
     8
140
3.96875
271
     0
272
     0
284
     8
340
11
  0
DIMSTYLE
105
B72
330
A
100
AcDbSymbolTableRecord
100
AcDbDimStyleTableRecord
  2
AM_ISO
 70
     0
  4
"
 41
2.5
 42
1.0
 43
10.0
 44
1.0
 47
0.1
 48
0.1
 73
     0
 74
     0
 77
     1
 78
     8
 79
     2
140
3.5
141
0.0
143
0.0393701
146
0.71
147
1.5
172
     1
176
   256
177
   256
178
     2
271
     2
272
     3
274
     4
283
     0
284
     8
340
11
371
    -1
372
    -1
1001
ACAD_DSTYLE_DIMARC_LENGTH_SYMBOL
1070
   379
1070
     1
  0
DIMSTYLE
105
B73
330
A
100
AcDbSymbolTableRecord
100
AcDbDimStyleTableRecord
  2
AM_ISO$3
 70
     0
  4
"
 41
2.5
 42
1.0
 43
10.0
 44
1.0
 47
0.1
 48
0.1
 73
     0
 77
     1
 78
     8
 79
     2
140
3.5
141
0.0
143
0.0393701
146
0.71
147
1.5
176
   256
177
   256
178
     2
271
     2
272
     3
274
     4
283
     0
284
     8
288
     1
289
     0
340
11
371
    -1
372
    -1
1001
ACAD_DSTYLE_DIMARC_LENGTH_SYMBOL
1070
   379
1070
     1
  0
DIMSTYLE
105
B74
330
A
100
AcDbSymbolTableRecord
100
AcDbDimStyleTableRecord
  2
AM_ISO$4
 70
     0
  4
"
 41
2.5
 42
1.0
 43
10.0
 44
1.0
 47
0.1
 48
0.1
 73
     0
 77
     1
 78
     8
 79
     2
140
3.5
141
0.0
143
0.0393701
146
0.71
147
1.5
176
   256
177
   256
178
     2
271
     2
272
     3
274
     4
283
     0
284
     8
288
     1
289
     0
340
11
371
    -1
372
    -1
1001
ACAD_DSTYLE_DIMARC_LENGTH_SYMBOL
1070
   379
1070
     1
  0
DIMSTYLE
105
B75
330
A
100
AcDbSymbolTableRecord
100
AcDbDimStyleTableRecord
  2
AM_ISO$6
 70
     0
  4
"
 41
2.5
 42
1.0
 43
10.0
 44
1.0
 47
0.1
 48
0.1
 73
     0
 74
     0
 78
     8
 79
     2
140
3.5
141
0.0
143
0.0393701
146
0.71
147
1.5
172
     1
176
   256
177
   256
178
     2
271
     2
272
     3
274
     4
283
     0
284
     8
340
11
371
    -1
372
    -1
1001
ACAD_DSTYLE_DIMARC_LENGTH_SYMBOL
1070
   379
1070
     1
  0
DIMSTYLE
105
B76
330
A
100
AcDbSymbolTableRecord
100
AcDbDimStyleTableRecord
  2
AM_ISO$7
 70
     0
  4
"
 41
2.5
 42
1.0
 43
10.0
 44
1.0
 47
0.1
 48
0.1
 73
     0
 74
     0
 77
     1
 78
     8
 79
     2
140
5.0
141
0.0
143
0.0393701
146
0.71
147
1.5
172
     1
176
   256
177
   256
178
     2
271
     2
272
     3
274
     4
283
     0
284
     8
340
11
371
    -1
372
    -1
1001
ACAD_DSTYLE_DIMARC_LENGTH_SYMBOL
1070
   379
1070
     1
  0
DIMSTYLE
105
B77
330
A
100
AcDbSymbolTableRecord
100
AcDbDimStyleTableRecord
  2
AM_ISO$SF
 70
     0
  4
"
 41
2.5
 42
1.0
 43
10.0
 44
1.0
 47
0.1
 48
0.1
 73
     0
 74
     0
 75
     1
 76
     1
 77
     1
 78
     8
 79
     2
140
3.5
141
0.0
143
0.0393701
146
0.71
147
1.5
172
     1
176
   256
177
   256
178
     2
271
     2
272
     3
274
     4
283
     0
284
     8
340
11
371
    -1
372
    -1
1001
ACAD_DSTYLE_DIMARC_LENGTH_SYMBOL
1070
   379
1070
     1
  0
DIMSTYLE
105
B7C
330
A
100
AcDbSymbolTableRecord
100
AcDbDimStyleTableRecord
  2
AM_ISO$SH
 70
     0
  4
"
 41
2.5
 42
1.0
 43
10.0
 44
1.0
 47
0.1
 48
0.1
 73
     0
 74
     0
 75
     1
 76
     1
 77
     1
 78
     8
 79
     2
140
3.5
141
0.0
143
0.0393701
144
2.0
146
0.71
147
1.5
172
     1
173
     1
176
   256
177
   256
178
     2
271
     2
272
     3
274
     4
283
     0
284
     8
340
11
343
B78
371
    -1
372
    -1
1001
ACAD_DSTYLE_DIMARC_LENGTH_SYMBOL
1070
   379
1070
     1
  0
ENDTAB
  0
TABLE
  2
BLOCK_RECORD
  5
1
330
0
100
AcDbSymbolTable
 70
     2
  0
BLOCK_RECORD
  5
212
330
1
100
AcDbSymbolTableRecord
100
AcDbBlockTableRecord
  2
*Model_Space
340
A84
  0
BLOCK_RECORD
  5
213
330
1
100
AcDbSymbolTableRecord
100
AcDbBlockTableRecord
  2
*Paper_Space
340
A85
  0
BLOCK_RECORD
  5
B78
330
1
100
AcDbSymbolTableRecord
100
AcDbBlockTableRecord
  2
GENAXEH
340
0
  0
ENDTAB
  0
ENDSEC
  0
SECTION
  2
BLOCKS
  0
BLOCK
  5
20
330
212
100
AcDbEntity
  8
0
100
AcDbBlockBegin
  2
*Model_Space
 70
     0
 10
0.0
 20
0.0
 30
0.0
  3
*Model_Space
  1

  0
ENDBLK
  5
21
330
212
100
AcDbEntity
  8
0
100
AcDbBlockEnd
  0
BLOCK
  5
1C
330
213
100
AcDbEntity
 67
     1
  8
0
100
AcDbBlockBegin
  2
*Paper_Space
 70
     0
 10
0.0
 20
0.0
 30
0.0
  3
*Paper_Space
  1

  0
ENDBLK
  5
1D
330
213
100
AcDbEntity
 67
     1
  8
0
100
AcDbBlockEnd
  0
BLOCK
  5
B7A
330
B78
100
AcDbEntity
  8
0
100
AcDbBlockBegin
  2
GENAXEH
 70
     0
 10
0.0
 20
0.0
 30
0.0
  3
GENAXEH
  1

  0
LINE
  5
B79
330
B78
100
AcDbEntity
  8
0
100
AcDbLine
 10
-1.0
 20
0.0
 30
0.0
 11
1.0
 21
0.0
 31
0.0
  0
ENDBLK
  5
B7B
330
B78
100
AcDbEntity
  8
0
100
AcDbBlockEnd
  0
ENDSEC
  0
SECTION
  2
ENTITIES
  0
LINE
  5
41C
330
212
100
AcDbEntity
  8
AXIS
  6
Continuous
 62
     7
100
AcDbLine
 10
-865.0888925434999
 20
-92.06378448089999
 30
0.0
 11
-866.3264968505
 21
-91.3492533011
 31
0.0
  0
LINE
  5
41D
330
212
100
AcDbEntity
  8
0
  6
Continuous
 62
     7
100
AcDbLine
 10
-1003.102597196
 20
428.4362155191
 30
0.0
 11
-1000.6194479541
 21
456.8187412288
 31
0.0
  0
LINE
  5
41E
330
212
100
AcDbEntity
  8
_SURFACE
  6
Continuous
 62
     7
100
AcDbLine
 10
-1003.102597196
 20
428.4362155191
 30
0.0
 11
-1000.6194479541
 21
456.8187412288
 31
0.0
  0
LINE
  5
41F
330
212
100
AcDbEntity
  8
AXIS
  6
Continuous
 62
     7
100
AcDbLine
 10
-847.8512882364999
 20
-83.2783156608
 30
0.0
 11
-849.0888925434999
 21
-82.5637844809
 31
0.0
  0
LINE
  5
420
330
212
100
AcDbEntity
  8
0
  6
Continuous
 62
     7
100
AcDbLine
 10
-385.1163023099
 20
-106.5637844809
 30
0.0
 11
-413.1163013869
 21
-106.5637844809
 31
0.0
  0
LINE
  5
421
330
212
100
AcDbEntity
  8
0
  6
Continuous
 62
     7
100
AcDbLine
 10
-843.088893005
 20
-106.5637844809
 30
0.0
 11
-871.0888920819998
 21
-106.5637844809
 31
0.0
  0
LINE
  5
428
330
212
100
AcDbEntity
  8
0
  6
Continuous
 62
     7
100
AcDbLine
 10
-385.1163022158
 20
-96.5637844809
 30
0.0
 11
-413.116301481
 21
-96.5637844809
 31
0.0
  0
LINE
  5
429
330
212
100
AcDbEntity
  8
0
  6
Continuous
 62
     7
100
AcDbLine
 10
-843.0888929108999
 20
-96.5637844809
 30
0.0
 11
-871.0888921761
 21
-96.5637844809
 31
0.0
  0
LINE
  5
42A
330
212
100
AcDbEntity
  8
AXIS
  6
Continuous
 62
     7
100
AcDbLine
 10
-865.0888925434999
 20
-92.06378448089999
 30
0.0
 11
-849.0888925434999
 21
-92.06378448089999
 31
0.0
  0
LINE
  5
42B
330
212
100
AcDbEntity
  8
AXIS
  6
Continuous
 62
     7
100
AcDbLine
 10
-407.1163018483999
 20
-92.06378448089999
 30
0.0
 11
-391.1163018484
 21
-92.06378448089999
 31
0.0
  0
LINE
  5
42C
330
212
100
AcDbEntity
  8
AXIS
  6
Continuous
 62
     7
100
AcDbLine
 10
-865.0888925434999
 20
-82.5637844809
 30
0.0
 11
-861.102597196
 21
-82.5637844809
 31
0.0
  0
LINE
  5
42D
330
212
100
AcDbEntity
  8
0
  6
Continuous
 62
     7
100
AcDbLine
 10
-861.102597196
 20
-82.5637844809
 30
0.0
 11
-853.0888925435
 21
-82.5637844809
 31
0.0
  0
LINE
  5
42E
330
212
100
AcDbEntity
  8
AXIS
  6
Continuous
 62
     7
100
AcDbLine
 10
-853.0888925435
 20
-82.5637844809
 30
0.0
 11
-849.0888925434999
 21
-82.5637844809
 31
0.0
  0
LINE
  5
42F
330
212
100
AcDbEntity
  8
AXIS
  6
Continuous
 62
     7
100
AcDbLine
 10
-407.1163018483999
 20
-82.5637844809
 30
0.0
 11
-403.1166760751
 21
-82.5637844809
 31
0.0
  0
LINE
  5
430
330
212
100
AcDbEntity
  8
AXIS
  6
Continuous
 62
     7
100
AcDbLine
 10
-395.102597196
 20
-82.5637844809
 30
0.0
 11
-391.1163018484
 21
-82.5637844809
 31
0.0
  0
LINE
  5
431
330
212
100
AcDbEntity
  8
0
  6
Continuous
 62
     7
100
AcDbLine
 10
-395.102597196
 20
-82.5637844809
 30
0.0
 11
-403.1163018483999
 21
-82.5637844809
 31
0.0
  0
LINE
  5
43D
330
212
100
AcDbEntity
  8
0
  6
Continuous
 62
     7
100
AcDbLine
 10
-952.6087772053001
 20
428.3490597762999
 30
0.0
 11
-949.6562211851999
 21
413.9741870798999
 31
0.0
  0
LINE
  5
43E
330
212
100
AcDbEntity
  8
0
  6
Continuous
 62
     7
100
AcDbLine
 10
-949.6562211851999
 20
413.9741870798999
 30
0.0
 11
-943.0579611688001
 21
381.8327184605
 31
0.0
  0
LINE
  5
43F
330
212
100
AcDbEntity
  8
0
  6
Continuous
 62
     7
100
AcDbLine
 10
-943.0579611688001
 20
381.8327184605
 30
0.0
 11
-937.0932690150999
 21
352.7515563980001
 31
0.0
  0
LINE
  5
440
330
212
100
AcDbEntity
  8
0
  6
Continuous
 62
     7
100
AcDbLine
 10
-937.0932690150999
 20
352.7515563980001
 30
0.0
 11
-932.7244611419999
 21
331.4302712883
 31
0.0
  0
LINE
  5
441
330
212
100
AcDbEntity
  8
0
  6
Continuous
 62
     7
100
AcDbLine
 10
-932.7244611419999
 20
331.4302712883
 30
0.0
 11
-929.6835979417998
 21
316.5763472728
 31
0.0
  0
LINE
  5
442
330
212
100
AcDbEntity
  8
0
  6
Continuous
 62
     7
100
AcDbLine
 10
-929.6835979417998
 20
316.5763472728
 30
0.0
 11
-926.8478058133
 21
302.7117162041
 31
0.0
  0
LINE
  5
443
330
212
100
AcDbEntity
  8
0
  6
Continuous
 62
     7
100
AcDbLine
 10
-926.8478058133
 20
302.7117162041
 30
0.0
 11
-924.2203763999
 21
289.8524933829
 31
0.0
  0
LINE
  5
444
330
212
100
AcDbEntity
  8
0
  6
Continuous
 62
     7
100
AcDbLine
 10
-924.2203763999
 20
289.8524933829
 30
0.0
 11
-922.5885766402999
 21
281.8581939717
 31
0.0
  0
LINE
  5
445
330
212
100
AcDbEntity
  8
0
  6
Continuous
 62
     7
100
AcDbLine
 10
-922.5885766402999
 20
281.8581939717
 30
0.0
 11
-921.0583990800998
 21
274.3550954536
 31
0.0
  0
LWPOLYLINE
  5
446
330
212
100
AcDbEntity
  8
0
  6
Continuous
 62
     7
100
AcDbPolyline
 90
        4
 70
     0
 43
0.0
 10
-921.0583990800998
 20
274.3550954536
 10
-919.6343960210001
 20
267.3657538938
 10
-918.9627820264
 20
264.0666519232
 10
-918.6073339602002
 20
262.3198498741
  0
LINE
  5
447
330
212
100
AcDbEntity
  8
0
  6
Continuous
 62
     7
100
AcDbLine
 10
-876.7813924699
 20
-69.75367143159999
 30
0.0
 11
-978.1215384833998
 21
428.3490597762999
 31
0.0
  0
LINE
  5
454
330
212
100
AcDbEntity
  8
0
  6
Continuous
 62
     7
100
AcDbLine
 10
-872.0888925435
 20
-97.5637844809
 30
0.0
 11
-872.0888925435
 21
-105.5637844809
 31
0.0
  0
LINE
  5
457
330
212
100
AcDbEntity
  8
AXIS
  6
Continuous
 62
     7
100
AcDbLine
 10
-866.3264968505
 20
-91.3492533011
 30
0.0
 11
-866.3264968505
 21
-83.2783156608
 31
0.0
  0
LINE
  5
458
330
212
100
AcDbEntity
  8
AXIS
  6
Continuous
 62
     7
100
AcDbLine
 10
-861.707694697
 20
-91.3492533011
 30
0.0
 11
-861.707694697
 21
-83.2783156608
 31
0.0
  0
LINE
  5
45B
330
212
100
AcDbEntity
  8
0
  6
Continuous
 62
     7
100
AcDbLine
 10
-861.5888925434999
 20
-92.06378448089999
 30
0.0
 11
-861.5888925434999
 21
-96.5637844809
 31
0.0
  0
LINE
  5
461
330
212
100
AcDbEntity
  8
0
  6
Continuous
 62
     7
100
AcDbLine
 10
-852.5888925434999
 20
-82.555969609
 30
0.0
 11
-852.5888925434999
 21
-82.5637844809
 31
0.0
  0
LINE
  5
462
330
212
100
AcDbEntity
  8
0
  6
Continuous
 62
     7
100
AcDbLine
 10
-852.5888925434999
 20
-92.06378448089999
 30
0.0
 11
-852.5888925434999
 21
-96.5637844809
 31
0.0
  0
LINE
  5
463
330
212
100
AcDbEntity
  8
AXIS
  6
Continuous
 62
     7
100
AcDbLine
 10
-852.4700903899999
 20
-91.3492533011
 30
0.0
 11
-852.4700903899999
 21
-83.2783156608
 31
0.0
  0
LINE
  5
464
330
212
100
AcDbEntity
  8
AXIS
  6
Continuous
 62
     7
100
AcDbLine
 10
-847.8512882364999
 20
-91.3492533011
 30
0.0
 11
-847.8512882364999
 21
-83.2783156608
 31
0.0
  0
LINE
  5
467
330
212
100
AcDbEntity
  8
0
  6
Continuous
 62
     7
100
AcDbLine
 10
-842.0888925435001
 20
-97.5637844809
 30
0.0
 11
-842.0888925435001
 21
-105.5637844809
 31
0.0
  0
LINE
  5
48A
330
212
100
AcDbEntity
  8
0
  6
Continuous
 62
     7
100
AcDbLine
 10
-837.1108199874001
 20
-67.4011597808
 30
0.0
 11
-832.1045810200999
 21
35.309511715249
 31
0.0
  0
LINE
  5
48F
330
212
100
AcDbEntity
  8
0
  6
Continuous
 62
     7
100
AcDbLine
 10
-424.476524643478
 20
35.6276407792
 30
0.0
 11
-568.1173889827999
 21
30.2803350912
 31
0.0
  0
LINE
  5
490
330
212
100
AcDbEntity
  8
_SURFACE
  6
Continuous
 62
     7
100
AcDbLine
 10
-592.1127192329
 20
14.6901770445
 30
0.0
 11
-664.092475159
 21
14.6901770445
 31
0.0
  0
LINE
  5
499
330
212
100
AcDbEntity
  8
0
  6
Continuous
 62
     7
100
AcDbLine
 10
-617.6301674124999
 20
47.80568829319999
 30
0.0
 11
-628.102597196
 21
47.8058440077
 31
0.0
  0
LINE
  5
49A
330
212
100
AcDbEntity
  8
0
  6
Continuous
 62
     7
100
AcDbLine
 10
-638.5750269794
 20
47.80568829319999
 30
0.0
 11
-628.102597196
 21
47.8058440077
 31
0.0
  0
LINE
  5
49B
330
212
100
AcDbEntity
  8
0
  6
Continuous
 62
     7
100
AcDbLine
 10
-688.1294082903
 20
30.2817878958
 30
0.0
 11
-832.1045810200999
 21
35.309511715249
 31
0.0
  0
LINE
  5
49F
330
212
100
AcDbEntity
  8
0
  6
Continuous
 62
     7
100
AcDbLine
 10
-356.4880699353
 20
-12.1953161932
 30
0.0
 11
-366.2873169815
 21
-10.2016368491
 31
0.0
  0
LINE
  5
4A0
330
212
100
AcDbEntity
  8
0
  6
Continuous
 62
     7
100
AcDbLine
 10
-355.8613039274
 20
-12.1193808793
 30
0.0
 11
-355.4880699353
 21
-12.1953161932
 31
0.0
  0
LINE
  5
4A3
330
212
100
AcDbEntity
  8
AXIS
  6
Continuous
 62
     7
100
AcDbLine
 10
-407.1163018483999
 20
-92.06378448089999
 30
0.0
 11
-408.3539061554
 21
-91.3492533011
 31
0.0
  0
LINE
  5
4A4
330
212
100
AcDbEntity
  8
_SURFACE
  6
Continuous
 62
     7
100
AcDbLine
 10
-681.5223797753
 20
27.5155927911
 30
0.0
 11
-671.0016438859
 21
17.4608239493
 31
0.0
  0
LINE
  5
4A8
330
212
100
AcDbEntity
  8
AXIS
  6
Continuous
 62
     7
100
AcDbLine
 10
-389.8786975414
 20
-83.2783156608
 30
0.0
 11
-391.1163018484
 21
-82.5637844809
 31
0.0
  0
LINE
  5
4B9
330
212
100
AcDbEntity
  8
0
  6
Continuous
 62
     7
100
AcDbLine
 10
-260.1293360588
 20
428.4362155191
 30
0.0
 11
-261.1255307568
 21
428.3490597762999
 31
0.0
  0
LINE
  5
4BA
330
212
100
AcDbEntity
  8
0
  6
Continuous
 62
     7
100
AcDbLine
 10
-996.0758583331999
 20
428.4362155191
 30
0.0
 11
-995.0796636350998
 21
428.3490597762999
 31
0.0
  0
LINE
  5
4BD
330
212
100
AcDbEntity
  8
0
  6
Continuous
 62
     7
100
AcDbLine
 10
-419.0943744044999
 20
-67.4011597808
 30
0.0
 11
-424.476524643478
 21
35.29638460433789
 31
0.0
  0
LINE
  5
4C3
330
212
100
AcDbEntity
  8
0
  6
Continuous
 62
     7
100
AcDbLine
 10
-414.1163018483999
 20
-97.5637844809
 30
0.0
 11
-414.1163018483999
 21
-105.5637844809
 31
0.0
  0
LINE
  5
4C6
330
212
100
AcDbEntity
  8
AXIS
  6
Continuous
 62
     7
100
AcDbLine
 10
-408.3539061554
 20
-91.3492533011
 30
0.0
 11
-408.3539061554
 21
-83.2783156608
 31
0.0
  0
LINE
  5
4C7
330
212
100
AcDbEntity
  8
AXIS
  6
Continuous
 62
     7
100
AcDbLine
 10
-403.7351040019
 20
-91.3492533011
 30
0.0
 11
-403.7351040019
 21
-83.2783156608
 31
0.0
  0
LINE
  5
4C9
330
212
100
AcDbEntity
  8
0
  6
Continuous
 62
     7
100
AcDbLine
 10
-403.6163018484
 20
-82.555969609
 30
0.0
 11
-403.6163018484
 21
-82.5637844809
 31
0.0
  0
LINE
  5
4CA
330
212
100
AcDbEntity
  8
0
  6
Continuous
 62
     7
100
AcDbLine
 10
-403.6163018484
 20
-92.06378448089999
 30
0.0
 11
-403.6163018484
 21
-96.5637844809
 31
0.0
  0
LINE
  5
4CF
330
212
100
AcDbEntity
  8
0
  6
Continuous
 62
     7
100
AcDbLine
 10
-995.0796636350998
 20
428.3490597762999
 30
0.0
 11
-261.1255307568
 21
428.3490597762999
 31
0.0
  0
LINE
  5
4D0
330
212
100
AcDbEntity
  8
0
  6
Continuous
 62
     7
100
AcDbLine
 10
-1003.102597196
 20
428.4362155191
 30
0.0
 11
-253.102597196
 21
428.4362155191
 31
0.0
  0
LINE
  5
4D4
330
212
100
AcDbEntity
  8
0
  6
Continuous
 62
     7
100
AcDbLine
 10
-394.6163018484
 20
-92.06378448089999
 30
0.0
 11
-394.6163018484
 21
-96.5637844809
 31
0.0
  0
LINE
  5
4D6
330
212
100
AcDbEntity
  8
AXIS
  6
Continuous
 62
     7
100
AcDbLine
 10
-394.4974996949
 20
-91.3492533011
 30
0.0
 11
-394.4974996949
 21
-83.2783156608
 31
0.0
  0
LINE
  5
4D7
330
212
100
AcDbEntity
  8
AXIS
  6
Continuous
 62
     7
100
AcDbLine
 10
-389.8786975414
 20
-91.3492533011
 30
0.0
 11
-389.8786975414
 21
-83.2783156608
 31
0.0
  0
LINE
  5
4D9
330
212
100
AcDbEntity
  8
0
  6
Continuous
 62
     7
100
AcDbLine
 10
-384.1163018484
 20
-97.5637844809
 30
0.0
 11
-384.1163018484
 21
-105.5637844809
 31
0.0
  0
LINE
  5
4E0
330
212
100
AcDbEntity
  8
_SURFACE
  6
Continuous
 62
     7
100
AcDbLine
 10
-585.2035505061
 20
17.4608239493
 30
0.0
 11
-574.6828138356
 21
27.5155935375
 31
0.0
  0
LWPOLYLINE
  5
4E1
330
212
100
AcDbEntity
  8
_SURFACE
  6
Continuous
 62
     7
100
AcDbPolyline
 90
       33
 70
     0
 43
0.0
 10
-574.6828139136
 20
27.5155936197
 10
-574.5708961698999
 20
27.6209209093
 10
-574.3978191413999
 20
27.7776005148
 10
-574.2211316675
 20
27.9301970192
 10
-574.04093005
 20
28.0786272512
 10
-573.8573125062999
 20
28.22281031
 10
-573.6703791157
 20
28.3626676099
 10
-573.4802317646999
 20
28.4981229228
 10
-573.2869740914
 20
28.62910242
 10
-573.0907114293
 20
28.7555347121
 10
-572.8915507497999
 20
28.8773508883
 10
-572.6896006035999
 20
28.9944845537
 10
-572.4849710621
 20
29.1068718656
 10
-572.2777736569001
 20
29.2144515681
 10
-572.0681213190999
 20
29.317165026
 10
-571.856128318
 20
29.414956256
 10
-571.6419101986
 20
29.5077719579
 10
-571.4255837187001
 20
29.5955615432
 10
-571.2072667851999
 20
29.678277163
 10
-570.9870783899999
 20
29.7558737339
 10
-570.7651385448
 20
29.8283089624
 10
-570.5415682161
 20
29.8955433684
 10
-570.3164892591001
 20
29.9575403063
 10
-570.0900243511
 20
30.01426598510001
 10
-569.8622969248
 20
30.0656894872
 10
-569.6334311012999
 20
30.1117827844
 10
-569.4035516219001
 20
30.1525207541
 10
-569.1727837805
 20
30.1878811923
 10
-568.9412533550999
 20
30.2178448262
 10
-568.7090865394999
 20
30.2423953243
 10
-568.4764098741999
 20
30.2615193056
 10
-568.2433501777
 20
30.2752063466
 10
-568.1226488723
 20
30.2801514368
  0
LINE
  5
4E2
330
212
100
AcDbEntity
  8
AXIS
  6
Continuous
 62
     7
100
AcDbLine
 10
-866.3264968505
 20
-83.2783156608
 30
0.0
 11
-865.0888925434999
 21
-82.5637844809
 31
0.0
  0
LINE
  5
4E3
330
212
100
AcDbEntity
  8
AXIS
  6
Continuous
 62
     7
100
AcDbLine
 10
-849.0888925434999
 20
-92.06378448089999
 30
0.0
 11
-847.8512882364999
 21
-91.3492533011
 31
0.0
  0
LINE
  5
4E5
330
212
100
AcDbEntity
  8
0
  6
Continuous
 62
     7
100
AcDbLine
 10
-993.6460850675
 20
463.2086510296
 30
0.0
 11
-262.5591093244
 21
463.2086510296
 31
0.0
  0
LINE
  5
4E9
330
212
100
AcDbEntity
  8
0
  6
Continuous
 62
     7
100
AcDbLine
 10
-337.242412362
 20
264.0666519406
 30
0.0
 11
-335.872421294
 21
270.7944554682
 31
0.0
  0
LINE
  5
4EA
330
212
100
AcDbEntity
  8
0
  6
Continuous
 62
     7
100
AcDbLine
 10
-335.872421294
 20
270.7944554682
 30
0.0
 11
-334.3943870341
 21
278.0453423135
 31
0.0
  0
LINE
  5
4EB
330
212
100
AcDbEntity
  8
0
  6
Continuous
 62
     7
100
AcDbLine
 10
-334.3943870341
 20
278.0453423135
 30
0.0
 11
-332.8134039471
 21
285.7940362519
 31
0.0
  0
LINE
  5
4EC
330
212
100
AcDbEntity
  8
0
  6
Continuous
 62
     7
100
AcDbLine
 10
-332.8134039471
 20
285.7940362519
 30
0.0
 11
-331.1325197856
 21
294.0254212996
 31
0.0
  0
LINE
  5
4ED
330
212
100
AcDbEntity
  8
0
  6
Continuous
 62
     7
100
AcDbLine
 10
-331.1325197856
 20
294.0254212996
 30
0.0
 11
-328.4349917769
 21
307.2229403844
 31
0.0
  0
LINE
  5
4EE
330
212
100
AcDbEntity
  8
0
  6
Continuous
 62
     7
100
AcDbLine
 10
-328.4349917769
 20
307.2229403844
 30
0.0
 11
-326.5215964455
 21
316.5763472951
 31
0.0
  0
LINE
  5
4EF
330
212
100
AcDbEntity
  8
0
  6
Continuous
 62
     7
100
AcDbLine
 10
-326.5215964455
 20
316.5763472951
 30
0.0
 11
-323.4807332457
 21
331.4302713089
 31
0.0
  0
LINE
  5
4F0
330
212
100
AcDbEntity
  8
0
  6
Continuous
 62
     7
100
AcDbLine
 10
-323.4807332457
 20
331.4302713089
 30
0.0
 11
-319.1119253732
 21
352.7515564156
 31
0.0
  0
LINE
  5
4F1
330
212
100
AcDbEntity
  8
0
  6
Continuous
 62
     7
100
AcDbLine
 10
-319.1119253732
 20
352.7515564156
 30
0.0
 11
-314.3868400858
 21
375.791247811
 31
0.0
  0
LWPOLYLINE
  5
4F2
330
212
100
AcDbEntity
  8
0
  6
Continuous
 62
     7
100
AcDbPolyline
 90
        6
 70
     0
 43
0.0
 10
-314.3868400858
 20
375.791247811
 10
-307.9246171484
 20
407.2752074726999
 10
-306.5489732052
 20
413.9741870871
 10
-305.1445488685
 20
420.8123285894
 10
-303.708749893
 20
427.8022610402
 10
-303.5964171866
 20
428.3490597762999
  0
LINE
  5
4F5
330
212
100
AcDbEntity
  8
0
  6
Continuous
 62
     7
100
AcDbLine
 10
-379.423801922
 20
-69.75367143159999
 30
0.0
 11
-278.0836559084999
 21
428.3490597762999
 31
0.0
  0
LINE
  5
4F9
330
212
100
AcDbEntity
  8
0
  6
Continuous
 62
     7
100
AcDbLine
 10
-354.3087772963
 20
-11.414759423
 30
0.0
 11
-323.100707591
 21
141.9778038151
 31
0.0
  0
LINE
  5
4FA
330
212
100
AcDbEntity
  8
0
  6
Continuous
 62
     7
100
AcDbLine
 10
-329.9753198481
 20
164.3639811469
 30
0.0
 11
-134.0572772396
 21
666.867775522
 31
0.0
  0
LINE
  5
500
330
212
100
AcDbEntity
  8
0
  6
Continuous
 62
     7
100
AcDbLine
 10
-317.7950251171
 20
160.0049663812
 30
0.0
 11
-121.8769825086
 21
662.5087607562999
 31
0.0
  0
LINE
  5
502
330
212
100
AcDbEntity
  8
0
  6
Continuous
 62
     7
100
AcDbLine
 10
-253.102597196
 20
428.4362155191
 30
0.0
 11
-255.5857464378
 21
456.8187412288
 31
0.0
  0
LINE
  5
503
330
212
100
AcDbEntity
  8
AXIS
  6
Continuous
 62
     7
100
AcDbLine
 10
-408.3539061554
 20
-83.2783156608
 30
0.0
 11
-407.1163018483999
 21
-82.5637844809
 31
0.0
  0
LINE
  5
504
330
212
100
AcDbEntity
  8
AXIS
  6
Continuous
 62
     7
100
AcDbLine
 10
-391.1163018484
 20
-92.06378448089999
 30
0.0
 11
-389.8786975414
 21
-91.3492533011
 31
0.0
  0
LINE
  5
508
330
212
100
AcDbEntity
  8
0
  6
Continuous
 62
     7
100
AcDbLine
 10
-131.7623347816
 20
667.4362155191
 30
0.0
 11
-122.4454225057
 21
663.8037032143
 31
0.0
  0
ARC
  5
67E
330
212
100
AcDbEntity
  8
0
  6
Continuous
 62
     7
100
AcDbCircle
 10
-853.0888925435
 20
-66.56378448089999
 30
0.0
 40
16.0
100
AcDbArc
 50
270.0
 51
357.0
  0
ARC
  5
67F
330
212
100
AcDbEntity
  8
0
  6
Continuous
 62
     7
100
AcDbCircle
 10
-861.102597196
 20
-66.56378448089999
 30
0.0
 40
16.0
100
AcDbArc
 50
191.5
 51
270.0
  0
ARC
  5
686
330
212
100
AcDbEntity
  8
0
  6
Continuous
 62
     7
100
AcDbCircle
 10
-871.0888925435
 20
-105.5637844809
 30
0.0
 40
1.0
100
AcDbArc
 50
180.0
 51
270.0000010207
  0
ARC
  5
687
330
212
100
AcDbEntity
  8
0
  6
Continuous
 62
     7
100
AcDbCircle
 10
-843.0888925435001
 20
-105.5637844809
 30
0.0
 40
1.0
100
AcDbArc
 50
269.9999989793
 51
360.0
  0
ARC
  5
688
330
212
100
AcDbEntity
  8
0
  6
Continuous
 62
     7
100
AcDbCircle
 10
-871.0888925435
 20
-97.5637844809
 30
0.0
 40
1.0
100
AcDbArc
 50
89.9999999501
 51
180.0
  0
ARC
  5
689
330
212
100
AcDbEntity
  8
0
  6
Continuous
 62
     7
100
AcDbCircle
 10
-843.0888925435001
 20
-97.5637844809
 30
0.0
 40
1.0
100
AcDbArc
 50
0.0
 51
90.00000004989999
  0
ARC
  5
68D
330
212
100
AcDbEntity
  8
0
  6
Continuous
 62
     7
100
AcDbCircle
 10
-842.8692615674878
 20
45.86707048599835
 30
0.0
 40
3.477358236155442
100
AcDbArc
 50
226.1864329363735
 51
280.5856917179251
  0
ARC
  5
69A
330
212
100
AcDbEntity
  8
_SURFACE
  6
Continuous
 62
     7
100
AcDbCircle
 10
-664.0924814113
 20
24.6901770445
 30
0.0
 40
10.0
100
AcDbArc
 50
226.2973381654
 51
270.0
  0
ARC
  5
69B
330
212
100
AcDbEntity
  8
_SURFACE
  6
Continuous
 62
     7
100
AcDbCircle
 10
-592.1127129805999
 20
24.6901770445
 30
0.0
 40
10.0
100
AcDbArc
 50
270.0
 51
313.7026618346
  0
ARC
  5
69C
330
212
100
AcDbEntity
  8
_SURFACE
  6
Continuous
 62
     7
100
AcDbCircle
 10
-688.4315383708
 20
20.2862437936
 30
0.0
 40
9.9999999874
100
AcDbArc
 50
46.29733801159999
 51
88.0
  0
ARC
  5
69F
330
212
100
AcDbEntity
  8
0
  6
Continuous
 62
     7
100
AcDbCircle
 10
-993.6460850675
 20
456.2086510295999
 30
0.0
 40
7.0
100
AcDbArc
 50
90.0
 51
175.0
  0
ARC
  5
6A0
330
212
100
AcDbEntity
  8
_SURFACE
  6
Continuous
 62
     7
100
AcDbCircle
 10
-993.6460850675
 20
456.2086510295999
 30
0.0
 40
7.0
100
AcDbArc
 50
90.0
 51
175.0
  0
ARC
  5
6A1
330
212
100
AcDbEntity
  8
0
  6
Continuous
 62
     7
100
AcDbCircle
 10
-403.1163018483999
 20
-66.56378448089999
 30
0.0
 40
16.0
100
AcDbArc
 50
182.9999999999
 51
270.0000000001
  0
ARC
  5
6A2
330
212
100
AcDbEntity
  8
0
  6
Continuous
 62
     7
100
AcDbCircle
 10
-395.102597196
 20
-66.56378448089999
 30
0.0
 40
16.0
100
AcDbArc
 50
270.0
 51
348.5
  0
ARC
  5
6AA
330
212
100
AcDbEntity
  8
0
  6
Continuous
 62
     7
100
AcDbCircle
 10
-413.1163018484
 20
-105.5637844809
 30
0.0
 40
1.0
100
AcDbArc
 50
180.0
 51
270.0000010207
  0
ARC
  5
6AB
330
212
100
AcDbEntity
  8
0
  6
Continuous
 62
     7
100
AcDbCircle
 10
-385.1163018484
 20
-105.5637844809
 30
0.0
 40
1.0
100
AcDbArc
 50
269.9999989793
 51
360.0
  0
ARC
  5
6AC
330
212
100
AcDbEntity
  8
0
  6
Continuous
 62
     7
100
AcDbCircle
 10
-413.1163018484
 20
-97.5637844809
 30
0.0
 40
1.0
100
AcDbArc
 50
89.9999999501
 51
180.0
  0
ARC
  5
6AD
330
212
100
AcDbEntity
  8
0
  6
Continuous
 62
     7
100
AcDbCircle
 10
-385.1163018484
 20
-97.5637844809
 30
0.0
 40
1.0
100
AcDbArc
 50
0.0
 51
90.00000004989999
  0
ARC
  5
6AF
330
212
100
AcDbEntity
  8
0
  6
Continuous
 62
     7
100
AcDbCircle
 10
-355.2887020008999
 20
-11.2153914886
 30
0.0
 40
1.0
100
AcDbArc
 50
258.5
 51
348.5
  0
ARC
  5
6B1
330
212
100
AcDbEntity
  8
0
  6
Continuous
 62
     7
100
AcDbCircle
 10
-366.0879490471
 20
-9.221712144499999
 30
0.0
 40
1.0
100
AcDbArc
 50
168.5
 51
258.5
  0
ARC
  5
6B3
330
212
100
AcDbEntity
  8
0
  6
Continuous
 62
     7
100
AcDbCircle
 10
-413.3359328650359
 20
45.86707062667186
 30
0.0
 40
3.477358365789235
100
AcDbArc
 50
259.4143093621961
 51
313.8135659419442
  0
ARC
  5
6BC
330
212
100
AcDbEntity
  8
0
  6
Continuous
 62
     7
100
AcDbCircle
 10
-216.3089900827
 20
120.0473310292
 30
0.0
 40
122.0
100
AcDbArc
 50
158.7
 51
168.5
  0
ARC
  5
6BF
330
212
100
AcDbEntity
  8
0
  6
Continuous
 62
     7
100
AcDbCircle
 10
-215.3089900827
 20
120.0473310292
 30
0.0
 40
110.0
100
AcDbArc
 50
158.7
 51
168.5
  0
ARC
  5
6C1
330
212
100
AcDbEntity
  8
0
  6
Continuous
 62
     7
100
AcDbCircle
 10
-262.5591093244
 20
456.2086510295999
 30
0.0
 40
7.0
100
AcDbArc
 50
5.0
 51
90.0
  0
ARC
  5
6C2
330
212
100
AcDbEntity
  8
0
  6
Continuous
 62
     7
100
AcDbCircle
 10
-132.262334781527
 20
665.6097925471574
 30
0.0
 40
1.893626381413984
100
AcDbArc
 50
74.68986659765427
 51
105.3101334023457
  0
ARC
  5
6C3
330
212
100
AcDbEntity
  8
0
  6
Continuous
 62
     7
100
AcDbCircle
 10
-122.8086737362
 20
662.8720119866999
 30
0.0
 40
1.0
100
AcDbArc
 50
338.7
 51
68.7
  0
ARC
  5
6C5
330
212
100
AcDbEntity
  8
0
  6
Continuous
 62
     7
100
AcDbCircle
 10
-133.125586012
 20
666.5045242915
 30
0.0
 40
1.0
100
AcDbArc
 50
68.7
 51
158.7
  0
SPLINE
  5
A24
330
212
100
AcDbEntity
  8
AXIS
  6
Continuous
 62
     7
100
AcDbSpline
210
0.0
220
0.0
230
1.0
 70
     8
 71
     3
 72
    12
 73
     8
 74
     6
 42
0.0000000001
 43
0.0000000001
 44
0.0000000001
 12
0.8660254037715445
 22
-0.5000000000223333
 32
0.0
 13
0.9999999999999948
 23
0.000000101109156
 33
0.0
 40
0.0
 40
0.0
 40
0.0
 40
0.0
 40
0.5468444780209524
 40
1.05161480037132
 40
1.529488893241469
 40
1.991030268629662
 40
2.444882440449418
 40
2.444882440449418
 40
2.444882440449418
 40
2.444882440449418
 10
-408.3539061554
 20
-91.3492533011
 30
0.0
 10
-408.1960457521072
 20
-91.4403940474409
 30
0.0
 10
-407.8864953333306
 20
-91.60571443335893
 30
0.0
 10
-407.4177201011996
 20
-91.80785129198005
 30
0.0
 10
-406.9581075814424
 20
-91.95413443310824
 30
0.0
 10
-406.5012760162904
 20
-92.04358543647563
 30
0.0
 10
-406.1957888032732
 20
-92.0637844961962
 30
0.0
 10
-406.044504746
 20
-92.06378448089999
 30
0.0
 11
-408.3539061554
 21
-91.3492533011
 31
0.0
 11
-407.8706600015999
 21
-91.605206496
 31
0.0
 11
-407.4064276480999
 21
-91.80340185490001
 31
0.0
 11
-406.9505675709
 21
-91.94677283750001
 31
0.0
 11
-406.4973964564
 21
-92.0342735928
 31
0.0
 11
-406.044504746
 21
-92.06378448089999
 31
0.0
  0
SPLINE
  5
A25
330
212
100
AcDbEntity
  8
AXIS
  6
Continuous
 62
     7
100
AcDbSpline
210
0.0
220
0.0
230
1.0
 70
     8
 71
     3
 72
    12
 73
     8
 74
     6
 42
0.0000000001
 43
0.0000000001
 44
0.0000000001
 12
0.9999999999999948
 22
0.0000001022135349
 32
0.0
 13
0.8660254037817125
 23
0.500000000004722
 33
0.0
 40
0.0
 40
0.0
 40
0.0
 40
0.0
 40
0.4539515439724041
 40
0.9155470186223677
 40
1.393415934017972
 40
1.898059089769011
 40
2.444881691251696
 40
2.444881691251696
 40
2.444881691251696
 40
2.444881691251696
 10
-392.1880982879
 20
-92.06378448089999
 30
0.0
 10
-392.0367811065759
 20
-92.06378446543332
 30
0.0
 10
-391.7312425212779
 20
-92.04357743870847
 30
0.0
 10
-391.2743652369215
 20
-91.95410131341102
 30
0.0
 10
-390.8147826927035
 20
-91.80781059798379
 30
0.0
 10
-390.3460579726229
 20
-91.60568776648856
 30
0.0
 10
-390.036551629482
 20
-91.44039040134797
 30
0.0
 10
-389.8786975414
 20
-91.3492533011
 30
0.0
 11
-392.1880982879
 21
-92.06378448089999
 31
0.0
 11
-391.7351078362001
 21
-92.03426067790001
 31
0.0
 11
-391.2818865002
 21
-91.9467346657
 31
0.0
 11
-390.826036214
 21
-91.8033498099
 31
0.0
 11
-390.3619239538
 21
-91.605197029
 31
0.0
 11
-389.8786975414
 21
-91.3492533011
 31
0.0
  0
SPLINE
  5
A26
330
212
100
AcDbEntity
  8
AXIS
  6
Continuous
 62
     7
100
AcDbSpline
210
0.0
220
0.0
230
1.0
 70
     8
 71
     3
 72
    12
 73
     8
 74
     6
 42
0.0000000001
 43
0.0000000001
 44
0.0000000001
 12
0.8660254037860308
 22
0.4999999999972422
 32
0.0
 13
0.9999999999999957
 23
-0.000000091906259
 33
0.0
 40
0.0
 40
0.0
 40
0.0
 40
0.0
 40
0.546836327982645
 40
1.051607619843361
 40
1.529486519223033
 40
1.991029416696018
 40
2.444882453622736
 40
2.444882453622736
 40
2.444882453622736
 40
2.444882453622736
 10
-408.3539061554
 20
-83.2783156608
 30
0.0
 10
-408.1960481048179
 20
-83.1871762728034
 30
0.0
 10
-407.8864998932598
 20
-83.02185687285875
 30
0.0
 10
-407.417725671325
 20
-82.81971968083675
 30
0.0
 10
-406.9581109765127
 20
-82.67343528168366
 30
0.0
 10
-406.501277085927
 20
-82.5839836141715
 30
0.0
 10
-406.1957890749422
 20
-82.56378446699603
 30
0.0
 10
-406.0445047293
 20
-82.5637844809
 30
0.0
 11
-408.3539061554
 21
-83.2783156608
 31
0.0
 11
-407.8706673562
 21
-83.02236599279998
 31
0.0
 11
-407.4064343839999
 21
-82.8241696139
 31
0.0
 11
-406.9505698719999
 21
-82.6807967114
 31
0.0
 11
-406.4973972995
 21
-82.5932954786
 31
0.0
 11
-406.0445047293
 21
-82.5637844809
 31
0.0
  0
SPLINE
  5
A27
330
212
100
AcDbEntity
  8
AXIS
  6
Continuous
 62
     7
100
AcDbSpline
210
0.0
220
0.0
230
1.0
 70
     8
 71
     3
 72
    12
 73
     8
 74
     6
 42
0.0000000001
 43
0.0000000001
 44
0.0000000001
 12
0.9999999999999957
 22
-0.0000000919062885
 32
0.0
 13
0.8660254037898265
 23
-0.4999999999906676
 33
0.0
 40
0.0
 40
0.0
 40
0.0
 40
0.0
 40
0.4539521894949323
 40
0.9155487359326642
 40
1.393421077529296
 40
1.898065868842127
 40
2.444881669529807
 40
2.444881669529807
 40
2.444881669529807
 40
2.444881669529807
 10
-406.0445047293
 20
-82.5637844809
 30
0.0
 10
-405.8931873328017
 20
-82.56378449480703
 30
0.0
 10
-405.5876481735981
 20
-82.58399159391704
 30
0.0
 10
-405.1307692278402
 20
-82.67346819784666
 30
0.0
 10
-404.6711848385918
 20
-82.81975990976109
 30
0.0
 10
-404.2024608710515
 20
-83.02188302195316
 30
0.0
 10
-403.8929561267631
 20
-83.18717969402042
 30
0.0
 10
-403.7351040019
 20
-83.2783156608
 30
0.0
 11
-406.0445047293
 21
-82.5637844809
 31
0.0
 11
-405.5915136362999
 21
-82.59330836969999
 31
0.0
 11
-405.1382912751999
 21
-82.6808347262
 31
0.0
 11
-404.6824378293
 21
-82.82422095539999
 31
0.0
 11
-404.2183242773
 21
-83.02237487600001
 31
0.0
 11
-403.7351040019
 21
-83.2783156608
 31
0.0
  0
SPLINE
  5
A28
330
212
100
AcDbEntity
  8
AXIS
  6
Continuous
 62
     7
100
AcDbSpline
210
0.0
220
0.0
230
1.0
 70
     8
 71
     3
 72
    12
 73
     8
 74
     6
 42
0.0000000001
 43
0.0000000001
 44
0.0000000001
 12
0.9999999999999948
 22
0.0000001011091871
 32
0.0
 13
0.86602540377951
 23
0.5000000000085368
 33
0.0
 40
0.0
 40
0.0
 40
0.0
 40
0.0
 40
0.4539515409722277
 40
0.9155470157203065
 40
1.3934159312114
 40
1.898059087185619
 40
2.444881688845022
 40
2.444881688845022
 40
2.444881688845022
 40
2.444881688845022
 10
-406.044504746
 20
-92.06378448089999
 30
0.0
 10
-405.8931875656758
 20
-92.06378446560043
 30
0.0
 10
-405.5876489813606
 20
-92.04357743851488
 30
0.0
 10
-405.1307716979255
 20
-91.95410131353318
 30
0.0
 10
-404.671189153553
 20
-91.80781059808593
 30
0.0
 10
-404.2024644333578
 20
-91.60568776645593
 30
0.0
 10
-403.8929580900326
 20
-91.44039040137812
 30
0.0
 10
-403.7351040019
 20
-91.3492533011
 30
0.0
 11
-406.044504746
 21
-92.06378448089999
 31
0.0
 11
-405.5915142973
 21
-92.034260678
 31
0.0
 11
-405.1382929612
 21
-91.94673466579999
 31
0.0
 11
-404.6824426748999
 21
-91.80334980999999
 31
0.0
 11
-404.2183304144999
 21
-91.605197029
 31
0.0
 11
-403.7351040019
 21
-91.3492533011
 31
0.0
  0
SPLINE
  5
A29
330
212
100
AcDbEntity
  8
AXIS
  6
Continuous
 62
     7
100
AcDbSpline
210
0.0
220
0.0
230
1.0
 70
     8
 71
     3
 72
    12
 73
     8
 74
     6
 42
0.0000000001
 43
0.0000000001
 44
0.0000000001
 12
0.9607689228293903
 22
-0.2773500981165378
 32
0.0
 13
1.0
 23
-0.000000000106634
 33
0.0
 40
0.0
 40
0.0
 40
0.0
 40
0.0
 40
0.9938599588461061
 40
1.941297457554765
 40
2.865166395647258
 40
3.778674861217551
 40
4.688935354056873
 40
4.688935354056873
 40
4.688935354056873
 40
4.688935354056873
 10
-403.7351040019
 20
-91.3492533011
 30
0.0
 10
-403.4168140811988
 20
-91.44113568680003
 30
0.0
 10
-402.791282731405
 20
-91.60781776949862
 30
0.0
 10
-401.8572165405913
 20
-91.80885629994895
 30
0.0
 10
-400.9399296958425
 20
-91.95459184874021
 30
0.0
 10
-400.0278289779122
 20
-92.0437149917876
 30
0.0
 10
-399.4197220126797
 20
-92.06378448086764
 30
0.0
 10
-399.1163018484
 20
-92.06378448089999
 30
0.0
 11
-403.7351040019
 21
-91.3492533011
 31
0.0
 11
-402.7743988195999
 21
-91.60381796969998
 31
0.0
 11
-401.8479111256
 21
-91.8019552121
 31
0.0
 11
-400.9353235220999
 21
-91.94589158940001
 31
0.0
 11
-400.0260753762999
 21
-92.03401381149999
 31
0.0
 11
-399.1163018484
 21
-92.06378448089999
 31
0.0
  0
SPLINE
  5
A2A
330
212
100
AcDbEntity
  8
AXIS
  6
Continuous
 62
     7
100
AcDbSpline
210
0.0
220
0.0
230
1.0
 70
     8
 71
     3
 72
    12
 73
     8
 74
     6
 42
0.0000000001
 43
0.0000000001
 44
0.0000000001
 12
0.9607689228289613
 22
0.2773500981180235
 32
0.0
 13
1.0
 23
-0.0000000079548974
 33
0.0
 40
0.0
 40
0.0
 40
0.0
 40
0.0
 40
0.9938098251409682
 40
1.941242475345918
 40
2.865125678129513
 40
3.778652036952484
 40
4.688935401627252
 40
4.688935401627252
 40
4.688935401627252
 40
4.688935401627252
 10
-403.7351040019
 20
-83.2783156608
 30
0.0
 10
-403.4168301368342
 20
-83.18643790996217
 30
0.0
 10
-402.7913167069772
 20
-83.01975990771852
 30
0.0
 10
-401.8572643698697
 20
-82.81872159132793
 30
0.0
 10
-400.9399689567987
 20
-82.67298186245518
 30
0.0
 10
-400.027850149092
 20
-82.58385492465951
 30
0.0
 10
-399.4197295818249
 20
-82.56378448028625
 30
0.0
 10
-399.1163017936001
 20
-82.5637844827
 30
0.0
 11
-403.7351040019
 21
-83.2783156608
 31
0.0
 11
-402.7744475812999
 21
-83.0237626995
 31
0.0
 11
-401.8479651919999
 21
-82.8256238366
 31
0.0
 11
-400.9353639227
 21
-82.6816825442
 31
0.0
 11
-400.0260981569999
 21
-82.5935566366
 31
0.0
 11
-399.1163017936001
 21
-82.5637844827
 31
0.0
  0
SPLINE
  5
A2B
330
212
100
AcDbEntity
  8
AXIS
  6
Continuous
 62
     7
100
AcDbSpline
210
0.0
220
0.0
230
1.0
 70
     8
 71
     3
 72
    12
 73
     8
 74
     6
 42
0.0000000001
 43
0.0000000001
 44
0.0000000001
 12
0.9999999999999989
 22
-0.000000046257849
 32
0.0
 13
0.9607689228291739
 23
-0.277350098117287
 33
0.0
 40
0.0
 40
0.0
 40
0.0
 40
0.0
 40
0.9151048256304429
 40
1.832200789699001
 40
2.757289004039161
 40
3.702399395707261
 40
4.688933976618123
 40
4.688933976618123
 40
4.688933976618123
 40
4.688933976618123
 10
-399.1163017936001
 20
-82.5637844827
 30
0.0
 10
-398.8112668517232
 20
-82.56378449681026
 30
0.0
 10
-398.2003464231581
 20
-82.58405520825254
 30
0.0
 10
-397.2850794225224
 20
-82.67391263685464
 30
0.0
 10
-396.3670580753994
 20
-82.82029525424166
 30
0.0
 10
-395.4358353104863
 20
-83.02116405557866
 30
0.0
 10
-394.8134436171118
 20
-83.18711050652943
 30
0.0
 10
-394.4974996949
 20
-83.2783156608
 30
0.0
 11
-399.1163017936001
 21
-82.5637844827
 31
0.0
 11
-398.2016917056
 21
-82.59387150349999
 31
0.0
 11
-397.2889127217
 21
-82.6827508254
 31
0.0
 11
-396.3752013216001
 21
-82.82738720270002
 31
0.0
 11
-395.4510802989
 21
-83.02546291510001
 31
0.0
 11
-394.4974996949
 21
-83.2783156608
 31
0.0
  0
SPLINE
  5
A2C
330
212
100
AcDbEntity
  8
AXIS
  6
Continuous
 62
     7
100
AcDbSpline
210
0.0
220
0.0
230
1.0
 70
     8
 71
     3
 72
    12
 73
     8
 74
     6
 42
0.0000000001
 43
0.0000000001
 44
0.0000000001
 12
0.9999999999999989
 22
0.0000000485611438
 32
0.0
 13
0.9607689228307474
 23
0.2773500981118364
 33
0.0
 40
0.0
 40
0.0
 40
0.0
 40
0.0
 40
0.9150882340079963
 40
1.83217167042387
 40
2.757252841104516
 40
3.702367217745825
 40
4.688934036559088
 40
4.688934036559088
 40
4.688934036559088
 40
4.688934036559088
 10
-399.1163018484
 20
-92.06378448089999
 30
0.0
 10
-398.811272437064
 20
-92.06378446608743
 30
0.0
 10
-398.2003617247717
 20
-92.04351445102346
 30
0.0
 10
-397.2851065986238
 20
-91.95365965439025
 30
0.0
 10
-396.3670900894503
 20
-91.80727972985124
 30
0.0
 10
-395.4358574362188
 20
-91.60641058859416
 30
0.0
 10
-394.813453941504
 20
-91.44046143576392
 30
0.0
 10
-394.4974996949
 20
-91.3492533011
 30
0.0
 11
-399.1163018484
 21
-92.06378448089999
 31
0.0
 11
-398.2017083251999
 21
-92.03369854829999
 31
0.0
 11
-397.2889416719
 21
-91.94482185860001
 31
0.0
 11
-396.3752369373001
 21
-91.80018842429999
 31
0.0
 11
-395.4511116517
 21
-91.60211358629998
 31
0.0
 11
-394.4974996949
 21
-91.3492533011
 31
0.0
  0
SPLINE
  5
A2D
330
212
100
AcDbEntity
  8
AXIS
  6
Continuous
 62
     7
100
AcDbSpline
210
0.0
220
0.0
230
1.0
 70
     8
 71
     3
 72
    12
 73
     8
 74
     6
 42
0.0000000001
 43
0.0000000001
 44
0.0000000001
 12
0.8660254037870529
 22
-0.4999999999954718
 32
0.0
 13
0.9999999999999948
 23
0.0000001022135036
 33
0.0
 40
0.0
 40
0.0
 40
0.0
 40
0.0
 40
0.5468444782445269
 40
1.051614800686747
 40
1.529488893747768
 40
1.991030269234135
 40
2.444882438053713
 40
2.444882438053713
 40
2.444882438053713
 40
2.444882438053713
 10
-394.4974996949
 20
-91.3492533011
 30
0.0
 10
-394.3396392915399
 20
-91.44039404747326
 30
0.0
 10
-394.0300888726761
 20
-91.6057144334538
 30
0.0
 10
-393.5613136403709
 20
-91.8078512920939
 30
0.0
 10
-393.101701120469
 20
-91.95413443321928
 30
0.0
 10
-392.6448695562081
 20
-92.04358543628355
 30
0.0
 10
-392.3393823441732
 20
-92.06378449636327
 30
0.0
 10
-392.1880982879
 20
-92.06378448089999
 30
0.0
 11
-394.4974996949
 21
-91.3492533011
 31
0.0
 11
-394.0142535409
 21
-91.60520649610001
 31
0.0
 11
-393.5500211873001
 21
-91.803401855
 31
0.0
 11
-393.0941611098999
 21
-91.9467728376
 31
0.0
 11
-392.6409899953
 21
-92.03427359290001
 31
0.0
 11
-392.1880982879
 21
-92.06378448089999
 31
0.0
  0
SPLINE
  5
A2E
330
212
100
AcDbEntity
  8
AXIS
  6
Continuous
 62
     7
100
AcDbSpline
210
0.0
220
0.0
230
1.0
 70
     8
 71
     3
 72
    12
 73
     8
 74
     6
 42
0.0000000001
 43
0.0000000001
 44
0.0000000001
 12
0.8660254037826481
 22
0.5000000000031015
 32
0.0
 13
0.9999999999999957
 23
-0.0000000920698668
 33
0.0
 40
0.0
 40
0.0
 40
0.0
 40
0.0
 40
0.5468363256588495
 40
1.051607615536525
 40
1.529486513038299
 40
1.991029408740541
 40
2.44488243325881
 40
2.44488243325881
 40
2.44488243325881
 40
2.44488243325881
 10
-394.4974996949
 20
-83.2783156608
 30
0.0
 10
-394.3396416449894
 20
-83.18717627318964
 30
0.0
 10
-394.0300934347523
 20
-83.02185687380385
 30
0.0
 10
-393.5613192147357
 20
-82.81971968262869
 30
0.0
 10
-393.1017045219864
 20
-82.67343528309968
 30
0.0
 10
-392.644870636812
 20
-82.58398361639128
 30
0.0
 10
-392.339382630706
 20
-82.56378446697127
 30
0.0
 10
-392.1880982892
 20
-82.5637844809
 30
0.0
 11
-394.4974996949
 21
-83.2783156608
 31
0.0
 11
-394.0142608978
 21
-83.0223659938
 31
0.0
 11
-393.5500279275
 21
-82.8241696155
 31
0.0
 11
-393.0941634175
 21
-82.68079671290001
 31
0.0
 11
-392.6409908469
 21
-82.5932954796
 31
0.0
 11
-392.1880982892
 21
-82.5637844809
 31
0.0
  0
SPLINE
  5
A2F
330
212
100
AcDbEntity
  8
AXIS
  6
Continuous
 62
     7
100
AcDbSpline
210
0.0
220
0.0
230
1.0
 70
     8
 71
     3
 72
    12
 73
     8
 74
     6
 42
0.0000000001
 43
0.0000000001
 44
0.0000000001
 12
0.9999999999999957
 22
-0.0000000920698948
 32
0.0
 13
0.8660254037932094
 23
-0.4999999999848085
 33
0.0
 40
0.0
 40
0.0
 40
0.0
 40
0.0
 40
0.453952201903298
 40
0.9155487501118003
 40
1.393421093616316
 40
1.898065886964923
 40
2.444881689887989
 40
2.444881689887989
 40
2.444881689887989
 40
2.444881689887989
 10
-392.1880982892
 20
-82.5637844809
 30
0.0
 10
-392.0367808885655
 20
-82.56378449483177
 30
0.0
 10
-391.7312417244872
 20
-82.58399159170926
 30
0.0
 10
-391.2743627732888
 20
-82.67346819638897
 30
0.0
 10
-390.8147783820266
 20
-82.81975990815359
 30
0.0
 10
-390.3460544124515
 20
-83.02188302090705
 30
0.0
 10
-390.036549666909
 20
-83.18717969364893
 30
0.0
 10
-389.8786975414
 20
-83.2783156608
 30
0.0
 11
-392.1880982892
 21
-82.5637844809
 31
0.0
 11
-391.7351071837001
 21
-82.59330836869999
 31
0.0
 11
-391.2818848207
 21
-82.68083472470001
 31
0.0
 11
-390.8260313728
 21
-82.82422095390002
 31
0.0
 11
-390.3619178187999
 21
-83.02237487499999
 31
0.0
 11
-389.8786975414
 21
-83.2783156608
 31
0.0
  0
SPLINE
  5
A30
330
212
100
AcDbEntity
  8
AXIS
  6
Continuous
 62
     7
100
AcDbSpline
210
0.0
220
0.0
230
1.0
 70
     8
 71
     3
 72
    12
 73
     8
 74
     6
 42
0.0000000001
 43
0.0000000001
 44
0.0000000001
 12
0.8660254037715445
 22
-0.5000000000223333
 32
0.0
 13
0.9999999999999948
 23
0.000000101109156
 33
0.0
 40
0.0
 40
0.0
 40
0.0
 40
0.0
 40
0.5468444780209524
 40
1.051614800371215
 40
1.529488893241365
 40
1.991030268629725
 40
2.444882440449425
 40
2.444882440449425
 40
2.444882440449425
 40
2.444882440449425
 10
-866.3264968505
 20
-91.3492533011
 30
0.0
 10
-866.1686364472071
 20
-91.4403940474409
 30
0.0
 10
-865.8590860284308
 20
-91.60571443335891
 30
0.0
 10
-865.3903107962996
 20
-91.8078512919801
 30
0.0
 10
-864.9306982765423
 20
-91.95413443310824
 30
0.0
 10
-864.4738667113903
 20
-92.04358543647563
 30
0.0
 10
-864.1683794983732
 20
-92.0637844961962
 30
0.0
 10
-864.0170954410999
 20
-92.06378448089999
 30
0.0
 11
-866.3264968505
 21
-91.3492533011
 31
0.0
 11
-865.8432506967001
 21
-91.605206496
 31
0.0
 11
-865.3790183432001
 21
-91.80340185490001
 31
0.0
 11
-864.923158266
 21
-91.94677283750001
 31
0.0
 11
-864.4699871514999
 21
-92.0342735928
 31
0.0
 11
-864.0170954410999
 21
-92.06378448089999
 31
0.0
  0
SPLINE
  5
A31
330
212
100
AcDbEntity
  8
AXIS
  6
Continuous
 62
     7
100
AcDbSpline
210
0.0
220
0.0
230
1.0
 70
     8
 71
     3
 72
    12
 73
     8
 74
     6
 42
0.0000000001
 43
0.0000000001
 44
0.0000000001
 12
0.9999999999999948
 22
0.0000001022135349
 32
0.0
 13
0.8660254037817125
 23
0.500000000004722
 33
0.0
 40
0.0
 40
0.0
 40
0.0
 40
0.0
 40
0.4539515438725715
 40
0.915547018522535
 40
1.39341593391814
 40
1.898059089669126
 40
2.444881691151912
 40
2.444881691151912
 40
2.444881691151912
 40
2.444881691151912
 10
-850.1606889829
 20
-92.06378448089999
 30
0.0
 10
-850.009371801609
 20
-92.06378446543332
 30
0.0
 10
-849.7038332163452
 20
-92.0435774387
 30
0.0
 10
-849.2469559320213
 20
-91.95410131341155
 30
0.0
 10
-848.7873733878036
 20
-91.80781059798368
 30
0.0
 10
-848.3186486677228
 20
-91.60568776648855
 30
0.0
 10
-848.009142324582
 20
-91.44039040134799
 30
0.0
 10
-847.8512882364999
 20
-91.3492533011
 30
0.0
 11
-850.1606889829
 21
-92.06378448089999
 31
0.0
 11
-849.7076985313
 21
-92.03426067790001
 31
0.0
 11
-849.2544771952999
 21
-91.9467346657
 31
0.0
 11
-848.7986269090999
 21
-91.8033498099
 31
0.0
 11
-848.3345146489
 21
-91.605197029
 31
0.0
 11
-847.8512882364999
 21
-91.3492533011
 31
0.0
  0
SPLINE
  5
A32
330
212
100
AcDbEntity
  8
AXIS
  6
Continuous
 62
     7
100
AcDbSpline
210
0.0
220
0.0
230
1.0
 70
     8
 71
     3
 72
    12
 73
     8
 74
     6
 42
0.0000000001
 43
0.0000000001
 44
0.0000000001
 12
0.8660254037860308
 22
0.4999999999972422
 32
0.0
 13
0.9999999999999957
 23
-0.000000091906259
 33
0.0
 40
0.0
 40
0.0
 40
0.0
 40
0.0
 40
0.546836327982645
 40
1.051607619843309
 40
1.52948651922298
 40
1.991029416695965
 40
2.444882453622683
 40
2.444882453622683
 40
2.444882453622683
 40
2.444882453622683
 10
-866.3264968505
 20
-83.2783156608
 30
0.0
 10
-866.168638799918
 20
-83.1871762728034
 30
0.0
 10
-865.8590905883597
 20
-83.02185687285877
 30
0.0
 10
-865.3903163664253
 20
-82.81971968083675
 30
0.0
 10
-864.9307016716127
 20
-82.67343528168366
 30
0.0
 10
-864.4738677810272
 20
-82.5839836141715
 30
0.0
 10
-864.1683797700423
 20
-82.56378446699603
 30
0.0
 10
-864.0170954244
 20
-82.5637844809
 30
0.0
 11
-866.3264968505
 21
-83.2783156608
 31
0.0
 11
-865.8432580513
 21
-83.02236599279998
 31
0.0
 11
-865.3790250791001
 21
-82.8241696139
 31
0.0
 11
-864.9231605670999
 21
-82.6807967114
 31
0.0
 11
-864.4699879946001
 21
-82.5932954786
 31
0.0
 11
-864.0170954244
 21
-82.5637844809
 31
0.0
  0
SPLINE
  5
A33
330
212
100
AcDbEntity
  8
AXIS
  6
Continuous
 62
     7
100
AcDbSpline
210
0.0
220
0.0
230
1.0
 70
     8
 71
     3
 72
    12
 73
     8
 74
     6
 42
0.0000000001
 43
0.0000000001
 44
0.0000000001
 12
0.9999999999999957
 22
-0.0000000919062885
 32
0.0
 13
0.8660254037898265
 23
-0.4999999999906676
 33
0.0
 40
0.0
 40
0.0
 40
0.0
 40
0.0
 40
0.4539521894949323
 40
0.9155487359327199
 40
1.393421077529352
 40
1.898065868842183
 40
2.444881669529913
 40
2.444881669529913
 40
2.444881669529913
 40
2.444881669529913
 10
-864.0170954244
 20
-82.5637844809
 30
0.0
 10
-863.8657780279018
 20
-82.56378449480703
 30
0.0
 10
-863.5602388686981
 20
-82.58399159391704
 30
0.0
 10
-863.1033599229404
 20
-82.67346819784666
 30
0.0
 10
-862.6437755336917
 20
-82.81975990976111
 30
0.0
 10
-862.1750515661515
 20
-83.02188302195316
 30
0.0
 10
-861.865546821863
 20
-83.18717969402042
 30
0.0
 10
-861.707694697
 20
-83.2783156608
 30
0.0
 11
-864.0170954244
 21
-82.5637844809
 31
0.0
 11
-863.5641043314
 21
-82.59330836969999
 31
0.0
 11
-863.1108819702999
 21
-82.6808347262
 31
0.0
 11
-862.6550285244
 21
-82.82422095539999
 31
0.0
 11
-862.1909149724
 21
-83.02237487600001
 31
0.0
 11
-861.707694697
 21
-83.2783156608
 31
0.0
  0
SPLINE
  5
A34
330
212
100
AcDbEntity
  8
AXIS
  6
Continuous
 62
     7
100
AcDbSpline
210
0.0
220
0.0
230
1.0
 70
     8
 71
     3
 72
    12
 73
     8
 74
     6
 42
0.0000000001
 43
0.0000000001
 44
0.0000000001
 12
0.9999999999999948
 22
0.0000001011091871
 32
0.0
 13
0.86602540377951
 23
0.5000000000085368
 33
0.0
 40
0.0
 40
0.0
 40
0.0
 40
0.0
 40
0.453951540972171
 40
0.9155470158185908
 40
1.393415931214195
 40
1.898059087188362
 40
2.444881688847866
 40
2.444881688847866
 40
2.444881688847866
 40
2.444881688847866
 10
-864.0170954410999
 20
-92.06378448089999
 30
0.0
 10
-863.8657782607758
 20
-92.06378446560043
 30
0.0
 10
-863.5602396764303
 20
-92.04357743850115
 30
0.0
 10
-863.1033623929836
 20
-91.95410131356647
 30
0.0
 10
-862.6437798486271
 20
-91.80781059806136
 30
0.0
 10
-862.175055128457
 20
-91.6056877664597
 30
0.0
 10
-861.8655487851325
 20
-91.44039040137815
 30
0.0
 10
-861.707694697
 20
-91.3492533011
 30
0.0
 11
-864.0170954410999
 21
-92.06378448089999
 31
0.0
 11
-863.5641049924
 21
-92.034260678
 31
0.0
 11
-863.1108836561999
 21
-91.94673466579999
 31
0.0
 11
-862.6550333699999
 21
-91.80334980999999
 31
0.0
 11
-862.1909211095999
 21
-91.605197029
 31
0.0
 11
-861.707694697
 21
-91.3492533011
 31
0.0
  0
SPLINE
  5
A35
330
212
100
AcDbEntity
  8
AXIS
  6
Continuous
 62
     7
100
AcDbSpline
210
0.0
220
0.0
230
1.0
 70
     8
 71
     3
 72
    12
 73
     8
 74
     6
 42
0.0000000001
 43
0.0000000001
 44
0.0000000001
 12
0.9607689228293903
 22
-0.2773500981165378
 32
0.0
 13
1.0
 23
-0.000000000106634
 33
0.0
 40
0.0
 40
0.0
 40
0.0
 40
0.0
 40
0.9938599588460512
 40
1.941297457554599
 40
2.865166395647204
 40
3.778674861316962
 40
4.68893535405635
 40
4.68893535405635
 40
4.68893535405635
 40
4.68893535405635
 10
-861.707694697
 20
-91.3492533011
 30
0.0
 10
-861.3894047762988
 20
-91.44113568680003
 30
0.0
 10
-860.7638734265051
 20
-91.60781776949889
 30
0.0
 10
-859.8298072356913
 20
-91.80885629994806
 30
0.0
 10
-858.91252039091
 20
-91.95459184874868
 30
0.0
 10
-858.0004196729779
 20
-92.04371499177778
 30
0.0
 10
-857.3923127077465
 20
-92.06378448086764
 30
0.0
 10
-857.0888925434999
 20
-92.06378448089999
 30
0.0
 11
-861.707694697
 21
-91.3492533011
 31
0.0
 11
-860.7469895147
 21
-91.60381796969998
 31
0.0
 11
-859.8205018207
 21
-91.8019552121
 31
0.0
 11
-858.9079142172
 21
-91.94589158940001
 31
0.0
 11
-857.9986660713
 21
-92.03401381149999
 31
0.0
 11
-857.0888925434999
 21
-92.06378448089999
 31
0.0
  0
SPLINE
  5
A36
330
212
100
AcDbEntity
  8
AXIS
  6
Continuous
 62
     7
100
AcDbSpline
210
0.0
220
0.0
230
1.0
 70
     8
 71
     3
 72
    12
 73
     8
 74
     6
 42
0.0000000001
 43
0.0000000001
 44
0.0000000001
 12
0.9607689228289613
 22
0.2773500981180235
 32
0.0
 13
1.0
 23
-0.0000000079548974
 33
0.0
 40
0.0
 40
0.0
 40
0.0
 40
0.0
 40
0.9938098251409133
 40
1.941242475345697
 40
2.86512567812946
 40
3.778652036952374
 40
4.688935401627312
 40
4.688935401627312
 40
4.688935401627312
 40
4.688935401627312
 10
-861.707694697
 20
-83.2783156608
 30
0.0
 10
-861.389420831934
 20
-83.18643790996217
 30
0.0
 10
-860.7639074020774
 20
-83.01975990771854
 30
0.0
 10
-859.8298550649699
 20
-82.81872159132792
 30
0.0
 10
-858.9125596518988
 20
-82.6729818624552
 30
0.0
 10
-858.000440844192
 20
-82.58385492465951
 30
0.0
 10
-857.3923202769249
 20
-82.56378448028625
 30
0.0
 10
-857.0888924886999
 20
-82.5637844827
 30
0.0
 11
-861.707694697
 21
-83.2783156608
 31
0.0
 11
-860.7470382763999
 21
-83.0237626995
 31
0.0
 11
-859.8205558871001
 21
-82.8256238366
 31
0.0
 11
-858.9079546178
 21
-82.6816825442
 31
0.0
 11
-857.9986888521
 21
-82.5935566366
 31
0.0
 11
-857.0888924886999
 21
-82.5637844827
 31
0.0
  0
SPLINE
  5
A37
330
212
100
AcDbEntity
  8
AXIS
  6
Continuous
 62
     7
100
AcDbSpline
210
0.0
220
0.0
230
1.0
 70
     8
 71
     3
 72
    12
 73
     8
 74
     6
 42
0.0000000001
 43
0.0000000001
 44
0.0000000001
 12
0.9999999999999989
 22
-0.000000046257849
 32
0.0
 13
0.9607689228291739
 23
-0.277350098117287
 33
0.0
 40
0.0
 40
0.0
 40
0.0
 40
0.0
 40
0.9151048256301589
 40
1.83220078979846
 40
2.757289004039918
 40
3.702399395707907
 40
4.688933976618769
 40
4.688933976618769
 40
4.688933976618769
 40
4.688933976618769
 10
-857.0888924886999
 20
-82.5637844827
 30
0.0
 10
-856.7838575468233
 20
-82.56378449681026
 30
0.0
 10
-856.1729371182254
 20
-82.58405520825991
 30
0.0
 10
-855.2576701175867
 20
-82.67391263683697
 30
0.0
 10
-854.3396487704677
 20
-82.82029525425464
 30
0.0
 10
-853.4084260055861
 20
-83.02116405557685
 30
0.0
 10
-852.7860343122117
 20
-83.18711050652943
 30
0.0
 10
-852.4700903899999
 20
-83.2783156608
 30
0.0
 11
-857.0888924886999
 21
-82.5637844827
 31
0.0
 11
-856.1742824007001
 21
-82.59387150349999
 31
0.0
 11
-855.2615034166999
 21
-82.6827508254
 31
0.0
 11
-854.3477920166999
 21
-82.82738720270002
 31
0.0
 11
-853.423670994
 21
-83.02546291510001
 31
0.0
 11
-852.4700903899999
 21
-83.2783156608
 31
0.0
  0
SPLINE
  5
A38
330
212
100
AcDbEntity
  8
AXIS
  6
Continuous
 62
     7
100
AcDbSpline
210
0.0
220
0.0
230
1.0
 70
     8
 71
     3
 72
    12
 73
     8
 74
     6
 42
0.0000000001
 43
0.0000000001
 44
0.0000000001
 12
0.9999999999999989
 22
0.0000000485611438
 32
0.0
 13
0.9607689228307474
 23
0.2773500981118364
 33
0.0
 40
0.0
 40
0.0
 40
0.0
 40
0.0
 40
0.9150882340080531
 40
1.832171670423983
 40
2.757252841104574
 40
3.702367217745938
 40
4.688934036559146
 40
4.688934036559146
 40
4.688934036559146
 40
4.688934036559146
 10
-857.0888925434999
 20
-92.06378448089999
 30
0.0
 10
-856.783863132164
 20
-92.06378446608743
 30
0.0
 10
-856.1729524198719
 20
-92.04351445102346
 30
0.0
 10
-855.2576972937236
 20
-91.95365965439023
 30
0.0
 10
-854.3396807845507
 20
-91.80727972985126
 30
0.0
 10
-853.4084481313186
 20
-91.60641058859418
 30
0.0
 10
-852.7860446366039
 20
-91.44046143576392
 30
0.0
 10
-852.4700903899999
 20
-91.3492533011
 30
0.0
 11
-857.0888925434999
 21
-92.06378448089999
 31
0.0
 11
-856.1742990202999
 21
-92.03369854829999
 31
0.0
 11
-855.261532367
 21
-91.94482185860001
 31
0.0
 11
-854.3478276324
 21
-91.80018842429999
 31
0.0
 11
-853.4237023468
 21
-91.60211358629998
 31
0.0
 11
-852.4700903899999
 21
-91.3492533011
 31
0.0
  0
SPLINE
  5
A39
330
212
100
AcDbEntity
  8
AXIS
  6
Continuous
 62
     7
100
AcDbSpline
210
0.0
220
0.0
230
1.0
 70
     8
 71
     3
 72
    12
 73
     8
 74
     6
 42
0.0000000001
 43
0.0000000001
 44
0.0000000001
 12
0.8660254037870529
 22
-0.4999999999954718
 32
0.0
 13
0.9999999999999948
 23
0.0000001022135036
 33
0.0
 40
0.0
 40
0.0
 40
0.0
 40
0.0
 40
0.5468444782444766
 40
1.051614800686749
 40
1.52948889374777
 40
1.991030269332367
 40
2.444882438151945
 40
2.444882438151945
 40
2.444882438151945
 40
2.444882438151945
 10
-852.4700903899999
 20
-91.3492533011
 30
0.0
 10
-852.3122299866399
 20
-91.44039404747326
 30
0.0
 10
-852.0026795677761
 20
-91.60571443345439
 30
0.0
 10
-851.5339043354707
 20
-91.80785129209214
 30
0.0
 10
-851.0742918155388
 20
-91.95413443323525
 30
0.0
 10
-850.6174602512389
 20
-92.04358543627286
 30
0.0
 10
-850.311973039173
 20
-92.06378449636327
 30
0.0
 10
-850.1606889829
 20
-92.06378448089999
 30
0.0
 11
-852.4700903899999
 21
-91.3492533011
 31
0.0
 11
-851.9868442359999
 21
-91.60520649610001
 31
0.0
 11
-851.5226118823999
 21
-91.803401855
 31
0.0
 11
-851.0667518049999
 21
-91.9467728376
 31
0.0
 11
-850.6135806902999
 21
-92.03427359290001
 31
0.0
 11
-850.1606889829
 21
-92.06378448089999
 31
0.0
  0
SPLINE
  5
A3A
330
212
100
AcDbEntity
  8
AXIS
  6
Continuous
 62
     7
100
AcDbSpline
210
0.0
220
0.0
230
1.0
 70
     8
 71
     3
 72
    12
 73
     8
 74
     6
 42
0.0000000001
 43
0.0000000001
 44
0.0000000001
 12
0.8660254037826481
 22
0.5000000000031015
 32
0.0
 13
0.9999999999999957
 23
-0.0000000920698668
 33
0.0
 40
0.0
 40
0.0
 40
0.0
 40
0.0
 40
0.5468363256588998
 40
1.051607615536627
 40
1.529486513038347
 40
1.991029408740533
 40
2.444882433258859
 40
2.444882433258859
 40
2.444882433258859
 40
2.444882433258859
 10
-852.4700903899999
 20
-83.2783156608
 30
0.0
 10
-852.3122323400894
 20
-83.18717627318962
 30
0.0
 10
-852.0026841298525
 20
-83.02185687380383
 30
0.0
 10
-851.5339099098357
 20
-82.81971968262871
 30
0.0
 10
-851.0742952170859
 20
-82.67343528309966
 30
0.0
 10
-850.6174613319119
 20
-82.58398361639128
 30
0.0
 10
-850.311973325806
 20
-82.56378446697127
 30
0.0
 10
-850.1606889842999
 20
-82.5637844809
 30
0.0
 11
-852.4700903899999
 21
-83.2783156608
 31
0.0
 11
-851.9868515928999
 21
-83.0223659938
 31
0.0
 11
-851.5226186225998
 21
-82.8241696155
 31
0.0
 11
-851.0667541125998
 21
-82.68079671290001
 31
0.0
 11
-850.613581542
 21
-82.5932954796
 31
0.0
 11
-850.1606889842999
 21
-82.5637844809
 31
0.0
  0
SPLINE
  5
A3B
330
212
100
AcDbEntity
  8
AXIS
  6
Continuous
 62
     7
100
AcDbSpline
210
0.0
220
0.0
230
1.0
 70
     8
 71
     3
 72
    12
 73
     8
 74
     6
 42
0.0000000001
 43
0.0000000001
 44
0.0000000001
 12
0.9999999999999957
 22
-0.0000000920698948
 32
0.0
 13
0.8660254037932094
 23
-0.4999999999848085
 33
0.0
 40
0.0
 40
0.0
 40
0.0
 40
0.0
 40
0.4539522019031846
 40
0.9155487501117427
 40
1.393421093616313
 40
1.898065886964815
 40
2.444881689887981
 40
2.444881689887981
 40
2.444881689887981
 40
2.444881689887981
 10
-850.1606889842999
 20
-82.5637844809
 30
0.0
 10
-850.0093715836655
 20
-82.56378449483177
 30
0.0
 10
-849.7038324195873
 20
-82.58399159170927
 30
0.0
 10
-849.2469534683889
 20
-82.67346819638898
 30
0.0
 10
-848.7873690771264
 20
-82.81975990815352
 30
0.0
 10
-848.3186451075516
 20
-83.0218830209071
 30
0.0
 10
-848.009140362009
 20
-83.18717969364891
 30
0.0
 10
-847.8512882364999
 20
-83.2783156608
 30
0.0
 11
-850.1606889842999
 21
-82.5637844809
 31
0.0
 11
-849.7076978788001
 21
-82.59330836869999
 31
0.0
 11
-849.2544755158
 21
-82.68083472470001
 31
0.0
 11
-848.7986220678999
 21
-82.82422095390002
 31
0.0
 11
-848.3345085138999
 21
-83.02237487499999
 31
0.0
 11
-847.8512882364999
 21
-83.2783156608
 31
0.0
  0
SPLINE
  5
A49
330
212
100
AcDbEntity
  8
0
  6
Continuous
 62
     7
100
AcDbSpline
210
0.0
220
0.0
230
1.0
 70
     8
 71
     3
 72
    16
 73
    12
 74
    10
 42
0.0000000001
 43
0.0000000001
 44
0.0000000001
 12
0.9920570959866951
 22
0.1257883869935739
 32
0.0
 13
0.843586669909278
 23
0.5369930449748625
 33
0.0
 40
0.0
 40
0.0
 40
0.0
 40
0.0
 40
1.904690274780578
 40
3.808235389483114
 40
5.709466140977735
 40
7.610129476804829
 40
9.508730864608004
 40
11.40705886799335
 40
13.30386925926843
 40
15.20030138708306
 40
21.74057052314933
 40
21.74057052314933
 40
21.74057052314933
 40
21.74057052314933
 10
-410.9285088257999
 20
43.35782159569999
 30
0.0
 10
-410.298654991549
 20
43.43768423482899
 30
0.0
 10
-409.0430060071838
 20
43.6281538124196
 30
0.0
 10
-407.1768954342628
 20
44.00543331212495
 30
0.0
 10
-405.3326300991583
 20
44.47300836785192
 30
0.0
 10
-403.5153860644028
 20
45.03048722931938
 30
0.0
 10
-401.7272119913187
 20
45.67324324476362
 30
0.0
 10
-399.9786926669778
 20
46.41225214277604
 30
0.0
 10
-398.2510292877178
 20
47.19856521214468
 30
0.0
 10
-395.3106303610406
 20
49.02983528690946
 30
0.0
 10
-392.2485197400682
 20
49.07703871212288
 30
0.0
 10
-390.4094251198
 20
50.2477317249
 30
0.0
 11
-410.9285088257999
 21
43.35782159569999
 31
0.0
 11
-409.0453666251999
 21
43.64351460429999
 31
0.0
 11
-407.1795657042
 21
44.0207027893
 31
0.0
 11
-405.3366869020999
 21
44.4881170501
 31
0.0
 11
-403.5194256773
 21
45.0449677994
 31
0.0
 11
-401.7335365605
 21
45.6893956792
 31
0.0
 11
-399.981594943
 21
46.42038800289999
 31
0.0
 11
-398.268933987
 21
47.2356683904
 31
0.0
 11
-396.5986119021
 21
48.13371012000001
 31
0.0
 11
-390.4094251198
 21
50.2477317249
 31
0.0
  0
LINE
  5
A4D
330
212
100
AcDbEntity
  8
_SURFACE
  6
Continuous
 62
     7
100
AcDbLine
 10
-663.983770208
 20
14.6905375198
 30
0.0
 11
-663.9796933276
 21
14.6901770445
 31
0.0
  0
SPLINE
  5
A52
330
212
100
AcDbEntity
  8
0
  6
Continuous
 62
     7
100
AcDbSpline
210
0.0
220
0.0
230
1.0
 70
     8
 71
     3
 72
    16
 73
    12
 74
    10
 42
0.0000000001
 43
0.0000000001
 44
0.0000000001
 12
0.843586669911928
 22
-0.5369930449706998
 32
0.0
 13
0.9920570959874252
 23
-0.1257883869878171
 33
0.0
 40
0.0
 40
0.0
 40
0.0
 40
0.0
 40
1.895521043850663
 40
3.792003246934056
 40
5.68878786100142
 40
7.587130350406045
 40
9.485727054179621
 40
11.38638814982891
 40
13.28763285643803
 40
15.19112882411767
 40
17.095798101838
 40
17.095798101838
 40
17.095798101838
 40
17.095798101838
 10
-861.2300759077999
 20
49.1120643081
 30
0.0
 10
-860.6970638127567
 20
48.77277043571886
 30
0.0
 10
-859.6139308981296
 20
48.12005490399975
 30
0.0
 10
-857.9431137243695
 20
47.22176533266034
 30
0.0
 10
-856.2293973288658
 20
46.40599845034206
 30
0.0
 10
-854.4771380774202
 20
45.67489228834584
 30
0.0
 10
-852.6899644060417
 20
45.03002056799764
 30
0.0
 10
-850.8724480148924
 20
44.4731118321259
 30
0.0
 10
-849.0282663171001
 20
44.00539027781132
 30
0.0
 10
-847.16215396181
 20
43.6281583518472
 30
0.0
 10
-845.9065324569237
 20
43.43768335442989
 30
0.0
 10
-845.2766855661
 20
43.35782159569999
 30
0.0
 11
-861.2300759077999
 21
49.1120643081
 31
0.0
 11
-859.606561344
 21
48.13369807359999
 31
0.0
 11
-857.9361940077999
 21
47.23563476359999
 31
0.0
 11
-856.2235550305
 21
46.420368178
 31
0.0
 11
-854.4715989895999
 21
45.6893728033
 31
0.0
 11
-852.6857132686
 21
45.0449493128
 31
0.0
 11
-850.8684533633999
 21
44.48810190329999
 31
0.0
 11
-849.0255602746
 21
44.0206872077
 31
0.0
 11
-847.1598070842
 21
43.64351094719999
 31
0.0
 11
-845.2766855661
 21
43.35782159569999
 31
0.0
  0
SPLINE
  5
A55
330
212
100
AcDbEntity
  8
_SURFACE
  6
Continuous
 62
     7
100
AcDbSpline
210
0.0
220
0.0
230
1.0
 70
     8
 71
     3
 72
    12
 73
     8
 74
     6
 42
0.0000000001
 43
0.0000000001
 44
0.0000000001
 12
0.0842385117421408
 22
-0.9964456197602903
 32
0.0
 13
0.997353511299477
 23
0.0727047006637416
 33
0.0
 40
0.0
 40
0.0
 40
0.0
 40
0.0
 40
0.0380151932432131
 40
0.0694011604233068
 40
0.0936787717584791
 40
0.1102929007021782
 40
0.1187450013095978
 40
0.1187450013095978
 40
0.1187450013095978
 40
0.1187450013095978
 10
-671.0115574170999
 20
17.5802230864
 30
0.0
 10
-671.0104899693325
 20
17.56759639546948
 30
0.0
 10
-671.0087334672894
 20
17.54432013276923
 30
0.0
 10
-671.0053963755588
 20
17.51401081661131
 30
0.0
 10
-671.0051191684949
 20
17.4880041786848
 30
0.0
 10
-671.0001751216444
 20
17.47582154084266
 30
0.0
 10
-671.0045368104395
 20
17.46168117848512
 30
0.0
 10
-671.0017268996999
 20
17.4618860143
 30
0.0
 11
-671.0115574170999
 21
17.5802230864
 31
0.0
 11
-671.0083509294
 21
17.5423433642
 31
0.0
 11
-671.0057056986999
 21
17.5110690666
 31
0.0
 11
-671.0037008623999
 21
17.4868743762
 31
0.0
 11
-671.0023768369
 21
17.4703130889
 31
0.0
 11
-671.0017268996999
 21
17.4618860143
 31
0.0
  0
SPLINE
  5
A5D
330
212
100
AcDbEntity
  8
_SURFACE
  6
Continuous
 62
     7
100
AcDbSpline
210
0.0
220
0.0
230
1.0
 70
     8
 71
     3
 72
    20
 73
    16
 74
    14
 42
0.0000000001
 43
0.0000000001
 44
0.0000000001
 12
-0.5671887702747262
 22
0.82358782098465
 32
0.0
 13
-0.1578177369848125
 23
0.9874682586761927
 33
0.0
 40
0.0
 40
0.0
 40
0.0
 40
0.0
 40
0.01319453216235
 40
0.0360401023277261
 40
0.0655012872305737
 40
0.0984935909792532
 40
0.1329645254385355
 40
0.1688980969989455
 40
0.2112560901927819
 40
0.2584939960309919
 40
0.3085767175935181
 40
0.36116629542591
 40
0.4181778243631747
 40
0.4834683265571236
 40
0.5616848084744158
 40
0.5616848084744158
 40
0.5616848084744158
 40
0.5616848084744158
 10
-688.0827464171001
 20
30.2816367474
 30
0.0
 10
-688.0852410139238
 20
30.28525903273083
 30
0.0
 10
-688.0834304740606
 20
30.29849537159079
 30
0.0
 10
-688.0886869503329
 20
30.31925910870362
 30
0.0
 10
-688.0918390125422
 20
30.34774724956191
 30
0.0
 10
-688.0968278629723
 20
30.37960014070895
 30
0.0
 10
-688.101863494007
 20
30.41371595227829
 30
0.0
 10
-688.1075571757602
 20
30.4508639668287
 30
0.0
 10
-688.1139554114604
 20
30.49221695479281
 30
0.0
 10
-688.1211827236575
 20
30.53821158118448
 30
0.0
 10
-688.1290108489825
 20
30.58756485115342
 30
0.0
 10
-688.1374114172781
 20
30.64012572653702
 30
0.0
 10
-688.1465583675026
 20
30.69770064620319
 30
0.0
 10
-688.1574468183319
 20
30.76364940908448
 30
0.0
 10
-688.1641126920096
 20
30.81102317313379
 30
0.0
 10
-688.1682273414
 20
30.8367686042
 30
0.0
 11
-688.0827464171001
 21
30.2816367474
 31
0.0
 11
-688.0845456422
 21
30.2947080315
 31
0.0
 11
-688.0877240283
 21
30.3173314251
 31
0.0
 11
-688.0919103007
 21
30.3464936702
 31
0.0
 11
-688.0967070699
 21
30.379135409
 31
0.0
 11
-688.1018224828999
 21
30.4132246723
 31
0.0
 11
-688.1072406613
 21
30.4487474102
 31
0.0
 11
-688.113722151
 21
30.4906065774
 31
0.0
 11
-688.1210464474
 21
30.5372732082
 31
0.0
 11
-688.1288894411
 21
30.5867380083
 31
0.0
 11
-688.1371710469998
 21
30.6386714147
 31
0.0
 11
-688.1461785449
 21
30.69496688
 31
0.0
 11
-688.1565116866
 21
30.75943451420001
 31
0.0
 11
-688.1682273414
 21
30.8367686042
 31
0.0
  0
SPLINE
  5
A61
330
212
100
AcDbEntity
  8
0
  6
Continuous
 62
     7
100
AcDbSpline
210
0.0
220
0.0
230
1.0
 70
     8
 71
     3
 72
    20
 73
    16
 74
    14
 42
0.0000000001
 43
0.0000000001
 44
0.0000000001
 12
-0.7910236471852825
 22
0.6117855748493044
 32
0.0
 13
-0.2122573042399501
 23
0.9772138132449773
 33
0.0
 40
0.0
 40
0.0
 40
0.0
 40
0.0
 40
6.660809672235425
 40
8.756891936519529
 40
10.85282399629961
 40
12.94866980207721
 40
15.04442347118688
 40
17.14008199268606
 40
19.23564345094333
 40
21.33110704673837
 40
23.4264731060517
 40
25.52174306606968
 40
27.61691946643669
 40
29.71200591209069
 40
31.80700700294694
 40
31.80700700294694
 40
31.80700700294694
 40
31.80700700294694
 10
-861.2300759077998
 20
49.11206430809982
 30
0.0
 10
-862.9863618945126
 20
50.47039339952994
 30
0.0
 10
-866.4380883127408
 20
50.30417561492154
 30
0.0
 10
-868.9630321026617
 20
53.0046783097011
 30
0.0
 10
-870.458405133515
 20
54.45732402749987
 30
0.0
 10
-871.8417591841333
 20
56.03853564662628
 30
0.0
 10
-873.1466587336811
 20
57.6781702958655
 30
0.0
 10
-874.3592801251148
 20
59.38906359990562
 30
0.0
 10
-875.4788201814399
 20
61.16156459515808
 30
0.0
 10
-876.501327646342
 20
62.99181456323774
 30
0.0
 10
-877.4240475249376
 20
64.87419100263148
 30
0.0
 10
-878.2442661672542
 20
66.80334303538256
 30
0.0
 10
-878.9596373065496
 20
68.77369690994521
 30
0.0
 10
-879.5680781901674
 20
70.77949279335522
 30
0.0
 10
-879.9012988036251
 20
72.13667625048398
 30
0.0
 10
-880.0495252316
 20
72.8190975854
 30
0.0
 11
-861.2300759077998
 21
49.11206430809982
 31
0.0
 11
-867.4190480789
 21
51.5743821095
 31
0.0
 11
-868.9684813261999
 21
52.9860539803
 31
0.0
 11
-870.4397676714998
 21
54.4787856003
 31
0.0
 11
-871.828712868
 21
56.04830810180001
 31
0.0
 11
-873.1313075726999
 21
57.6900847239
 31
0.0
 11
-874.3437935363001
 21
59.3993718346
 31
0.0
 11
-875.4626730592001
 21
61.1712314336
 31
0.0
 11
-876.4847189920001
 21
63.000545456
 31
0.0
 11
-877.4069839499
 21
64.88203057949999
 31
0.0
 11
-878.2268087127
 21
66.8102534825
 31
0.0
 11
-878.9418298009
 21
68.7796465342
 31
0.0
 11
-879.5499861948
 21
70.78452384100001
 31
0.0
 11
-880.0495252316
 21
72.8190975854
 31
0.0
  0
SPLINE
  5
A62
330
212
100
AcDbEntity
  8
_SURFACE
  6
Continuous
 62
     7
100
AcDbSpline
210
0.0
220
0.0
230
1.0
 70
     8
 71
     3
 72
    28
 73
    24
 74
    22
 42
0.0000000001
 43
0.0000000001
 44
0.0000000001
 12
-0.1579989382708529
 22
0.9874392819334683
 32
0.0
 13
0.9997702583052731
 23
-0.0214343324647026
 33
0.0
 40
0.0
 40
0.0
 40
0.0
 40
0.0
 40
0.0213382228103925
 40
0.0714963350420426
 40
0.1570009732763372
 40
0.2816289653606876
 40
0.4489606158496179
 40
0.6626355103070822
 40
0.9295833216435994
 40
1.267410532396408
 40
1.700634537268618
 40
2.228952039869519
 40
2.824914774194723
 40
3.472942386623937
 40
4.176719268398825
 40
4.941600660832235
 40
5.76913694703958
 40
6.694194320221698
 40
7.755371355421422
 40
8.9745726970665
 40
10.36385638120454
 40
11.92509996551224
 40
13.64819875692976
 40
13.64819875692976
 40
13.64819875692976
 40
13.64819875692976
 10
-688.1682273414
 20
30.8367686042
 30
0.0
 10
-688.1693511469161
 20
30.84379200400321
 30
0.0
 10
-688.1458915452226
 20
30.86292094995942
 30
0.0
 10
-688.0977620699192
 20
30.87225140888474
 30
0.0
 10
-688.0107982864014
 20
30.88971111512321
 30
0.0
 10
-687.8863697911398
 20
30.90250032269525
 30
0.0
 10
-687.7180803152938
 20
30.91647652053131
 30
0.0
 10
-687.5025479352475
 20
30.92878069578463
 30
0.0
 10
-687.2299333614831
 20
30.94048185787503
 30
0.0
 10
-686.8841064141292
 20
30.951124411934
 30
0.0
 10
-686.4510716794081
 20
30.96039138596544
 30
0.0
 10
-685.9319500007171
 20
30.96748895687268
 30
0.0
 10
-685.3411942559651
 20
30.97197335045545
 30
0.0
 10
-684.6919392174653
 20
30.97377446628478
 30
0.0
 10
-683.9863761674376
 20
30.97297126074745
 30
0.0
 10
-683.2209843291318
 20
30.96958101300602
 30
0.0
 10
-682.3818471429041
 20
30.96348469384531
 30
0.0
 10
-681.4439677064134
 20
30.95429256708957
 30
0.0
 10
-680.3755672205825
 20
30.94129647538905
 30
0.0
 10
-679.1524725677155
 20
30.92366931460373
 30
0.0
 10
-677.7627525005598
 20
30.90065780852564
 30
0.0
 10
-676.2051458711765
 20
30.87166993345059
 30
0.0
 10
-675.1105953706269
 20
30.84917815145493
 30
0.0
 10
-674.5363610626999
 20
30.836866994
 30
0.0
 11
-688.1682273414
 21
30.8367686042
 31
0.0
 11
-688.1554853713001
 21
30.85388473550001
 31
0.0
 11
-688.1080868764999
 21
30.8702926273
 31
0.0
 11
-688.0240246492999
 21
30.8859318446
 31
0.0
 11
-687.9002773067999
 21
30.9007214232
 31
0.0
 11
-687.7335188527
 21
30.9145597483
 31
0.0
 11
-687.5202255056
 21
30.92732331380001
 31
0.0
 11
-687.2535328453999
 21
30.9389920315
 31
0.0
 11
-686.9158748844
 21
30.9496843511
 31
0.0
 11
-686.4827556294
 21
30.9592105962
 31
0.0
 11
-685.954490896
 21
30.9666775233
 31
0.0
 11
-685.3585467399
 21
30.9713832129
 31
0.0
 11
-684.7105220150999
 21
30.9733177719
 31
0.0
 11
-684.0067454748
 21
30.9726244868
 31
0.0
 11
-683.2418711934
 21
30.9693262837
 31
0.0
 11
-682.4143561951
 21
30.96339058
 31
0.0
 11
-681.4893425323999
 21
30.9543979443
 31
0.0
 11
-680.428243068
 21
30.9415672512
 31
0.0
 11
-679.2091671626
 21
30.9240787309
 31
0.0
 11
-677.8200725417999
 21
30.9011595364
 31
0.0
 11
-676.2590976664999
 21
30.8721945882
 31
0.0
 11
-674.5363610626999
 21
30.836866994
 31
0.0
  0
SPLINE
  5
A63
330
212
100
AcDbEntity
  8
_SURFACE
  6
Continuous
 62
     7
100
AcDbSpline
210
0.0
220
0.0
230
1.0
 70
     8
 71
     3
 72
    20
 73
    16
 74
    14
 42
0.0000000001
 43
0.0000000001
 44
0.0000000001
 12
0.9997700744301159
 22
-0.0214429073122231
 32
0.0
 13
0.9999999999998209
 23
0.0000005982590614
 33
0.0
 40
0.0
 40
0.0
 40
0.0
 40
0.0
 40
3.250095440253967
 40
6.224469742926737
 40
9.26952275198036
 40
12.46247018290925
 40
15.59869761236429
 40
18.58333716571249
 40
21.59863737203622
 40
24.98654786325737
 40
28.80007119553432
 40
33.01648588193856
 40
37.49217976428254
 40
42.03645055469896
 40
46.43924646039478
 40
46.43924646039478
 40
46.43924646039478
 40
46.43924646039478
 10
-674.5363610626999
 20
30.836866994
 30
0.0
 10
-673.4532450092973
 20
30.81363649557292
 30
0.0
 10
-671.3788783104928
 20
30.77009421477321
 30
0.0
 10
-668.2896553607538
 20
30.70827798698264
 30
0.0
 10
-665.2194178846209
 20
30.64991497052678
 30
0.0
 10
-662.0951745759096
 20
30.59401510834641
 30
0.0
 10
-658.9910006269122
 20
30.54224552169993
 30
0.0
 10
-655.9459728359875
 20
30.49528592310596
 30
0.0
 10
-652.817000197077
 20
30.45111831483542
 30
0.0
 10
-649.411692841094
 20
30.40806830819327
 30
0.0
 10
-645.605966563396
 20
30.3666351568663
 30
0.0
 10
-641.4375811732202
 20
30.32988071774783
 30
0.0
 10
-637.0255419000007
 20
30.30141533721748
 30
0.0
 10
-632.5513173698428
 20
30.28399867365079
 30
0.0
 10
-629.5689604099315
 20
30.28015061689581
 30
0.0
 10
-628.1013617746999
 20
30.2801514949
 30
0.0
 11
-674.5363610626999
 21
30.836866994
 31
0.0
 11
-671.2869801505
 21
30.7687196669
 31
0.0
 11
-668.3132006369
 21
30.7092394442
 31
0.0
 11
-665.2686968982
 21
30.651405086
 31
0.0
 11
-662.0762596468
 21
30.5943288865
 31
0.0
 11
-658.9404675537999
 21
30.5420752862
 31
0.0
 11
-655.9561822816
 21
30.49608966300001
 31
0.0
 11
-652.9411819004
 21
30.4535686609
 31
0.0
 11
-649.5535414508
 21
30.4107938931
 31
0.0
 11
-645.7402433621999
 21
30.3693464167
 31
0.0
 11
-641.5239918197999
 21
30.3322554618
 31
0.0
 11
-637.0483905879
 21
30.3034571725
 31
0.0
 11
-632.5041540348999
 21
30.2858172459
 31
0.0
 11
-628.1013617746999
 21
30.2801514949
 31
0.0
  0
SPLINE
  5
A64
330
212
100
AcDbEntity
  8
0
  6
Continuous
 62
     7
100
AcDbSpline
210
0.0
220
0.0
230
1.0
 70
     8
 71
     3
 72
   155
 73
   151
 74
   149
 42
0.0000000001
 43
0.0000000001
 44
0.0000000001
 12
0.8067724109916307
 22
0.5908623163332988
 32
0.0
 13
0.9999999971887445
 23
0.0000749834036251
 33
0.0
 40
0.0
 40
0.0
 40
0.0
 40
0.0
 40
0.0546817574560482
 40
0.1103488647985316
 40
0.167307672424479
 40
0.2268447492767358
 40
0.29127002312589
 40
0.3586651035986337
 40
0.4214864230504053
 40
0.4766241195693337
 40
0.5274671482871801
 40
0.5780956237383914
 40
0.6298279387183148
 40
0.6827691859083826
 40
0.7369601647334143
 40
0.7924894868357891
 40
0.849396328374631
 40
0.9077397099868456
 40
0.9676483007034962
 40
1.028609295607356
 40
1.091734865435735
 40
1.161485527293585
 40
1.242827616809607
 40
1.339291425816524
 40
1.446937477746601
 40
1.558042468916985
 40
1.672908916502646
 40
1.79270799107206
 40
1.916891780877619
 40
2.045522449232217
 40
2.180646869463173
 40
2.319528411033804
 40
2.454866208687178
 40
2.588870163340246
 40
2.728971542518172
 40
2.88115933836764
 40
3.0421528061181
 40
3.205679192226323
 40
3.366426131497604
 40
3.520344041314186
 40
3.664258416772622
 40
3.796104176595146
 40
3.914478020584022
 40
4.018878136601591
 40
4.110193852915845
 40
4.192243371611017
 40
4.27107067351193
 40
4.350710330984559
 40
4.431580635639196
 40
4.512901974822778
 40
4.596695980442143
 40
4.688815738094618
 40
4.795837341025678
 40
4.924535044052339
 40
5.078328435355177
 40
5.245701693502655
 40
5.418281464205904
 40
5.598392416891163
 40
5.783838098077185
 40
5.97238815709921
 40
6.16509896463152
 40
6.362678037242989
 40
6.564184671261555
 40
6.772435818409367
 40
6.999690374800592
 40
7.261082098261796
 40
7.572630330032533
 40
7.952475801997223
 40
8.405640426518793
 40
8.909227726115004
 40
9.451275822575679
 40
10.03965439145686
 40
10.67545583287945
 40
11.34547874988447
 40
12.0198514025579
 40
12.66044043261518
 40
13.260454247141
 40
13.85160596140829
 40
14.45181562826598
 40
15.06689564951303
 40
15.69624703905138
 40
16.32506605251055
 40
16.9420485029309
 40
17.55267405624833
 40
18.17096603138531
 40
18.7960135568156
 40
19.43225090373275
 40
20.13041090863898
 40
20.94197950063651
 40
21.85782686511672
 40
22.84416641878342
 40
23.90394624793464
 40
25.05669900431279
 40
26.30878989719154
 40
27.61295263870894
 40
28.92974197547446
 40
30.27056654938246
 40
31.63988894487165
 40
33.02530462313415
 40
34.4465814772614
 40
36.00179625485345
 40
37.80077330867076
 40
39.9345462598938
 40
42.4847333884284
 40
45.45151785276125
 40
48.74574043190037
 40
52.25448898324436
 40
55.75426992023619
 40
58.99839333121295
 40
62.35424775980212
 40
65.85844600908881
 40
69.35802779851508
 40
72.94483498891693
 40
76.61120784483618
 40
80.31873016933296
 40
84.05559644384485
 40
87.84513474297794
 40
91.73299691686672
 40
95.71367742570343
 40
99.74640138968736
 40
103.8313532607112
 40
108.0325602597727
 40
112.2235203950256
 40
116.4936585463314
 40
121.3119527459536
 40
126.166077188672
 40
130.5775053912124
 40
134.5740884581837
 40
138.2426628981314
 40
141.6483444538974
 40
144.8042795874928
 40
147.6010812878075
 40
149.9908276333555
 40
152.3087352226155
 40
154.6711144787378
 40
157.0280581602155
 40
159.3919533803002
 40
161.7674763773197
 40
164.1368626632066
 40
166.5307367559629
 40
169.1080628127133
 40
172.0524718095238
 40
175.6083545451582
 40
179.8873394107223
 40
184.2394526400207
 40
188.3329502037451
 40
192.3567701321411
 40
196.3118978734694
 40
200.172650599016
 40
203.972777449235
 40
203.972777449235
 40
203.972777449235
 40
203.972777449235
 10
-842.2304497663001
 20
42.44892435119999
 30
0.0
 10
-842.2157445218667
 20
42.45969414782388
 30
0.0
 10
-842.185934486241
 20
42.48124490077383
 30
0.0
 10
-842.140298573104
 20
42.51330375403918
 30
0.0
 10
-842.0928591869341
 20
42.545600796018
 30
0.0
 10
-842.0424868452574
 20
42.57876512862816
 30
0.0
 10
-841.9886328318533
 20
42.6129525472748
 30
0.0
 10
-841.9332536809687
 20
42.64676204911594
 30
0.0
 10
-841.8799808998585
 20
42.67806207890908
 30
0.0
 10
-841.8310444297047
 20
42.70583681036947
 30
0.0
 10
-841.7853088581969
 20
42.73100741462546
 30
0.0
 10
-841.7402629591833
 20
42.75506851793184
 30
0.0
 10
-841.6942992719469
 20
42.77888730721312
 30
0.0
 10
-841.646987210616
 20
42.80267637948371
 30
0.0
 10
-841.5982580575303
 20
42.82645600750535
 30
0.0
 10
-841.548057689234
 20
42.85022615936338
 30
0.0
 10
-841.4963259497671
 20
42.87398749077715
 30
0.0
 10
-841.4429902030205
 20
42.89774464253979
 30
0.0
 10
-841.3881504123388
 20
42.92143707909912
 30
0.0
 10
-841.3315852075932
 20
42.9451457474928
 30
0.0
 10
-841.2717319050331
 20
42.96948711078117
 30
0.0
 10
-841.2052922167683
 20
42.99565617730363
 30
0.0
 10
-841.1281528298792
 20
43.02496896662144
 30
0.0
 10
-841.0387608122437
 20
43.05757733041876
 30
0.0
 10
-840.9395498855653
 20
43.09218929190573
 30
0.0
 10
-840.834051520258
 20
43.12736843794138
 30
0.0
 10
-840.7242412764698
 20
43.16239099897923
 30
0.0
 10
-840.6098256133599
 20
43.19728940794438
 30
0.0
 10
-840.4905820756916
 20
43.23205298549586
 30
0.0
 10
-840.3660081458808
 20
43.26675102504959
 30
0.0
 10
-840.2363060800349
 20
43.30126268699515
 30
0.0
 10
-840.1040730083758
 20
43.33492454454803
 30
0.0
 10
-839.9718801006823
 20
43.36720163749938
 30
0.0
 10
-839.8390114906089
 20
43.39840179932386
 30
0.0
 10
-839.7004082566519
 20
43.42972847786412
 30
0.0
 10
-839.5527569857708
 20
43.46180810310508
 30
0.0
 10
-839.3971981169233
 20
43.49424349406155
 30
0.0
 10
-839.2385798783287
 20
43.52595607649276
 30
0.0
 10
-839.0820413386858
 20
43.55601534347258
 30
0.0
 10
-838.9317297604572
 20
43.5838155233755
 30
0.0
 10
-838.7907393002732
 20
43.60902636708243
 30
0.0
 10
-838.6612969860447
 20
43.63149833654293
 30
0.0
 10
-838.5447458285433
 20
43.65121370599296
 30
0.0
 10
-838.441451974487
 20
43.66829559313862
 30
0.0
 10
-838.3500573270175
 20
43.68311662539158
 30
0.0
 10
-838.2670411233512
 20
43.69634957502372
 30
0.0
 10
-838.1878377854173
 20
43.70877609749821
 30
0.0
 10
-838.1089936768089
 20
43.72095481759865
 30
0.0
 10
-838.0292993237826
 20
43.73307355959291
 30
0.0
 10
-837.9482077968985
 20
43.74521404113729
 30
0.0
 10
-837.8633792960155
 20
43.75771798797166
 30
0.0
 10
-837.7700440426997
 20
43.77125536046816
 30
0.0
 10
-837.6618572114622
 20
43.78667245251086
 30
0.0
 10
-837.533267100342
 20
43.80462871564441
 30
0.0
 10
-837.3846871288801
 20
43.82488993699239
 30
0.0
 10
-837.2215380780417
 20
43.84656434686148
 30
0.0
 10
-837.0496140920195
 20
43.86879276836483
 30
0.0
 10
-836.8716364499388
 20
43.89117231422594
 30
0.0
 10
-836.6882984564352
 20
43.91358275787912
 30
0.0
 10
-836.5007152120361
 20
43.93586934748117
 30
0.0
 10
-836.3090425341423
 20
43.95800799308513
 30
0.0
 10
-836.1130097654381
 20
43.98002965262845
 30
0.0
 10
-835.9117634131056
 20
44.00203522496066
 30
0.0
 10
-835.7006203036878
 20
44.02452722730034
 30
0.0
 10
-835.4695605677909
 20
44.04849447728235
 30
0.0
 10
-835.2041740775016
 20
44.075251030139
 30
0.0
 10
-834.888082962505
 20
44.10612873568034
 30
0.0
 10
-834.5082458750868
 20
44.14192660137985
 30
0.0
 10
-834.0645275739671
 20
44.18210358866271
 30
0.0
 10
-833.5667975391837
 20
44.22530214817292
 30
0.0
 10
-833.0239989195961
 20
44.2704432446341
 30
0.0
 10
-832.4371168390117
 20
44.31722671881622
 30
0.0
 10
-831.8075504896489
 20
44.36533856395495
 30
0.0
 10
-831.1492525110139
 20
44.41362645171757
 30
0.0
 10
-830.4892304319311
 20
44.46018688026138
 30
0.0
 10
-829.8523783437994
 20
44.50353591818028
 30
0.0
 10
-829.2431167188844
 20
44.54371800791856
 30
0.0
 10
-828.6472141389076
 20
44.58191257445267
 30
0.0
 10
-828.0462352847301
 20
44.61940807070948
 30
0.0
 10
-827.4324879572793
 20
44.65672254150883
 30
0.0
 10
-826.8091664405638
 20
44.69369419664325
 30
0.0
 10
-826.1851617053153
 20
44.72984676711254
 30
0.0
 10
-825.5673439342906
 20
44.76486064604027
 30
0.0
 10
-824.9529896436879
 20
44.79896407375657
 30
0.0
 10
-824.3359141411362
 20
44.83254340326276
 30
0.0
 10
-823.710278796625
 20
44.86593351839885
 30
0.0
 10
-823.0580240585734
 20
44.90008880665881
 30
0.0
 10
-822.3436439658884
 20
44.93678745655834
 30
0.0
 10
-821.5361401722821
 20
44.97742090312456
 30
0.0
 10
-820.6326476584298
 20
45.02187273358527
 30
0.0
 10
-819.6464631644786
 20
45.06926253154496
 30
0.0
 10
-818.5813432419463
 20
45.11922185474715
 30
0.0
 10
-817.4276748568312
 20
45.17199458385199
 30
0.0
 10
-816.1925644022549
 20
45.22702441467724
 30
0.0
 10
-814.9027616479783
 20
45.28294955488105
 30
0.0
 10
-813.5833431113871
 20
45.33862084878974
 30
0.0
 10
-812.2421605917198
 20
45.39368429564847
 30
0.0
 10
-810.8780610348416
 20
45.44818353456532
 30
0.0
 10
-809.4871077042922
 20
45.50228874407713
 30
0.0
 10
-808.0341799904928
 20
45.55731536749513
 30
0.0
 10
-806.4434357930281
 20
45.6159153878724
 30
0.0
 10
-804.6152802846238
 20
45.68123325754843
 30
0.0
 10
-802.4555855548415
 20
45.75574300987067
 30
0.0
 10
-799.9067346941192
 20
45.8401800000919
 30
0.0
 10
-796.971136129714
 20
45.93300941351396
 30
0.0
 10
-793.7160177208848
 20
46.03078651880806
 30
0.0
 10
-790.2831549865983
 20
46.12846443661198
 30
0.0
 10
-786.8668425120139
 20
46.22050776266812
 30
0.0
 10
-783.5013571131199
 20
46.30662928834481
 30
0.0
 10
-780.134295719925
 20
46.38862064986965
 30
0.0
 10
-776.6820081353688
 20
46.46853095000087
 30
0.0
 10
-773.1526657977505
 20
46.54618192844901
 30
0.0
 10
-769.5691955672124
 20
46.62116312505248
 30
0.0
 10
-765.916350641006
 20
46.6938513452406
 30
0.0
 10
-762.2134257092481
 20
46.76391486389856
 30
0.0
 10
-758.469388781586
 20
46.8312741734374
 30
0.0
 10
-754.6651890879833
 20
46.8963384236839
 30
0.0
 10
-750.7796745283632
 20
46.95947318166502
 30
0.0
 10
-746.8130563280539
 20
47.02061086392681
 30
0.0
 10
-742.7807007110933
 20
47.0795173897001
 30
0.0
 10
-738.6747995229264
 20
47.13636140308704
 30
0.0
 10
-734.5161168728715
 20
47.19088301812494
 30
0.0
 10
-730.295672982413
 20
47.24324964857871
 30
0.0
 10
-725.8695132822603
 20
47.29519284289812
 30
0.0
 10
-721.222277721953
 20
47.34654950139881
 30
0.0
 10
-716.5279137387376
 20
47.39519046627923
 30
0.0
 10
-712.1074108344726
 20
47.43820266766872
 30
0.0
 10
-708.082051764596
 20
47.47516256997563
 30
0.0
 10
-704.3919115542201
 20
47.5072614758073
 30
0.0
 10
-700.9819642249712
 20
47.53544606531664
 30
0.0
 10
-697.8625880465902
 20
47.56000699341804
 30
0.0
 10
-695.0818389903043
 20
47.580930761341
 30
0.0
 10
-692.5804190501776
 20
47.59900557183612
 30
0.0
 10
-690.223798382992
 20
47.61540922803273
 30
0.0
 10
-687.8781074951612
 20
47.63112527109791
 30
0.0
 10
-685.5170837194425
 20
47.64633185935304
 30
0.0
 10
-683.1516749060519
 20
47.66095165062374
 30
0.0
 10
-680.7821148825287
 20
47.67497660375259
 30
0.0
 10
-678.4025583952782
 20
47.6884246333156
 30
0.0
 10
-675.9557315758732
 20
47.70157864195931
 30
0.0
 10
-673.31722924437
 20
47.71499140570654
 30
0.0
 10
-670.2913907508185
 20
47.72937078753163
 30
0.0
 10
-666.6983324889744
 20
47.74501388182634
 30
0.0
 10
-662.6360355995172
 20
47.76069403746952
 30
0.0
 10
-658.3945264872632
 20
47.77466671355944
 30
0.0
 10
-654.2380647379254
 20
47.78597311750252
 30
0.0
 10
-650.2139254077632
 20
47.7946259414445
 30
0.0
 10
-646.2673632382492
 20
47.80081802176984
 30
0.0
 10
-642.3953624494844
 20
47.80461767475234
 30
0.0
 10
-639.8417359259119
 20
47.80559331105152
 30
0.0
 10
-638.5750269794
 20
47.80568829319999
 30
0.0
 11
-842.2304497663001
 21
42.44892435119999
 31
0.0
 11
-842.1861296016
 21
42.4809527386
 31
0.0
 11
-842.1405743371
 21
42.512945624
 31
0.0
 11
-842.0934896378
 21
42.54499771999999
 31
0.0
 11
-842.0437617539999
 21
42.5777360934
 31
0.0
 11
-841.9893714307001
 21
42.6122659159
 31
0.0
 11
-841.9318514713999
 21
42.6473878628
 31
0.0
 11
-841.8776891147999
 21
42.679214853
 31
0.0
 11
-841.8297382330001
 21
42.7064339366
 31
0.0
 11
-841.7851955138999
 21
42.73094841689999
 31
0.0
 11
-841.7405390057
 21
42.7548029511
 31
0.0
 11
-841.6946097548001
 21
42.77860917559999
 31
0.0
 11
-841.6473133522
 21
42.80239627199999
 31
0.0
 11
-841.5986134961
 21
42.8261657104
 31
0.0
 11
-841.5484276778999
 21
42.8499331096
 31
0.0
 11
-841.49671659
 21
42.8736892036
 31
0.0
 11
-841.4434235113999
 21
42.8974336335
 31
0.0
 11
-841.3884301619001
 21
42.9211985394
 31
0.0
 11
-841.33221012
 21
42.94476864309999
 31
0.0
 11
-841.2737365792999
 21
42.96855272609999
 31
0.0
 11
-841.2088404838
 21
42.9941193375
 31
0.0
 11
-841.132806883
 21
43.02302309289999
 31
0.0
 11
-841.0421905596001
 21
43.05609798339999
 31
0.0
 11
-840.9405598976
 21
43.09157869699999
 31
0.0
 11
-840.8351669264998
 21
43.1267445996
 31
0.0
 11
-840.7257369907
 21
43.1616643638
 31
0.0
 11
-840.6111542896001
 21
43.1966303884
 31
0.0
 11
-840.4919381807001
 21
43.23140297859999
 31
0.0
 11
-840.3680297678999
 21
43.2659363549
 31
0.0
 11
-840.2374560678
 21
43.3007087259
 31
0.0
 11
-840.1028728038999
 21
43.33499323649999
 31
0.0
 11
-839.9714015497
 21
43.3671122152
 31
0.0
 11
-839.8409491954
 21
43.3977592888
 31
0.0
 11
-839.7042975738001
 21
43.42865800659999
 31
0.0
 11
-839.5555823237
 21
43.4609829133
 31
0.0
 11
-839.3979808180999
 21
43.49385633859999
 31
0.0
 11
-839.2376311719999
 21
43.5259323413
 31
0.0
 11
-839.0797712329
 21
43.55626084459999
 31
0.0
 11
-838.9284226935
 21
43.5842669615
 31
0.0
 11
-838.7867573157
 21
43.60960997229999
 31
0.0
 11
-838.6568556239
 21
43.63216778359999
 31
0.0
 11
-838.5401404318999
 21
43.65191445159999
 31
0.0
 11
-838.4371395830999
 21
43.6689499842
 31
0.0
 11
-838.3470015690999
 21
43.68356841359999
 31
0.0
 11
-838.2659751108999
 21
43.6964849375
 31
0.0
 11
-838.1881005321
 21
43.70870350949999
 31
0.0
 11
-838.109394405
 21
43.72086165899999
 31
0.0
 11
-838.0294433491998
 21
43.73302039459999
 31
0.0
 11
-837.9490185000999
 21
43.7450621492
 31
0.0
 11
-837.8661204285
 21
43.7572828326
 31
0.0
 11
-837.7749548663
 21
43.77050743159999
 31
0.0
 11
-837.6690039594999
 21
43.7856080555
 31
0.0
 11
-837.5415433661
 21
43.8034096255
 31
0.0
 11
-837.3891609397999
 21
43.82419431609999
 31
0.0
 11
-837.2232459842999
 21
43.8462405195
 31
0.0
 11
-837.0520913346
 21
43.8683733716
 31
0.0
 11
-836.87338823
 21
43.89084904029999
 31
0.0
 11
-836.6893132221999
 21
43.91335442129999
 31
0.0
 11
-836.5020806512999
 21
43.9356050202
 31
0.0
 11
-836.3106433599
 21
43.95772331129999
 31
0.0
 11
-836.1143001669001
 21
43.97978777359999
 31
0.0
 11
-835.9139883838
 21
44.001699257
 31
0.0
 11
-835.7069095402
 21
44.023764905
 31
0.0
 11
-835.480868596
 21
44.0472196475
 31
0.0
 11
-835.2207964078999
 21
44.0734511185
 31
0.0
 11
-834.9107256401
 21
44.1037565582
 31
0.0
 11
-834.5325583244999
 21
44.1394225642
 31
0.0
 11
-834.0812431572999
 21
44.1803224025
 31
0.0
 11
-833.579545185
 21
44.2239035097
 31
0.0
 11
-833.0393652358999
 21
44.2688675116
 31
0.0
 11
-832.4528504979999
 21
44.3156628377
 31
0.0
 11
-831.8189010180999
 21
44.36415541289999
 31
0.0
 11
-831.150676248
 21
44.4132101368
 31
0.0
 11
-830.4779775221001
 21
44.46069591199999
 31
0.0
 11
-829.8388689848
 21
44.50422271959999
 31
0.0
 11
-829.2401570115
 21
44.5437265251
 31
0.0
 11
-828.6502168036999
 21
44.5815537706
 31
0.0
 11
-828.051172818
 21
44.6189429052
 31
0.0
 11
-827.4372273373
 21
44.65628429329999
 31
0.0
 11
-826.8089808674
 21
44.6935608888
 31
0.0
 11
-826.1812151743999
 21
44.7299420155
 31
0.0
 11
-825.5652216581999
 21
44.764860952
 31
0.0
 11
-824.9555351371
 21
44.7987122792
 31
0.0
 11
-824.3381569088001
 21
44.8323142098
 31
0.0
 11
-823.7139979758
 21
44.8656314036
 31
0.0
 11
-823.078631515
 21
44.8989093558
 31
0.0
 11
-822.3813913169999
 21
44.93473530649999
 31
0.0
 11
-821.5708487878998
 21
44.97553221859999
 31
0.0
 11
-820.656108508
 21
45.0205501634
 31
0.0
 11
-819.6709064306
 21
45.0679060692
 31
0.0
 11
-818.6122911131
 21
45.1175739243
 31
0.0
 11
-817.4607431288
 21
45.1702631755
 31
0.0
 11
-816.2098937796999
 21
45.22600821909999
 31
0.0
 11
-814.9069558103001
 21
45.2825157784
 31
0.0
 11
-813.5913374642999
 21
45.3380362709
 31
0.0
 11
-812.2516420174001
 21
45.39305124659999
 31
0.0
 11
-810.8834117794
 21
45.4477306633
 31
0.0
 11
-809.4990434513999
 21
45.50159098269999
 31
0.0
 11
-808.078785258
 21
45.5553920994
 31
0.0
 11
-806.5246251588
 21
45.6126580622
 31
0.0
 11
-804.7267959512
 21
45.67691209289999
 31
0.0
 11
-802.5942927501999
 21
45.75051307859999
 31
0.0
 11
-800.0455052408
 21
45.83499161119999
 31
0.0
 11
-797.0802048222999
 21
45.9288185042
 31
0.0
 11
-793.7874695746001
 21
46.02779824689999
 31
0.0
 11
-790.2801425383
 21
46.12766544369999
 31
0.0
 11
-786.7816327905
 21
46.22198485569999
 31
0.0
 11
-783.5385721882
 21
46.30501879729999
 31
0.0
 11
-780.1837133915999
 21
46.3867586331
 31
0.0
 11
-776.6804546463
 21
46.4678976113
 31
0.0
 11
-773.1817206010999
 21
46.54492216479999
 31
0.0
 11
-769.5956993028
 21
46.62000258339999
 31
0.0
 11
-765.9300528997
 21
46.69298454049999
 31
0.0
 11
-762.2231947266
 21
46.7631576918
 31
0.0
 11
-758.4869336617999
 21
46.8304095263
 31
0.0
 11
-754.6979500471
 21
46.89524538159999
 31
0.0
 11
-750.8106014288
 21
46.9584355941
 31
0.0
 11
-746.8303941373
 21
47.0198133598
 31
0.0
 11
-742.7981009085999
 21
47.07875305329999
 31
0.0
 11
-738.7135408857001
 21
47.1353322713
 31
0.0
 11
-734.5126952697999
 21
47.19043545029999
 31
0.0
 11
-730.3220580142999
 21
47.2424570621
 31
0.0
 11
-726.0522141743999
 21
47.2925910237
 31
0.0
 11
-721.2342145096
 21
47.3458660094
 31
0.0
 11
-716.3803508753
 21
47.3961842468
 31
0.0
 11
-711.9691316705999
 21
47.4391250695
 31
0.0
 11
-707.9727171652999
 21
47.4758308324
 31
0.0
 11
-704.3042815793
 21
47.50774905300001
 31
0.0
 11
-700.8987163991999
 21
47.5359033311
 31
0.0
 11
-697.7428791139
 21
47.5607548134
 31
0.0
 11
-694.9461566061
 21
47.581801553
 31
0.0
 11
-692.5564726627999
 21
47.5990713878
 31
0.0
 11
-690.2386212316001
 21
47.6152062951
 31
0.0
 11
-687.8762950061999
 21
47.63103520989999
 31
0.0
 11
-685.5194002073
 21
47.64621495220001
 31
0.0
 11
-683.155550135
 21
47.6608247854
 31
0.0
 11
-680.7800687347
 21
47.6748827439
 31
0.0
 11
-678.4107202701999
 21
47.6882702575
 31
0.0
 11
-676.016880759
 21
47.7011375256
 31
0.0
 11
-673.4395879898
 21
47.7142365574
 31
0.0
 11
-670.4952122217999
 21
47.7282250281
 31
0.0
 11
-666.9393631544998
 21
47.74369888229999
 31
0.0
 11
-662.6604101056999
 21
47.7601999699
 31
0.0
 11
-658.3083204406
 21
47.7745215468
 31
0.0
 11
-654.2148379876
 21
47.7856441004
 31
0.0
 11
-650.1910273306999
 21
47.7942820153
 31
0.0
 11
-646.2359044383999
 21
47.8004753205
 31
0.0
 11
-642.375153557
 21
47.804248858
 31
0.0
 11
-638.5750269794
 21
47.80568829319999
 31
0.0
  0
LINE
  5
A68
330
212
100
AcDbEntity
  8
0
  6
Continuous
 62
     7
100
AcDbLine
 10
-639.3109422403999
 20
428.4362161157999
 30
0.0
 11
-639.3108927549
 21
428.3490603728999
 31
0.0
  0
SPLINE
  5
A6A
330
212
100
AcDbEntity
  8
0
  6
Continuous
 62
     7
100
AcDbSpline
210
0.0
220
0.0
230
1.0
 70
     8
 71
     3
 72
    10
 73
     6
 74
     4
 42
0.0000000001
 43
0.0000000001
 44
0.0000000001
 12
0.9999989472970748
 22
-0.0014510012895891
 32
0.0
 13
0.9999999999999735
 23
0.0000002299999101
 33
0.0
 40
0.0
 40
0.0
 40
0.0
 40
0.0
 40
3.72003867016857
 40
7.439200535299708
 40
11.15739566612313
 40
11.15739566612313
 40
11.15739566612313
 40
11.15739566612313
 10
-639.2599891670999
 20
68.29838736149999
 30
0.0
 10
-638.0199775824089
 20
68.29658810119742
 30
0.0
 10
-635.5402457186869
 20
68.2936223019409
 30
0.0
 10
-631.8211146143328
 20
68.29101249360679
 30
0.0
 10
-629.3419955729412
 20
68.29044994873848
 30
0.0
 10
-628.102597196
 20
68.2904502338
 30
0.0
 11
-639.2599891670999
 21
68.29838736149999
 31
0.0
 11
-635.5399531692
 21
68.2939284516
 31
0.0
 11
-631.8207922282
 21
68.29130662279999
 31
0.0
 11
-628.102597196
 21
68.2904502338
 31
0.0
  0
SPLINE
  5
A6B
330
212
100
AcDbEntity
  8
0
  6
Continuous
 62
     7
100
AcDbSpline
210
0.0
220
0.0
230
1.0
 70
     8
 71
     3
 72
    16
 73
    12
 74
    10
 42
0.0000000001
 43
0.0000000001
 44
0.0000000001
 12
0.8331139110329077
 22
0.5531014475152388
 32
0.0
 13
0.961416801870418
 23
0.2750958616214671
 33
0.0
 40
0.0
 40
0.0
 40
0.0
 40
0.0
 40
0.0825704946243501
 40
0.1511972698158271
 40
0.2122055794272216
 40
0.270771716389578
 40
0.3263731393286915
 40
0.3786102934418293
 40
0.4297590192683204
 40
0.4816546568051538
 40
0.5348601650909944
 40
0.5348601650909944
 40
0.5348601650909944
 40
0.5348601650909944
 10
-880.0495251831
 20
72.8190975959
 30
0.0
 10
-880.0265949738625
 20
72.8343208825996
 30
0.0
 10
-879.9842742903434
 20
72.86170488152041
 30
0.0
 10
-879.92368337633
 20
72.89822843755023
 30
0.0
 10
-879.8688315883563
 20
72.92870277090782
 30
0.0
 10
-879.8166241380002
 20
72.95490099866324
 30
0.0
 10
-879.7660377477985
 20
72.97767660819421
 30
0.0
 10
-879.7172639090067
 20
72.99841581491638
 30
0.0
 10
-879.6690459670021
 20
73.01725916865132
 30
0.0
 10
-879.6199429265286
 20
73.03465494515664
 30
0.0
 10
-879.5864666648727
 20
73.04502773418504
 30
0.0
 10
-879.569415775
 20
73.0499066059
 30
0.0
 11
-880.0495251831
 21
72.8190975959
 31
0.0
 11
-879.9801177194
 21
72.8638244398
 31
0.0
 11
-879.9212928783999
 21
72.89916948689999
 31
0.0
 11
-879.867915121
 21
72.928713164
 31
0.0
 11
-879.8155612876
 21
72.95496327880001
 31
0.0
 11
-879.7649352667999
 21
72.9779529341
 31
0.0
 11
-879.7168312563
 21
72.9983177185
 31
0.0
 11
-879.6691829378
 21
73.01691422080001
 31
0.0
 11
-879.6202455341999
 21
73.034185229
 31
0.0
 11
-879.569415775
 21
73.0499066059
 31
0.0
  0
SPLINE
  5
A6C
330
212
100
AcDbEntity
  8
0
  6
Continuous
 62
     7
100
AcDbSpline
210
0.0
220
0.0
230
1.0
 70
     8
 71
     3
 72
   155
 73
   151
 74
   149
 42
0.0000000001
 43
0.0000000001
 44
0.0000000001
 12
0.9576079571034574
 22
0.2880746439590665
 32
0.0
 13
0.9999964017532661
 23
-0.0026826256765347
 33
0.0
 40
0.0
 40
0.0
 40
0.0
 40
0.0
 40
0.0504136368431384
 40
0.1022746813657353
 40
0.1559388353207608
 40
0.2126980285847202
 40
0.2748869078524223
 40
0.3407808560600944
 40
0.4029431710903872
 40
0.4581233624370228
 40
0.5095424438364941
 40
0.5613474656897891
 40
0.6147783726877036
 40
0.6698249994621916
 40
0.7265994708389104
 40
0.7852685223809857
 40
0.8459307539846621
 40
0.9085945897520833
 40
0.9733483760525047
 40
1.039649862877461
 40
1.108832595895499
 40
1.186048062116962
 40
1.27693735415871
 40
1.38556325028375
 40
1.507622785013875
 40
1.634501415560639
 40
1.766850156832297
 40
1.906386041075099
 40
2.052811816380111
 40
2.206145883507616
 40
2.368140998672719
 40
2.535088000195305
 40
2.698445826584146
 40
2.861031403977333
 40
3.032156731132158
 40
3.219639459145665
 40
3.420213485350235
 40
3.626109084483515
 40
3.82966641005926
 40
4.025310220820222
 40
4.20813875826326
 40
4.37577386921967
 40
4.52678336602165
 40
4.66053618567791
 40
4.778068956061895
 40
4.884191886713117
 40
4.986691476659508
 40
5.090768655592525
 40
5.196778935211153
 40
5.303548262477392
 40
5.413573657123282
 40
5.534315061463823
 40
5.674341586141269
 40
5.842894597428037
 40
6.044654116784128
 40
6.264989333779416
 40
6.493751039676456
 40
6.734073759953648
 40
6.983052441997959
 40
7.237490087545778
 40
7.49808661834767
 40
7.764762047393148
 40
8.035426396394729
 40
8.314069519140925
 40
8.617313463055378
 40
8.964917134841988
 40
9.37766159243686
 40
9.878297888029697
 40
10.47175749316623
 40
11.12734910074675
 40
11.82840823489702
 40
12.58416593057081
 40
13.39481643040092
 40
14.24269852990792
 40
15.09224526311013
 40
15.89549917394521
 40
16.64427662539714
 40
17.3784315629919
 40
18.12005192444186
 40
18.87522032102556
 40
19.64308125736453
 40
20.40632903639105
 40
21.15209662002378
 40
21.88775949733859
 40
22.63069339304289
 40
23.38012846813318
 40
24.14042370826735
 40
24.97146014853234
 40
25.93386603250142
 40
27.01605020060266
 40
28.17784823269129
 40
29.42289753693499
 40
30.77494968451614
 40
32.2425393221024
 40
33.77138231389397
 40
35.31670372203202
 40
36.89235734383354
 40
38.50027672163544
 40
40.12660555711307
 40
41.79525045556228
 40
43.62149899860772
 40
45.73445187596298
 40
48.24130698628081
 40
51.23838047022131
 40
54.72715513264187
 40
58.60350750731003
 40
62.73509398053298
 40
66.86038925610883
 40
70.68687862728973
 40
74.64679167127577
 40
78.78124300404623
 40
82.90720554343069
 40
87.130457901091
 40
91.4429245492707
 40
95.8011034170183
 40
100.1913691589497
 40
104.6402650540594
 40
109.2027124877633
 40
113.8719719020032
 40
118.5945505030414
 40
123.3685092528759
 40
128.2691356984751
 40
133.1499303240482
 40
138.114814284209
 40
143.707147753126
 40
149.3329997135504
 40
154.4396088620602
 40
159.0607359355765
 40
163.299287487664
 40
167.2313881884127
 40
170.8736611168084
 40
174.1007340454206
 40
176.8559667553479
 40
179.5273951824788
 40
182.2493944709779
 40
184.9660383066104
 40
187.6936089232198
 40
190.4392786559079
 40
193.185610170332
 40
195.9677276380751
 40
198.9707217960527
 40
202.4108777011733
 40
206.5795626967922
 40
211.6191705644811
 40
216.7704539078543
 40
221.6390559506674
 40
226.4479166616326
 40
231.1969068380725
 40
235.8550280028949
 40
240.4622044523461
 40
240.4622044523461
 40
240.4622044523461
 40
240.4622044523461
 10
-879.5694040704999
 20
73.0498631713
 30
0.0
 10
-879.5533119039042
 20
73.05470413479476
 30
0.0
 10
-879.5204499335413
 20
73.06381795131838
 30
0.0
 10
-879.4698808077269
 20
73.07588165056536
 30
0.0
 10
-879.4169026054301
 20
73.08685086557307
 30
0.0
 10
-879.3602727448361
 20
73.09705898994012
 30
0.0
 10
-879.2993975889556
 20
73.10661063879769
 30
0.0
 10
-879.236529068749
 20
73.11495077811101
 30
0.0
 10
-879.175853211856
 20
73.12198646941077
 30
0.0
 10
-879.1198527202977
 20
73.12734398595224
 30
0.0
 10
-879.0672213125443
 20
73.13162330094499
 30
0.0
 10
-879.0150818019254
 20
73.13456223553557
 30
0.0
 10
-878.9617062888329
 20
73.1369155651414
 30
0.0
 10
-878.9066682264676
 20
73.13917563164761
 30
0.0
 10
-878.8498655261921
 20
73.14096852864532
 30
0.0
 10
-878.7911752510456
 20
73.14220950565854
 30
0.0
 10
-878.7305109313324
 20
73.14270201122102
 30
0.0
 10
-878.6678173349677
 20
73.14271297369518
 30
0.0
 10
-878.6032448845061
 20
73.14236268888419
 30
0.0
 10
-878.5365026911081
 20
73.14162492936254
 30
0.0
 10
-878.4656139397608
 20
73.14026585857559
 30
0.0
 10
-878.3865628864615
 20
73.13752555027997
 30
0.0
 10
-878.2944128019094
 20
73.13335541809466
 30
0.0
 10
-878.1873651714844
 20
73.12779071766617
 30
0.0
 10
-878.0683681504765
 20
73.12104039960242
 30
0.0
 10
-877.9415125957878
 20
73.11321603157452
 30
0.0
 10
-877.808920084233
 20
73.10384340402919
 30
0.0
 10
-877.6699464910393
 20
73.09244113473647
 30
0.0
 10
-877.5241770477149
 20
73.07848052026603
 30
0.0
 10
-877.3711380246293
 20
73.06203967934206
 30
0.0
 10
-877.2113413916759
 20
73.04448043047187
 30
0.0
 10
-877.0481839307171
 20
73.02691618397401
 30
0.0
 10
-876.8848697544303
 20
73.00897314978357
 30
0.0
 10
-876.720220171895
 20
72.99043438545883
 30
0.0
 10
-876.5476780511681
 20
72.97013540208418
 30
0.0
 10
-876.3626995849664
 20
72.94719270390321
 30
0.0
 10
-876.1664501391347
 20
72.92101430333048
 30
0.0
 10
-875.9651564160771
 20
72.89221554563496
 30
0.0
 10
-875.7654965637399
 20
72.86360969241346
 30
0.0
 10
-875.5735242597573
 20
72.8355615866719
 30
0.0
 10
-875.3932563044159
 20
72.81024936272418
 30
0.0
 10
-875.2276925640462
 20
72.78722080855759
 30
0.0
 10
-875.0783595582001
 20
72.76624303586181
 30
0.0
 10
-874.945604885535
 20
72.74730629059316
 30
0.0
 10
-874.8277065593235
 20
72.73017593299897
 30
0.0
 10
-874.7201642241927
 20
72.7142266227035
 30
0.0
 10
-874.6171106818634
 20
72.69858746195564
 30
0.0
 10
-874.5141494128036
 20
72.68259563408091
 30
0.0
 10
-874.4097976179231
 20
72.66628436291888
 30
0.0
 10
-874.3034879260141
 20
72.6496600141632
 30
0.0
 10
-874.1923068192466
 20
72.63240500562341
 30
0.0
 10
-874.0701165024445
 20
72.61380377543932
 30
0.0
 10
-873.9285617422622
 20
72.59278252203799
 30
0.0
 10
-873.7602969865218
 20
72.56777445874194
 30
0.0
 10
-873.5655328340024
 20
72.53897067977305
 30
0.0
 10
-873.3509120719231
 20
72.50724854114479
 30
0.0
 10
-873.1237230137214
 20
72.47265895409292
 30
0.0
 10
-872.8871785553788
 20
72.43608983662636
 30
0.0
 10
-872.6422710084799
 20
72.39760256468779
 30
0.0
 10
-872.3907477772474
 20
72.35768578444295
 30
0.0
 10
-872.1333735995862
 20
72.31700124942548
 30
0.0
 10
-871.8705135858092
 20
72.2763818994102
 30
0.0
 10
-871.6014681440004
 20
72.23642905625816
 30
0.0
 10
-871.3201813572171
 20
72.19595098961469
 30
0.0
 10
-871.0133695479829
 20
72.1528029367591
 30
0.0
 10
-870.6620743582424
 20
72.10500598468169
 30
0.0
 10
-870.2453407804943
 20
72.05014167563423
 30
0.0
 10
-869.7470001391915
 20
71.98732848031156
 30
0.0
 10
-869.1678566681867
 20
71.91838045265772
 30
0.0
 10
-868.5219469874555
 20
71.84521306334201
 30
0.0
 10
-867.8217770465515
 20
71.77053407969575
 30
0.0
 10
-867.0697266543447
 20
71.69507137052747
 30
0.0
 10
-866.2684850403202
 20
71.61979233789253
 30
0.0
 10
-865.4355942143892
 20
71.54740399028611
 30
0.0
 10
-864.6049068686979
 20
71.47822999705917
 30
0.0
 10
-863.8068618338573
 20
71.41522172013093
 30
0.0
 10
-863.046933891532
 20
71.35820453472584
 30
0.0
 10
-862.3072855536006
 20
71.30556471080061
 30
0.0
 10
-861.5653312240411
 20
71.25537559507543
 30
0.0
 10
-860.8119424149716
 20
71.20785699778062
 30
0.0
 10
-860.0511647164621
 20
71.16308147116235
 30
0.0
 10
-859.2933679853876
 20
71.12107697078656
 30
0.0
 10
-858.5461729835433
 20
71.08179469168089
 30
0.0
 10
-857.8056519857687
 20
71.04458277776342
 30
0.0
 10
-857.0638367425187
 20
71.00880359535892
 30
0.0
 10
-856.3137695274676
 20
70.97369394787204
 30
0.0
 10
-855.5342828508637
 20
70.93904411499474
 30
0.0
 10
-854.6837831188872
 20
70.90339124648015
 30
0.0
 10
-853.7259885533259
 20
70.86551808898935
 30
0.0
 10
-852.6579302711393
 20
70.82578894387893
 30
0.0
 10
-851.4956338260988
 20
70.78501826332291
 30
0.0
 10
-850.2433551222598
 20
70.74349010167231
 30
0.0
 10
-848.8891392070932
 20
70.70052420832354
 30
0.0
 10
-847.440327396602
 20
70.65602297660297
 30
0.0
 10
-845.9270915444527
 20
70.61057807432103
 30
0.0
 10
-844.3778348733586
 20
70.56458288942103
 30
0.0
 10
-842.8022380413322
 20
70.51756013679756
 30
0.0
 10
-841.1995855248024
 20
70.47196368680058
 30
0.0
 10
-839.5659181804683
 20
70.42657524482189
 30
0.0
 10
-837.8594739098826
 20
70.38020377685572
 30
0.0
 10
-835.9908515582221
 20
70.33053992570393
 30
0.0
 10
-833.8428885198114
 20
70.27481819019538
 30
0.0
 10
-831.3047344095647
 20
70.21082303250892
 30
0.0
 10
-828.3080595193881
 20
70.13765322959255
 30
0.0
 10
-824.8549596836065
 20
70.05591189716446
 30
0.0
 10
-821.0237193057908
 20
69.96845845998845
 30
0.0
 10
-816.9802808111805
 20
69.87973609766555
 30
0.0
 10
-812.9534042734499
 20
69.79392851034875
 30
0.0
 10
-808.9836796147913
 20
69.71218283890848
 30
0.0
 10
-805.0108460211401
 20
69.63321866090987
 30
0.0
 10
-800.9381465074115
 20
69.555406375271
 30
0.0
 10
-796.777612251976
 20
69.47971228011368
 30
0.0
 10
-792.5576728633793
 20
69.40726752383958
 30
0.0
 10
-788.2602772329635
 20
69.33722428144043
 30
0.0
 10
-783.9071655386487
 20
69.26956586441777
 30
0.0
 10
-779.5085362822857
 20
69.20426971577329
 30
0.0
 10
-775.0417772054996
 20
69.14126417014512
 30
0.0
 10
-770.4819885711066
 20
69.07992891141349
 30
0.0
 10
-765.8309467527654
 20
69.01992471521521
 30
0.0
 10
-761.1093566565009
 20
68.963030803864
 30
0.0
 10
-756.3106039601857
 20
68.90915670220476
 30
0.0
 10
-751.4590749463288
 20
68.85847540563441
 30
0.0
 10
-746.5438729049216
 20
68.81058040589033
 30
0.0
 10
-741.3980792889002
 20
68.76399862683948
 30
0.0
 10
-736.0039085435241
 20
68.71917872952377
 30
0.0
 10
-730.5624691958787
 20
68.67755338363894
 30
0.0
 10
-725.4447329514082
 20
68.64153062306527
 30
0.0
 10
-720.7894015516314
 20
68.61131671944271
 30
0.0
 10
-716.5255528593511
 20
68.58554652156849
 30
0.0
 10
-712.5879735058056
 20
68.56336557392213
 30
0.0
 10
-708.987541477039
 20
68.54435085315289
 30
0.0
 10
-705.7793887455455
 20
68.52829540870688
 30
0.0
 10
-702.8948423303075
 20
68.5147841566357
 30
0.0
 10
-700.1786490759443
 20
68.50269346398329
 30
0.0
 10
-697.4753159103447
 20
68.49129253922498
 30
0.0
 10
-694.7532667297849
 20
68.48032948861636
 30
0.0
 10
-692.0233260237035
 20
68.46969915763221
 30
0.0
 10
-689.2834881809811
 20
68.45937590127495
 30
0.0
 10
-686.525467976069
 20
68.44904014006973
 30
0.0
 10
-683.6816729020786
 20
68.43856061798305
 30
0.0
 10
-680.606603769983
 20
68.42745676487242
 30
0.0
 10
-677.0693474898753
 20
68.41495930534456
 30
0.0
 10
-672.853222770924
 20
68.40047570277954
 30
0.0
 10
-668.0667240153602
 20
68.38450187451866
 30
0.0
 10
-663.0469192133404
 20
68.36825457968976
 30
0.0
 10
-658.104027907153
 20
68.35282922122584
 30
0.0
 10
-653.2952322133815
 20
68.33829724106101
 30
0.0
 10
-648.5565950487938
 20
68.32446299877569
 30
0.0
 10
-643.8851844054902
 20
68.311271038211
 30
0.0
 10
-640.7967633593312
 20
68.3028438689132
 30
0.0
 10
-639.2610434020999
 20
68.29872409229999
 30
0.0
 11
-879.5694040704999
 21
73.0498631713
 31
0.0
 11
-879.5208410150999
 21
73.06339699670001
 31
0.0
 11
-879.4704103636998
 21
73.07549316710001
 31
0.0
 11
-879.4178706683998
 21
73.08642119699999
 31
0.0
 11
-879.3620199520999
 21
73.09653571670001
 31
0.0
 11
-879.3005838493
 21
73.1061825803
 31
0.0
 11
-879.2352730705999
 21
73.1149298425
 31
0.0
 11
-879.1735182136999
 21
73.12203554859999
 31
0.0
 11
-879.1185924385001
 21
73.1273282545
 31
0.0
 11
-879.0673349411001
 21
73.13140144640001
 31
0.0
 11
-879.0156183877
 21
73.1344277302
 31
0.0
 11
-878.962243115
 21
73.13686536979999
 31
0.0
 11
-878.9072405082
 21
73.1390663615
 31
0.0
 11
-878.8504941159001
 21
73.14085173569999
 31
0.0
 11
-878.7918377197
 21
73.1420702568
 31
0.0
 11
-878.7311779572998
 21
73.1426175855
 31
0.0
 11
-878.6685141329
 21
73.1426553302
 31
0.0
 11
-878.6037612917999
 21
73.1423054592
 31
0.0
 11
-878.5374641344999
 21
73.1415477725
 31
0.0
 11
-878.4682955531
 21
73.14014852449999
 31
0.0
 11
-878.3911235345
 21
73.1375585884
 31
0.0
 11
-878.3003235617
 21
73.1335301461
 31
0.0
 11
-878.1918414647
 21
73.1279426655
 31
0.0
 11
-878.0699776564999
 21
73.12103308739999
 31
0.0
 11
-877.9433445892999
 21
73.1131430189
 31
0.0
 11
-877.8113281311
 21
73.10377050159999
 31
0.0
 11
-877.6722627736999
 21
73.09232107529999
 31
0.0
 11
-877.5264977345001
 21
73.0784264353
 31
0.0
 11
-877.3740153072999
 21
73.0622881102
 31
0.0
 11
-877.2129757292999
 21
73.04471905629999
 31
0.0
 11
-877.0470010828999
 21
73.02672688939999
 31
0.0
 11
-876.8846219549001
 21
73.0088719676
 31
0.0
 11
-876.7230638764001
 21
72.9906221115
 31
0.0
 11
-876.5531136149
 21
72.9706024659
 31
0.0
 11
-876.3670654524
 21
72.94745393390001
 31
0.0
 11
-876.1682517703
 21
72.9209386591
 31
0.0
 11
-875.9643860455
 21
72.89209834020001
 31
0.0
 11
-875.7628989922
 21
72.86314057529999
 31
0.0
 11
-875.569270705
 21
72.8351300936
 31
0.0
 11
-875.3882354216999
 21
72.8095860081
 31
0.0
 11
-875.2222090267999
 21
72.7864177837
 31
0.0
 11
-875.0726712057
 21
72.76538665949999
 31
0.0
 11
-874.9402611590999
 21
72.7464817309
 31
0.0
 11
-874.8239516001
 21
72.7295690552
 31
0.0
 11
-874.7189785065
 21
72.713989388
 31
0.0
 11
-874.6176395658999
 21
72.69860806629999
 31
0.0
 11
-874.5147887264
 21
72.6826780949
 31
0.0
 11
-874.4100477708
 21
72.6663223129
 31
0.0
 11
-874.3045571344
 21
72.6498476391
 31
0.0
 11
-874.1958288417999
 21
72.63300288159999
 31
0.0
 11
-874.0764615948
 21
72.61483843649999
 31
0.0
 11
-873.9379678214
 21
72.59417682129999
 31
0.0
 11
-873.7712428742998
 21
72.5694198096
 31
0.0
 11
-873.5716576660999
 21
72.5398791881
 31
0.0
 11
-873.3537139192
 21
72.5075043362
 31
0.0
 11
-873.1275457917
 21
72.4731547192
 31
0.0
 11
-872.8900450938999
 21
72.4364337657
 31
0.0
 11
-872.6440783261001
 21
72.3978237508
 31
0.0
 11
-872.392771354
 21
72.3580327814
 31
0.0
 11
-872.1353519224001
 21
72.3174644674
 31
0.0
 11
-871.8717886380998
 21
72.2768420644
 31
0.0
 11
-871.6040701183999
 21
72.2370176494
 31
0.0
 11
-871.3282779348
 21
72.1972601178
 31
0.0
 11
-871.0279830551
 21
72.155071556
 31
0.0
 11
-870.6835593683001
 21
72.1081606126
 31
0.0
 11
-870.2743434598
 21
72.0543059238
 31
0.0
 11
-869.7776345842999
 21
71.9917200351
 31
0.0
 11
-869.1883605677
 21
71.92136069819999
 31
0.0
 11
-868.5369309607999
 21
71.8476055412
 31
0.0
 11
-867.8398349953999
 21
71.77316681069999
 31
0.0
 11
-867.0878582559
 21
71.6976639775
 31
0.0
 11
-866.2807586367998
 21
71.6218719085
 31
0.0
 11
-865.4361041956001
 21
71.5479602746
 31
0.0
 11
-864.5894784504999
 21
71.477572068
 31
0.0
 11
-863.7887178991
 21
71.41433138020001
 31
0.0
 11
-863.0420381249999
 21
71.35832257060001
 31
0.0
 11
-862.3097381165999
 21
71.3061673207
 31
0.0
 11
-861.5698004866001
 21
71.25623672659999
 31
0.0
 11
-860.8161331096999
 21
71.20864689369999
 31
0.0
 11
-860.0496047489
 21
71.1634286491
 31
0.0
 11
-859.2875304787
 21
71.121120507
 31
0.0
 11
-858.5427945438999
 21
71.0819072922
 31
0.0
 11
-857.8080605663998
 21
71.04494986579999
 31
0.0
 11
-857.0659929605
 21
71.00908286620001
 31
0.0
 11
-856.3173722667999
 21
70.97415452899999
 31
0.0
 11
-855.5578268214
 21
70.94039703289999
 31
0.0
 11
-854.7275221550998
 21
70.9055297679
 31
0.0
 11
-853.7658699672
 21
70.8674488671
 31
0.0
 11
-852.6844366366001
 21
70.8271434685
 31
0.0
 11
-851.5233550534
 21
70.7863485605
 31
0.0
 11
-850.278993961
 21
70.7449572363
 31
0.0
 11
-848.9276255514999
 21
70.7019638463
 31
0.0
 11
-847.4607306027001
 21
70.6568135026
 31
0.0
 11
-845.9325793040999
 21
70.6108297866
 31
0.0
 11
-844.3879422946
 21
70.56484323060001
 31
0.0
 11
-842.8129779336
 21
70.51824282850001
 31
0.0
 11
-841.2057145956
 21
70.47231584479999
 31
0.0
 11
-839.5800136101
 21
70.4271297092
 31
0.0
 11
-837.9119848258
 21
70.3817890887
 31
0.0
 11
-836.0863812244
 21
70.33325836100001
 31
0.0
 11
-833.9741391123
 21
70.2784576147
 31
0.0
 11
-831.4680811227999
 21
70.21524450380001
 31
0.0
 11
-828.4719028286
 21
70.1419976779
 31
0.0
 11
-824.9841052443999
 21
70.05943463050001
 31
0.0
 11
-821.1087628528
 21
69.9709525393
 31
0.0
 11
-816.9781748317999
 21
69.880126406
 31
0.0
 11
-812.8538141925
 21
69.792317365
 31
0.0
 11
-809.0281356694001
 21
69.71354715709999
 31
0.0
 11
-805.0690042597999
 21
69.63487189129999
 31
0.0
 11
-800.9353056601
 21
69.55598139830001
 31
0.0
 11
-796.8100245114999
 21
69.48099925770001
 31
0.0
 11
-792.5873965053
 21
69.40838247079999
 31
0.0
 11
-788.275504025
 21
69.33801323039999
 31
0.0
 11
-783.9178522007999
 21
69.2702369637
 31
0.0
 11
-779.5280697388999
 21
69.2050969455
 31
0.0
 11
-775.0796173889
 21
69.1422767632
 31
0.0
 11
-770.5175838738999
 21
69.08082114239999
 31
0.0
 11
-765.8487100838999
 21
69.020812722
 31
0.0
 11
-761.1264746534
 21
68.963881343
 31
0.0
 11
-756.35281724
 21
68.9102432538
 31
0.0
 11
-751.4524589125999
 21
68.8589809637
 31
0.0
 11
-746.5718961051
 21
68.81141144539999
 31
0.0
 11
-741.6072155472
 21
68.7664704188
 31
0.0
 11
-736.0150761225
 21
68.7198841302
 31
0.0
 11
-730.3893889102
 21
68.6768298624
 31
0.0
 11
-725.2829062917999
 21
68.64088179399999
 31
0.0
 11
-720.6618768200999
 21
68.6108476257
 31
0.0
 11
-716.4234026835999
 21
68.5852301722
 31
0.0
 11
-712.4913644792999
 21
68.563060807
 31
0.0
 11
-708.8491424885001
 21
68.54379802789999
 31
0.0
 11
-705.6221097405
 21
68.5276943042
 31
0.0
 11
-702.866907382
 21
68.51476180369999
 31
0.0
 11
-700.1955054155001
 21
68.5028716959
 31
0.0
 11
-697.4735304219
 21
68.4913712261
 31
0.0
 11
-694.7569087219999
 21
68.4804044895
 31
0.0
 11
-692.0293587986
 21
68.46977980350001
 31
0.0
 11
-689.2837087389
 21
68.4593860232
 31
0.0
 11
-686.5373964373999
 21
68.4491132559
 31
0.0
 11
-683.7552978451
 21
68.4388649856
 31
0.0
 11
-680.7523232726
 21
68.42801925989999
 31
0.0
 11
-677.3121888278
 21
68.4158679951
 31
0.0
 11
-673.1435284737
 21
68.4015346475
 31
0.0
 11
-668.1039486915
 21
68.3847096984
 31
0.0
 11
-662.9526922814
 21
68.3680519339
 31
0.0
 11
-658.0841139794
 21
68.3528477049
 31
0.0
 11
-653.2752752139999
 21
68.33831959939999
 31
0.0
 11
-648.5263052884
 21
68.32445086949999
 31
0.0
 11
-643.8682026944999
 21
68.3112975099
 31
0.0
 11
-639.2610434020999
 21
68.29872409229999
 31
0.0
  0
SPLINE
  5
A6D
330
212
100
AcDbEntity
  8
0
  6
Continuous
 62
     7
100
AcDbSpline
210
0.0
220
0.0
230
1.0
 70
     8
 71
     3
 72
     9
 73
     5
 74
     3
 42
0.0000000001
 43
0.0000000001
 44
0.0000000001
 12
0.2013522135916587
 22
-0.9795189054233405
 32
0.0
 13
0.2013828092270228
 23
-0.9795126156144354
 33
0.0
 40
0.0
 40
0.0
 40
0.0
 40
0.0
 40
100.6030000012671
 40
169.4744540182951
 40
169.4744540182951
 40
169.4744540182951
 40
169.4744540182951
 10
-952.6060403048999
 20
428.3490532393
 30
0.0
 10
-945.8538280568276
 20
395.5015397581182
 30
0.0
 10
-934.4791479123063
 20
340.1670614178673
 30
0.0
 10
-923.1025744976996
 20
284.8329723010295
 30
0.0
 10
-918.4793988692
 20
262.3461529459
 30
0.0
 11
-952.6060403048999
 21
428.3490532393
 31
0.0
 11
-932.3487427508
 21
329.8066486357
 31
0.0
 11
-918.4793988692
 21
262.3461529459
 31
0.0
  0
LINE
  5
A6E
330
212
100
AcDbEntity
  8
0
  6
Continuous
 62
     7
100
AcDbLine
 10
-918.4793988692
 20
262.3461529459
 30
0.0
 11
-918.4754799388999
 21
262.327091529
 31
0.0
  0
SPLINE
  5
A6F
330
212
100
AcDbEntity
  8
0
  6
Continuous
 62
     7
100
AcDbSpline
210
0.0
220
0.0
230
1.0
 70
     8
 71
     3
 72
     9
 73
     5
 74
     3
 42
0.0000000001
 43
0.0000000001
 44
0.0000000001
 12
0.2013828076297
 22
-0.9795126159428367
 32
0.0
 13
0.2012789463609559
 23
-0.9795339635519656
 33
0.0
 40
0.0
 40
0.0
 40
0.0
 40
0.0
 40
59.24921573847558
 40
193.2344481073391
 40
193.2344481073391
 40
193.2344481073391
 40
193.2344481073391
 10
-918.4754799388999
 20
262.327091529
 30
0.0
 10
-914.4982221338093
 20
242.9819734288148
 30
0.0
 10
-901.5270136479843
 20
179.8900812926551
 30
0.0
 10
-888.558872870211
 20
116.7975584112013
 30
0.0
 10
-879.5694040704999
 20
73.0498631713
 30
0.0
 11
-918.4754799388999
 21
262.327091529
 31
0.0
 11
-906.5440910549
 21
204.2916581721
 31
0.0
 11
-879.5694040704999
 21
73.0498631713
 31
0.0
  0
SPLINE
  5
A74
330
212
100
AcDbEntity
  8
0
  6
Continuous
 62
     7
100
AcDbSpline
210
0.0
220
0.0
230
1.0
 70
     8
 71
     3
 72
    20
 73
    16
 74
    14
 42
0.0000000001
 43
0.0000000001
 44
0.0000000001
 12
0.7910236471852825
 22
0.6117855748493044
 32
0.0
 13
0.2122573042399501
 23
0.9772138132449773
 33
0.0
 40
0.0
 40
0.0
 40
0.0
 40
0.0
 40
2.096433954973378
 40
4.192516219257566
 40
6.28844827910887
 40
8.384294084811511
 40
10.48004775392118
 40
12.57570627542036
 40
14.67126773367763
 40
16.7667313294727
 40
18.86209738878597
 40
20.95736734880398
 40
23.05254374917101
 40
25.14763019482501
 40
27.24263128568126
 40
27.24263128568126
 40
27.24263128568126
 40
27.24263128568126
 10
-390.4094251198
 20
50.2477317249
 30
0.0
 10
-389.8566488420846
 20
50.67525440899233
 30
0.0
 10
-388.773935085303
 20
51.56011402665154
 30
0.0
 10
-387.2237447530846
 20
52.97247907387855
 30
0.0
 10
-385.7517238546373
 20
54.46595114390541
 30
0.0
 10
-384.3621130722143
 20
56.03622416734131
 30
0.0
 10
-383.0588898994707
 20
57.67878961309821
 30
0.0
 10
-381.8458193546834
 20
59.38889766581422
 30
0.0
 10
-380.7263996403069
 20
61.16160905396188
 30
0.0
 10
-379.7038599321153
 20
62.99180265134888
 30
0.0
 10
-378.7811486925377
 20
64.87419419427059
 30
0.0
 10
-377.9609277353495
 20
66.80334217994945
 30
0.0
 10
-377.2455572170752
 20
68.7736971402391
 30
0.0
 10
-376.637116164099
 20
70.77949272756104
 30
0.0
 10
-376.3038955882749
 20
72.13667625048398
 30
0.0
 10
-376.1556691603
 20
72.8190975854
 30
0.0
 11
-390.4094251198
 21
50.2477317249
 31
0.0
 11
-388.786146313
 21
51.5743821095
 31
0.0
 11
-387.2367130657
 21
52.9860539803
 31
0.0
 11
-385.7654267204
 21
54.4787856004
 31
0.0
 11
-384.3764815239
 21
56.04830810180001
 31
0.0
 11
-383.0738868192
 21
57.6900847239
 31
0.0
 11
-381.8614008556
 21
59.3993718346
 31
0.0
 11
-380.7425213327
 21
61.1712314336
 31
0.0
 11
-379.7204753998999
 21
63.000545456
 31
0.0
 11
-378.798210442
 21
64.88203057949999
 31
0.0
 11
-377.9783856792
 21
66.8102534825
 31
0.0
 11
-377.263364591
 21
68.7796465342
 31
0.0
 11
-376.6552081971
 21
70.78452384100001
 31
0.0
 11
-376.1556691603
 21
72.8190975854
 31
0.0
  0
SPLINE
  5
A78
330
212
100
AcDbEntity
  8
0
  6
Continuous
 62
     7
100
AcDbSpline
210
0.0
220
0.0
230
1.0
 70
     8
 71
     3
 72
     9
 73
     5
 74
     3
 42
0.0000000001
 43
0.0000000001
 44
0.0000000001
 12
-0.2013522135911439
 22
-0.9795189054234462
 32
0.0
 13
-0.2013828092270791
 23
-0.9795126156144238
 33
0.0
 40
0.0
 40
0.0
 40
0.0
 40
0.0
 40
100.6030000012671
 40
169.4744539909366
 40
169.4744539909366
 40
169.4744539909366
 40
169.4744539909366
 10
-303.599154087
 20
428.3490532393
 30
0.0
 10
-310.351366335055
 20
395.5015397581147
 30
0.0
 10
-321.7260464777572
 20
340.1670614268
 30
0.0
 10
-333.1026198905357
 20
284.8329723188965
 30
0.0
 10
-337.7257955172
 20
262.3461529727
 30
0.0
 11
-303.599154087
 21
428.3490532393
 31
0.0
 11
-323.8564516411
 21
329.8066486357
 31
0.0
 11
-337.7257955172
 21
262.3461529727
 31
0.0
  0
LINE
  5
A79
330
212
100
AcDbEntity
  8
0
  6
Continuous
 62
     7
100
AcDbLine
 10
-337.7257955172
 20
262.3461529727
 30
0.0
 11
-337.7297144531
 21
262.327091529
 31
0.0
  0
SPLINE
  5
A7A
330
212
100
AcDbEntity
  8
0
  6
Continuous
 62
     7
100
AcDbSpline
210
0.0
220
0.0
230
1.0
 70
     8
 71
     3
 72
     9
 73
     5
 74
     3
 42
0.0000000001
 43
0.0000000001
 44
0.0000000001
 12
-0.2013828076297
 22
-0.9795126159428367
 32
0.0
 13
-0.2012789463609559
 23
-0.9795339635519656
 33
0.0
 40
0.0
 40
0.0
 40
0.0
 40
0.0
 40
59.24921573845544
 40
193.234448107319
 40
193.234448107319
 40
193.234448107319
 40
193.234448107319
 10
-337.7297144531
 20
262.327091529
 30
0.0
 10
-341.7069722581894
 20
242.9819734288213
 30
0.0
 10
-354.6781807438084
 20
179.8900812926263
 30
0.0
 10
-367.6463215216891
 20
116.7975584112013
 30
0.0
 10
-376.6357903214
 20
73.0498631713
 30
0.0
 11
-337.7297144531
 21
262.327091529
 31
0.0
 11
-349.661103337
 21
204.2916581721
 31
0.0
 11
-376.6357903214
 21
73.0498631713
 31
0.0
  0
SPLINE
  5
A7B
330
212
100
AcDbEntity
  8
0
  6
Continuous
 62
     7
100
AcDbSpline
210
0.0
220
0.0
230
1.0
 70
     8
 71
     3
 72
   155
 73
   151
 74
   149
 42
0.0000000001
 43
0.0000000001
 44
0.0000000001
 12
-0.9576079571039853
 22
0.2880746439573116
 32
0.0
 13
-0.9999964017532661
 23
-0.0026826256765336
 33
0.0
 40
0.0
 40
0.0
 40
0.0
 40
0.0
 40
0.0504136368430289
 40
0.1022746813656258
 40
0.1559388353206513
 40
0.2126980285847225
 40
0.2748869079511458
 40
0.3407808560597152
 40
0.4029431710899515
 40
0.4581233624367003
 40
0.5095424438362281
 40
0.5613474656894098
 40
0.614778372687381
 40
0.6698249994619258
 40
0.726599470838531
 40
0.7852685223806062
 40
0.8459307539842258
 40
0.9085945897517607
 40
0.9733483760521252
 40
1.039649862877025
 40
1.108832595895119
 40
1.186048062116639
 40
1.276937354158331
 40
1.385563250283428
 40
1.507622785013552
 40
1.63450141556026
 40
1.766850156831975
 40
1.906386041074663
 40
2.052811816479325
 40
2.206145883507285
 40
2.368140998672444
 40
2.535088000194973
 40
2.69844582658387
 40
2.86103140397717
 40
3.032156731131995
 40
3.219639459145502
 40
3.420213485350017
 40
3.626109084483353
 40
3.829666410158068
 40
4.025310220820016
 40
4.208138758262941
 40
4.375773869219351
 40
4.526783366021556
 40
4.660536185677704
 40
4.778068956061576
 40
4.884191886712854
 40
4.986691476659189
 40
5.090768655592262
 40
5.196778935210946
 40
5.303548262477241
 40
5.413573657122962
 40
5.534315061463559
 40
5.674341586141061
 40
5.842894597427718
 40
6.044654116783921
 40
6.264989333779152
 40
6.493751039676136
 40
6.734073760052198
 40
6.983052442096565
 40
7.23749008754557
 40
7.498086618446399
 40
7.764762047392832
 40
8.035426396394413
 40
8.314069519140666
 40
8.617313463055118
 40
8.964917134841842
 40
9.3776615924366
 40
9.878297888029381
 40
10.47175749316597
 40
11.12734910074649
 40
11.8284082348967
 40
12.58416593067004
 40
13.39481643040054
 40
14.24269852990765
 40
15.0922452631098
 40
15.89549917394489
 40
16.64427662539688
 40
17.37843156299158
 40
18.12005192444154
 40
18.87522032112508
 40
19.6430812573643
 40
20.40632903639071
 40
21.15209662002344
 40
21.88775949733825
 40
22.6306933930426
 40
23.38012846813278
 40
24.14042370826706
 40
24.97146014853193
 40
25.93386603250119
 40
27.01605020060237
 40
28.17784823269094
 40
29.4228975369347
 40
30.77494968451573
 40
32.24253932210216
 40
33.77138231389368
 40
35.31670372203179
 40
36.89235734383325
 40
38.50027672163503
 40
40.12660555721273
 40
41.79525045556198
 40
43.62149899860742
 40
45.73445187606263
 40
48.24130698628052
 40
51.23838047022107
 40
54.72715513264152
 40
58.60350750730967
 40
62.73509398053263
 40
66.86038925610848
 40
70.68687862728949
 40
74.64679167127542
 40
78.78124300404587
 40
82.90720554343034
 40
87.13045790109076
 40
91.44292454927045
 40
95.80110341701795
 40
100.1913691590492
 40
104.6402650540591
 40
109.202712487763
 40
113.8719719020029
 40
118.5945505030411
 40
123.3685092528757
 40
128.2691356984747
 40
133.1499303240479
 40
138.1148142842087
 40
143.7071477531257
 40
149.3329997135501
 40
154.4396088620598
 40
159.0607359355761
 40
163.2992874876637
 40
167.2313881884123
 40
170.8736611168081
 40
174.1007340454204
 40
176.8559667554477
 40
179.5273951824786
 40
182.2493944709777
 40
184.96603830661
 40
187.6936089233195
 40
190.4392786559077
 40
193.1856101703316
 40
195.9677276380748
 40
198.9707217960524
 40
202.410877701173
 40
206.5795626967919
 40
211.6191705644808
 40
216.770453907854
 40
221.6390559506672
 40
226.4479166617322
 40
231.1969068380721
 40
235.8550280028945
 40
240.4622044523458
 40
240.4622044523458
 40
240.4622044523458
 40
240.4622044523458
 10
-376.6357903214
 20
73.0498631713
 30
0.0
 10
-376.6518824879958
 20
73.05470413479472
 30
0.0
 10
-376.6847444583587
 20
73.0638179513183
 30
0.0
 10
-376.735313584173
 20
73.07588165056571
 30
0.0
 10
-376.78829178647
 20
73.08685086557168
 30
0.0
 10
-376.8449216470953
 20
73.09705898995182
 30
0.0
 10
-376.9057968029806
 20
73.10661063877756
 30
0.0
 10
-376.9686653231829
 20
73.11495077812122
 30
0.0
 10
-377.0293411800443
 20
73.12198646940931
 30
0.0
 10
-377.0853416716022
 20
73.12734398595257
 30
0.0
 10
-377.1379730793559
 20
73.13162330094489
 30
0.0
 10
-377.1901125899744
 20
73.13456223553561
 30
0.0
 10
-377.2434881030673
 20
73.13691556514138
 30
0.0
 10
-377.2985261654323
 20
73.13917563164763
 30
0.0
 10
-377.355328865708
 20
73.14096852864532
 30
0.0
 10
-377.4140191408542
 20
73.14220950565853
 30
0.0
 10
-377.4746834605673
 20
73.14270201122102
 30
0.0
 10
-377.5373770569324
 20
73.14271297369518
 30
0.0
 10
-377.6019495073937
 20
73.14236268888421
 30
0.0
 10
-377.6686917007917
 20
73.14162492936254
 30
0.0
 10
-377.7395804521393
 20
73.14026585857558
 30
0.0
 10
-377.8186315054382
 20
73.13752555028
 30
0.0
 10
-377.9107815899909
 20
73.13335541809465
 30
0.0
 10
-378.0178292204151
 20
73.12779071766613
 30
0.0
 10
-378.1368262414235
 20
73.12104039960249
 30
0.0
 10
-378.2636817961123
 20
73.11321603157425
 30
0.0
 10
-378.396274307667
 20
73.10384340403029
 30
0.0
 10
-378.5352479008931
 20
73.09244113472944
 30
0.0
 10
-378.6810173442197
 20
73.07848052027996
 30
0.0
 10
-378.834056367303
 20
73.06203967933339
 30
0.0
 10
-378.993853000224
 20
73.04448043047329
 30
0.0
 10
-379.1570104611827
 20
73.02691618397361
 30
0.0
 10
-379.3203246374698
 20
73.00897314978367
 30
0.0
 10
-379.484974220005
 20
72.99043438545878
 30
0.0
 10
-379.6575163407325
 20
72.97013540208431
 30
0.0
 10
-379.8424948069336
 20
72.94719270390277
 30
0.0
 10
-380.0387442527654
 20
72.92101430333227
 30
0.0
 10
-380.2400379758548
 20
72.89221554562347
 30
0.0
 10
-380.4396978281963
 20
72.86360969243334
 30
0.0
 10
-380.6316701321746
 20
72.83556158666126
 30
0.0
 10
-380.811938087484
 20
72.81024936272562
 30
0.0
 10
-380.9775018278537
 20
72.78722080855724
 30
0.0
 10
-381.1268348337001
 20
72.7662430358619
 30
0.0
 10
-381.2595895063648
 20
72.74730629059317
 30
0.0
 10
-381.3774878325764
 20
72.73017593299894
 30
0.0
 10
-381.4850301677071
 20
72.71422662270352
 30
0.0
 10
-381.5880837100367
 20
72.69858746195561
 30
0.0
 10
-381.6910449790959
 20
72.68259563408093
 30
0.0
 10
-381.795396773977
 20
72.66628436291887
 30
0.0
 10
-381.9017064658857
 20
72.64966001416325
 30
0.0
 10
-382.0128875726533
 20
72.63240500562337
 30
0.0
 10
-382.1350778894553
 20
72.61380377543935
 30
0.0
 10
-382.2766326496376
 20
72.59278252203799
 30
0.0
 10
-382.4448974053782
 20
72.56777445874198
 30
0.0
 10
-382.6396615578975
 20
72.53897067977281
 30
0.0
 10
-382.8542823199772
 20
72.507248541146
 30
0.0
 10
-383.0814713782104
 20
72.47265895408317
 30
0.0
 10
-383.3180158365894
 20
72.43608983663539
 30
0.0
 10
-383.5629233834883
 20
72.3976025646986
 30
0.0
 10
-383.8144466147157
 20
72.35768578442042
 30
0.0
 10
-384.0718207923505
 20
72.31700124944834
 30
0.0
 10
-384.3346808061224
 20
72.27638189939765
 30
0.0
 10
-384.6037262478997
 20
72.23642905626028
 30
0.0
 10
-384.8850130346831
 20
72.19595098961403
 30
0.0
 10
-385.191824843917
 20
72.15280293675931
 30
0.0
 10
-385.5431200336571
 20
72.10500598468164
 30
0.0
 10
-385.9598536114059
 20
72.05014167563425
 30
0.0
 10
-386.4581942527085
 20
71.98732848031163
 30
0.0
 10
-387.0373377237129
 20
71.91838045265746
 30
0.0
 10
-387.6832474044444
 20
71.84521306334301
 30
0.0
 10
-388.383417345381
 20
71.77053407968817
 30
0.0
 10
-389.1354677375899
 20
71.69507137054104
 30
0.0
 10
-389.9367093516119
 20
71.61979233788478
 30
0.0
 10
-390.7696001775108
 20
71.54740399028746
 30
0.0
 10
-391.600287523202
 20
71.47822999705882
 30
0.0
 10
-392.3983325580427
 20
71.41522172013108
 30
0.0
 10
-393.1582605003679
 20
71.35820453472561
 30
0.0
 10
-393.8979088382993
 20
71.30556471080135
 30
0.0
 10
-394.6398631678922
 20
71.25537559507046
 30
0.0
 10
-395.3932519769625
 20
71.2078569977891
 30
0.0
 10
-396.1540296754709
 20
71.16308147115771
 30
0.0
 10
-396.9118264065124
 20
71.12107697078727
 30
0.0
 10
-397.6590214083566
 20
71.0817946916807
 30
0.0
 10
-398.3995424061313
 20
71.04458277776349
 30
0.0
 10
-399.1413576493814
 20
71.0088035953589
 30
0.0
 10
-399.8914248644325
 20
70.97369394787204
 30
0.0
 10
-400.6709115410359
 20
70.93904411499477
 30
0.0
 10
-401.5214112730127
 20
70.90339124648014
 30
0.0
 10
-402.4792058385737
 20
70.86551808898936
 30
0.0
 10
-403.547264120761
 20
70.82578894387895
 30
0.0
 10
-404.7095605658011
 20
70.78501826332288
 30
0.0
 10
-405.9618392696402
 20
70.74349010167231
 30
0.0
 10
-407.3160551848066
 20
70.70052420832356
 30
0.0
 10
-408.7648669952978
 20
70.65602297660295
 30
0.0
 10
-410.2781028474472
 20
70.61057807432106
 30
0.0
 10
-411.8273595185417
 20
70.56458288942096
 30
0.0
 10
-413.4029563505674
 20
70.51756013679785
 30
0.0
 10
-415.0056088671308
 20
70.47196368679841
 30
0.0
 10
-416.6392762114652
 20
70.42657524482567
 30
0.0
 10
-418.3457204820509
 20
70.38020377685362
 30
0.0
 10
-420.214342833711
 20
70.33053992570256
 30
0.0
 10
-422.3623058721223
 20
70.27481819019884
 30
0.0
 10
-424.9004599823683
 20
70.21082303250659
 30
0.0
 10
-427.8971348725121
 20
70.13765322959308
 30
0.0
 10
-431.3502347082934
 20
70.0559118971643
 30
0.0
 10
-435.1814750861096
 20
69.96845845998851
 30
0.0
 10
-439.2249135807193
 20
69.87973609766555
 30
0.0
 10
-443.2517901184501
 20
69.79392851034873
 30
0.0
 10
-447.2215147771084
 20
69.71218283890848
 30
0.0
 10
-451.1943483707598
 20
69.63321866090987
 30
0.0
 10
-455.2670478844883
 20
69.55540637527102
 30
0.0
 10
-459.427582139924
 20
69.47971228011368
 30
0.0
 10
-463.6475215285204
 20
69.40726752383952
 30
0.0
 10
-467.9449171589363
 20
69.33722428144062
 30
0.0
 10
-472.2980288532847
 20
69.26956586441662
 30
0.0
 10
-476.6966581096477
 20
69.20426971577526
 30
0.0
 10
-481.1634171864336
 20
69.14126417014401
 30
0.0
 10
-485.7232058207935
 20
69.07992891141366
 30
0.0
 10
-490.3742476391344
 20
69.01992471521518
 30
0.0
 10
-495.095837735399
 20
68.963030803864
 30
0.0
 10
-499.8945904317142
 20
68.90915670220476
 30
0.0
 10
-504.7461194455707
 20
68.85847540563443
 30
0.0
 10
-509.6613214869785
 20
68.81058040589031
 30
0.0
 10
-514.8071151030001
 20
68.7639986268395
 30
0.0
 10
-520.2012858483754
 20
68.71917872952375
 30
0.0
 10
-525.6427251960213
 20
68.67755338363895
 30
0.0
 10
-530.7604614404915
 20
68.64153062306529
 30
0.0
 10
-535.4157928402685
 20
68.6113167194427
 30
0.0
 10
-539.6796415325487
 20
68.58554652156851
 30
0.0
 10
-543.6172208860941
 20
68.56336557392208
 30
0.0
 10
-547.2176529148613
 20
68.54435085315301
 30
0.0
 10
-550.4258056463874
 20
68.52829540870643
 30
0.0
 10
-553.3103520616259
 20
68.51478415663635
 30
0.0
 10
-556.0265453159887
 20
68.50269346398292
 30
0.0
 10
-558.7298784815555
 20
68.4912925392251
 30
0.0
 10
-561.4519276621483
 20
68.48032948861602
 30
0.0
 10
-564.1818683682297
 20
68.46969915763276
 30
0.0
 10
-566.921706210952
 20
68.45937590127462
 30
0.0
 10
-569.6797264158306
 20
68.4490401400698
 30
0.0
 10
-572.5235214898216
 20
68.43856061798303
 30
0.0
 10
-575.598590621917
 20
68.42745676487243
 30
0.0
 10
-579.1358469020245
 20
68.41495930534455
 30
0.0
 10
-583.3519716209759
 20
68.40047570277953
 30
0.0
 10
-588.1384703765398
 20
68.38450187451866
 30
0.0
 10
-593.1582751785596
 20
68.36825457968981
 30
0.0
 10
-598.1011664847803
 20
68.35282922122559
 30
0.0
 10
-602.9099621785515
 20
68.33829724106147
 30
0.0
 10
-607.6485993431396
 20
68.32446299877545
 30
0.0
 10
-612.3200099864098
 20
68.31127103821104
 30
0.0
 10
-615.4084310325688
 20
68.3028438689132
 30
0.0
 10
-616.9441509898
 20
68.29872409229999
 30
0.0
 11
-376.6357903214
 21
73.0498631713
 31
0.0
 11
-376.6843533768
 21
73.06339699670001
 31
0.0
 11
-376.7347840282
 21
73.07549316710001
 31
0.0
 11
-376.7873237235
 21
73.08642119699999
 31
0.0
 11
-376.8431744398
 21
73.09653571670001
 31
0.0
 11
-376.9046105427
 21
73.1061825803
 31
0.0
 11
-376.9699213213
 21
73.1149298425
 31
0.0
 11
-377.0316761782
 21
73.12203554859999
 31
0.0
 11
-377.0866019534
 21
73.1273282545
 31
0.0
 11
-377.1378594508
 21
73.13140144640001
 31
0.0
 11
-377.1895760042
 21
73.1344277302
 31
0.0
 11
-377.2429512769
 21
73.13686536979999
 31
0.0
 11
-377.2979538837
 21
73.1390663615
 31
0.0
 11
-377.3547002759999
 21
73.14085173569999
 31
0.0
 11
-377.4133566722
 21
73.1420702568
 31
0.0
 11
-377.4740164346
 21
73.1426175855
 31
0.0
 11
-377.536680259
 21
73.1426553302
 31
0.0
 11
-377.6014331001
 21
73.1423054592
 31
0.0
 11
-377.6677302574
 21
73.1415477725
 31
0.0
 11
-377.7368988387999
 21
73.14014852449999
 31
0.0
 11
-377.8140708574
 21
73.1375585884
 31
0.0
 11
-377.9048708302
 21
73.1335301461
 31
0.0
 11
-378.0133529272
 21
73.1279426655
 31
0.0
 11
-378.1352167354
 21
73.12103308739999
 31
0.0
 11
-378.2618498026
 21
73.1131430189
 31
0.0
 11
-378.3938662608
 21
73.10377050159999
 31
0.0
 11
-378.5329316182
 21
73.09232107529999
 31
0.0
 11
-378.6786966575
 21
73.0784264353
 31
0.0
 11
-378.8311790846
 21
73.0622881102
 31
0.0
 11
-378.9922186626
 21
73.04471905629999
 31
0.0
 11
-379.158193309
 21
73.02672688939999
 31
0.0
 11
-379.3205724369999
 21
73.0088719676
 31
0.0
 11
-379.4821305155001
 21
72.9906221115
 31
0.0
 11
-379.652080777
 21
72.9706024659
 31
0.0
 11
-379.8381289395
 21
72.94745393390001
 31
0.0
 11
-380.0369426216
 21
72.9209386591
 31
0.0
 11
-380.2408083464
 21
72.89209834020001
 31
0.0
 11
-380.4422953998001
 21
72.86314057529999
 31
0.0
 11
-380.6359236869
 21
72.8351300936
 31
0.0
 11
-380.8169589702
 21
72.8095860081
 31
0.0
 11
-380.9829853651
 21
72.7864177837
 31
0.0
 11
-381.1325231862
 21
72.76538665949999
 31
0.0
 11
-381.2649332328
 21
72.7464817309
 31
0.0
 11
-381.3812427918
 21
72.7295690552
 31
0.0
 11
-381.4862158854
 21
72.713989388
 31
0.0
 11
-381.587554826
 21
72.69860806629999
 31
0.0
 11
-381.6904056655
 21
72.6826780949
 31
0.0
 11
-381.7951466211
 21
72.6663223129
 31
0.0
 11
-381.9006372575
 21
72.6498476391
 31
0.0
 11
-382.0093655501
 21
72.63300288159999
 31
0.0
 11
-382.1287327971
 21
72.61483843649999
 31
0.0
 11
-382.2672265705
 21
72.59417682129999
 31
0.0
 11
-382.4339515176
 21
72.5694198096
 31
0.0
 11
-382.6335367258
 21
72.5398791881
 31
0.0
 11
-382.8514804727
 21
72.5075043362
 31
0.0
 11
-383.0776486002
 21
72.4731547192
 31
0.0
 11
-383.3151492981
 21
72.4364337657
 31
0.0
 11
-383.5611160658999
 21
72.3978237508
 31
0.0
 11
-383.8124230379
 21
72.3580327814
 31
0.0
 11
-384.0698424696
 21
72.3174644674
 31
0.0
 11
-384.3334057538
 21
72.2768420644
 31
0.0
 11
-384.6011242735
 21
72.2370176494
 31
0.0
 11
-384.8769164571
 21
72.1972601178
 31
0.0
 11
-385.1772113368
 21
72.155071556
 31
0.0
 11
-385.5216350236
 21
72.1081606126
 31
0.0
 11
-385.9308509321
 21
72.0543059238
 31
0.0
 11
-386.4275598076
 21
71.9917200351
 31
0.0
 11
-387.0168338242
 21
71.92136069819999
 31
0.0
 11
-387.6682634311
 21
71.8476055412
 31
0.0
 11
-388.3653593965
 21
71.77316681069999
 31
0.0
 11
-389.1173361361
 21
71.6976639775
 31
0.0
 11
-389.9244357551
 21
71.6218719085
 31
0.0
 11
-390.7690901963
 21
71.5479602746
 31
0.0
 11
-391.6157159414
 21
71.477572068
 31
0.0
 11
-392.4164764928
 21
71.41433138020001
 31
0.0
 11
-393.1631562669
 21
71.35832257060001
 31
0.0
 11
-393.8954562753
 21
71.3061673207
 31
0.0
 11
-394.6353939053
 21
71.25623672659999
 31
0.0
 11
-395.3890612823
 21
71.20864689369999
 31
0.0
 11
-396.1555896430001
 21
71.1634286491
 31
0.0
 11
-396.9176639132
 21
71.121120507
 31
0.0
 11
-397.662399848
 21
71.0819072922
 31
0.0
 11
-398.3971338255
 21
71.04494986579999
 31
0.0
 11
-399.1392014314
 21
71.00908286620001
 31
0.0
 11
-399.8878221251
 21
70.97415452899999
 31
0.0
 11
-400.6473675705
 21
70.94039703289999
 31
0.0
 11
-401.4776722368
 21
70.9055297679
 31
0.0
 11
-402.4393244247
 21
70.8674488671
 31
0.0
 11
-403.5207577552999
 21
70.8271434685
 31
0.0
 11
-404.6818393385
 21
70.7863485605
 31
0.0
 11
-405.9262004308999
 21
70.7449572363
 31
0.0
 11
-407.2775688404
 21
70.7019638463
 31
0.0
 11
-408.7444637892
 21
70.6568135026
 31
0.0
 11
-410.2726150877999
 21
70.6108297866
 31
0.0
 11
-411.8172520973
 21
70.56484323060001
 31
0.0
 11
-413.3922164583
 21
70.51824282850001
 31
0.0
 11
-414.9994797963
 21
70.47231584479999
 31
0.0
 11
-416.6251807819
 21
70.4271297092
 31
0.0
 11
-418.2932095661
 21
70.3817890887
 31
0.0
 11
-420.1188131674999
 21
70.33325836100001
 31
0.0
 11
-422.2310552797
 21
70.2784576147
 31
0.0
 11
-424.7371132691
 21
70.21524450380001
 31
0.0
 11
-427.7332915633
 21
70.1419976779
 31
0.0
 11
-431.2210891474999
 21
70.05943463050001
 31
0.0
 11
-435.0964315391
 21
69.9709525393
 31
0.0
 11
-439.2270195601
 21
69.880126406
 31
0.0
 11
-443.3513801994
 21
69.792317365
 31
0.0
 11
-447.1770587225
 21
69.71354715709999
 31
0.0
 11
-451.1361901321
 21
69.63487189129999
 31
0.0
 11
-455.2698887317999
 21
69.55598139830001
 31
0.0
 11
-459.3951698804
 21
69.48099925770001
 31
0.0
 11
-463.6177978866
 21
69.40838247079999
 31
0.0
 11
-467.9296903669
 21
69.33801323039999
 31
0.0
 11
-472.2873421911
 21
69.2702369637
 31
0.0
 11
-476.6771246530999
 21
69.2050969455
 31
0.0
 11
-481.125577003
 21
69.1422767632
 31
0.0
 11
-485.687610518
 21
69.08082114239999
 31
0.0
 11
-490.3564843079999
 21
69.020812722
 31
0.0
 11
-495.0787197384999
 21
68.963881343
 31
0.0
 11
-499.8523771519
 21
68.9102432538
 31
0.0
 11
-504.7527354792999
 21
68.8589809637
 31
0.0
 11
-509.6332982868
 21
68.81141144539999
 31
0.0
 11
-514.5979788447
 21
68.7664704188
 31
0.0
 11
-520.1901182694
 21
68.7198841302
 31
0.0
 11
-525.8158054816999
 21
68.6768298624
 31
0.0
 11
-530.9222881001
 21
68.64088179399999
 31
0.0
 11
-535.5433175717999
 21
68.6108476257
 31
0.0
 11
-539.7817917083
 21
68.5852301722
 31
0.0
 11
-543.7138299125999
 21
68.563060807
 31
0.0
 11
-547.3560519033999
 21
68.54379802789999
 31
0.0
 11
-550.5830846513999
 21
68.5276943042
 31
0.0
 11
-553.33828701
 21
68.51476180369999
 31
0.0
 11
-556.0096889763999
 21
68.5028716959
 31
0.0
 11
-558.73166397
 21
68.4913712261
 31
0.0
 11
-561.4482856698999
 21
68.4804044895
 31
0.0
 11
-564.1758355933999
 21
68.46977980350001
 31
0.0
 11
-566.921485653
 21
68.4593860232
 31
0.0
 11
-569.6677979544999
 21
68.4491132559
 31
0.0
 11
-572.4498965468
 21
68.4388649856
 31
0.0
 11
-575.4528711193
 21
68.42801925989999
 31
0.0
 11
-578.8930055640999
 21
68.4158679951
 31
0.0
 11
-583.0616659181999
 21
68.4015346475
 31
0.0
 11
-588.1012457004
 21
68.3847096984
 31
0.0
 11
-593.2525021105
 21
68.3680519339
 31
0.0
 11
-598.1210804124999
 21
68.3528477049
 31
0.0
 11
-602.9299191779999
 21
68.33831959939999
 31
0.0
 11
-607.6788891035
 21
68.32445086949999
 31
0.0
 11
-612.3369916974
 21
68.3112975099
 31
0.0
 11
-616.9441509898
 21
68.29872409229999
 31
0.0
  0
SPLINE
  5
A7C
330
212
100
AcDbEntity
  8
0
  6
Continuous
 62
     7
100
AcDbSpline
210
0.0
220
0.0
230
1.0
 70
     8
 71
     3
 72
    16
 73
    12
 74
    10
 42
0.0000000001
 43
0.0000000001
 44
0.0000000001
 12
-0.8331139108895586
 22
0.5531014477311596
 32
0.0
 13
-0.961416801870418
 23
0.2750958616214671
 33
0.0
 40
0.0
 40
0.0
 40
0.0
 40
0.0
 40
0.0825704946244456
 40
0.1511972698158739
 40
0.2122055794272684
 40
0.2707717163896249
 40
0.3263731393287384
 40
0.3786102934418762
 40
0.4297590192684202
 40
0.4816546568051465
 40
0.5348601651866184
 40
0.5348601651866184
 40
0.5348601651866184
 40
0.5348601651866184
 10
-376.1556692088
 20
72.8190975959
 30
0.0
 10
-376.1785994180335
 20
72.83432088260555
 30
0.0
 10
-376.2209201015581
 20
72.86170488151802
 30
0.0
 10
-376.2815110155696
 20
72.89822843755079
 30
0.0
 10
-376.3363628035437
 20
72.92870277090765
 30
0.0
 10
-376.3885702538997
 20
72.95490099866334
 30
0.0
 10
-376.4391566441017
 20
72.97767660819393
 30
0.0
 10
-376.4879304828928
 20
72.99841581491728
 30
0.0
 10
-376.5361484248989
 20
73.01725916864803
 30
0.0
 10
-376.5852514653976
 20
73.03465494517981
 30
0.0
 10
-376.6187277270967
 20
73.04502773417627
 30
0.0
 10
-376.635778617
 20
73.0499066059
 30
0.0
 11
-376.1556692088
 21
72.8190975959
 31
0.0
 11
-376.2250766725
 21
72.8638244398
 31
0.0
 11
-376.2839015135
 21
72.89916948689999
 31
0.0
 11
-376.3372792709
 21
72.928713164
 31
0.0
 11
-376.3896331043
 21
72.95496327880001
 31
0.0
 11
-376.4402591251
 21
72.9779529341
 31
0.0
 11
-376.4883631356
 21
72.9983177185
 31
0.0
 11
-376.5360114541
 21
73.01691422080001
 31
0.0
 11
-376.5849488576999
 21
73.034185229
 31
0.0
 11
-376.635778617
 21
73.0499066059
 31
0.0
  0
SPLINE
  5
A7D
330
212
100
AcDbEntity
  8
0
  6
Continuous
 62
     7
100
AcDbSpline
210
0.0
220
0.0
230
1.0
 70
     8
 71
     3
 72
   155
 73
   151
 74
   149
 42
0.0000000001
 43
0.0000000001
 44
0.0000000001
 12
-0.8067724109899819
 22
0.5908623163355504
 32
0.0
 13
-0.9999999971887445
 23
0.000074983403625
 33
0.0
 40
0.0
 40
0.0
 40
0.0
 40
0.0
 40
0.0546817574560482
 40
0.1103488647986246
 40
0.167307672424525
 40
0.2268447492766869
 40
0.2912700231260331
 40
0.3586651035987282
 40
0.4214864230504018
 40
0.476624119569429
 40
0.5274671482872755
 40
0.5780956237384868
 40
0.6298279387183597
 40
0.6827691859084782
 40
0.7369601647334588
 40
0.7924894868357307
 40
0.849396328374676
 40
0.9077397099868386
 40
0.9676483007035415
 40
1.028609295607401
 40
1.091734865435675
 40
1.161485527386659
 40
1.242827616809272
 40
1.339291425816189
 40
1.446937477746213
 40
1.558042468916543
 40
1.672908916502312
 40
1.792707991071781
 40
1.916891780877339
 40
2.045522449231718
 40
2.18064686946273
 40
2.31952841103347
 40
2.454866208686734
 40
2.588870163339803
 40
2.728971542517839
 40
2.88115933836714
 40
3.042152806117656
 40
3.205679192225879
 40
3.36642613149716
 40
3.520344041412116
 40
3.66425841677224
 40
3.796104176594651
 40
3.914478020583527
 40
4.01887813660104
 40
4.11019385291535
 40
4.192243371610411
 40
4.271070673511491
 40
4.350710330984064
 40
4.431580635638589
 40
4.51290197482217
 40
4.596695980441647
 40
4.688815738094122
 40
4.79583734102507
 40
4.924535044051787
 40
5.078328435354569
 40
5.24570169350216
 40
5.418281464205465
 40
5.598392416890725
 40
5.783838098076691
 40
5.972388157098715
 40
6.165098964631026
 40
6.362678037242551
 40
6.56418467126106
 40
6.772435818408871
 40
6.999690374800096
 40
7.261082098261186
 40
7.572630330031981
 40
7.95247580199667
 40
8.405640426518184
 40
8.909227726114563
 40
9.45127582257507
 40
10.0396543914563
 40
10.67545583287883
 40
11.34547874988403
 40
12.0198514026572
 40
12.66044043261461
 40
13.26045424714043
 40
13.85160596140778
 40
14.45181562826547
 40
15.06689564951246
 40
15.69624703905081
 40
16.32506605251003
 40
16.94204850293038
 40
17.55267405624782
 40
18.17096603138485
 40
18.79601355681509
 40
19.43225090373223
 40
20.13041090863836
 40
20.94197950063588
 40
21.85782686511615
 40
22.84416641878284
 40
23.903946248034
 40
25.05669900431222
 40
26.30878989719102
 40
27.61295263870847
 40
28.92974197547388
 40
30.27056654938194
 40
31.63988894487113
 40
33.02530462313363
 40
34.44658147726088
 40
36.00179625485293
 40
37.80077330867018
 40
39.93454625999321
 40
42.48473338842788
 40
45.45151785276067
 40
48.74574043189997
 40
52.25448898324378
 40
55.75426992023562
 40
58.99839333121249
 40
62.3542477598016
 40
65.85844600908828
 40
69.35802779851456
 40
72.94483498891641
 40
76.61120784483571
 40
80.31873016933245
 40
84.05559644384432
 40
87.84513474297753
 40
91.7329969168662
 40
95.71367742570291
 40
99.74640138968682
 40
103.8313532607107
 40
108.0325602597721
 40
112.223520395025
 40
116.4936585464308
 40
121.3119527459532
 40
126.1660771886714
 40
130.5775053912117
 40
134.5740884581832
 40
138.2426628981309
 40
141.6483444538967
 40
144.8042795874923
 40
147.601081287807
 40
149.990827633355
 40
152.308735222615
 40
154.6711144787372
 40
157.028058160215
 40
159.3919533802997
 40
161.7674763773192
 40
164.136862663206
 40
166.5307367559624
 40
169.1080628127129
 40
172.0524718095233
 40
175.6083545451576
 40
179.8873394107218
 40
184.2394526400202
 40
188.3329502037446
 40
192.3567701321406
 40
196.3118978734689
 40
200.1726505990154
 40
203.9727774492345
 40
203.9727774492345
 40
203.9727774492345
 40
203.9727774492345
 10
-413.9747446255999
 20
42.44892435119999
 30
0.0
 10
-413.9894498700333
 20
42.45969414782392
 30
0.0
 10
-414.0192599056587
 20
42.48124490077386
 30
0.0
 10
-414.0648958187959
 20
42.51330375403914
 30
0.0
 10
-414.1123352049659
 20
42.54560079601798
 30
0.0
 10
-414.1627075466427
 20
42.57876512862824
 30
0.0
 10
-414.2165615600465
 20
42.6129525472747
 30
0.0
 10
-414.2719407109312
 20
42.64676204911594
 30
0.0
 10
-414.3252134920415
 20
42.67806207890915
 30
0.0
 10
-414.3741499621953
 20
42.70583681036943
 30
0.0
 10
-414.4198855337029
 20
42.73100741462548
 30
0.0
 10
-414.4649314327168
 20
42.75506851793181
 30
0.0
 10
-414.510895119953
 20
42.77888730721314
 30
0.0
 10
-414.5582071812837
 20
42.8026763794837
 30
0.0
 10
-414.6069363343699
 20
42.82645600750531
 30
0.0
 10
-414.6571367026661
 20
42.85022615936341
 30
0.0
 10
-414.7088684421324
 20
42.87398749077718
 30
0.0
 10
-414.76220418888
 20
42.89774464253961
 30
0.0
 10
-414.817043979561
 20
42.92143707909995
 30
0.0
 10
-414.8736091843082
 20
42.94514574748951
 30
0.0
 10
-414.9334624868903
 20
42.96948711080602
 30
0.0
 10
-414.9999021751833
 20
42.99565617725621
 30
0.0
 10
-415.0770415620423
 20
43.02496896665226
 30
0.0
 10
-415.1664335796589
 20
43.05757733041223
 30
0.0
 10
-415.265644506334
 20
43.09218929190762
 30
0.0
 10
-415.3711428716424
 20
43.12736843794088
 30
0.0
 10
-415.4809531154302
 20
43.16239099897937
 30
0.0
 10
-415.5953687785403
 20
43.19728940794433
 30
0.0
 10
-415.7146123162084
 20
43.23205298549583
 30
0.0
 10
-415.839186246019
 20
43.26675102504963
 30
0.0
 10
-415.9688883118652
 20
43.30126268699516
 30
0.0
 10
-416.1011213835241
 20
43.33492454454798
 30
0.0
 10
-416.2333142912176
 20
43.36720163749942
 30
0.0
 10
-416.366182901291
 20
43.39840179932388
 30
0.0
 10
-416.5047861352479
 20
43.4297284778641
 30
0.0
 10
-416.6524374061292
 20
43.46180810310496
 30
0.0
 10
-416.8079962749762
 20
43.49424349406218
 30
0.0
 10
-416.9666145135717
 20
43.52595607649031
 30
0.0
 10
-417.1231530532445
 20
43.55601534348759
 30
0.0
 10
-417.2734646314808
 20
43.58381552335079
 30
0.0
 10
-417.4144550916574
 20
43.60902636709528
 30
0.0
 10
-417.5438974058557
 20
43.63149833654128
 30
0.0
 10
-417.6604485633565
 20
43.65121370599333
 30
0.0
 10
-417.7637424174129
 20
43.66829559313855
 30
0.0
 10
-417.8551370648821
 20
43.68311662539158
 30
0.0
 10
-417.9381532685489
 20
43.69634957502376
 30
0.0
 10
-418.0173566064823
 20
43.70877609749817
 30
0.0
 10
-418.0962007150911
 20
43.72095481759866
 30
0.0
 10
-418.1758950681172
 20
43.73307355959293
 30
0.0
 10
-418.2569865950013
 20
43.7452140411373
 30
0.0
 10
-418.3418150958842
 20
43.75771798797163
 30
0.0
 10
-418.4351503492002
 20
43.77125536046816
 30
0.0
 10
-418.5433371804377
 20
43.78667245251089
 30
0.0
 10
-418.6719272915578
 20
43.80462871564441
 30
0.0
 10
-418.82050726302
 20
43.82488993699239
 30
0.0
 10
-418.9836563138583
 20
43.84656434686147
 30
0.0
 10
-419.1555802998805
 20
43.86879276836483
 30
0.0
 10
-419.3335579419612
 20
43.89117231422594
 30
0.0
 10
-419.5168959354648
 20
43.91358275787914
 30
0.0
 10
-419.7044791798634
 20
43.93586934748117
 30
0.0
 10
-419.8961518577578
 20
43.95800799308513
 30
0.0
 10
-420.0921846264617
 20
43.98002965262843
 30
0.0
 10
-420.2934309787942
 20
44.00203522496067
 30
0.0
 10
-420.5045740882122
 20
44.02452722730035
 30
0.0
 10
-420.7356338241091
 20
44.04849447728235
 30
0.0
 10
-421.0010203143982
 20
44.07525103013901
 30
0.0
 10
-421.3171114293947
 20
44.10612873568035
 30
0.0
 10
-421.6969485168132
 20
44.14192660137986
 30
0.0
 10
-422.1406668179327
 20
44.18210358866271
 30
0.0
 10
-422.6383968527161
 20
44.22530214817292
 30
0.0
 10
-423.181195472304
 20
44.27044324463408
 30
0.0
 10
-423.7680775528883
 20
44.31722671881639
 30
0.0
 10
-424.397643902251
 20
44.36533856395413
 30
0.0
 10
-425.0559418809187
 20
44.41362645172326
 30
0.0
 10
-425.7159639600032
 20
44.46018688025168
 30
0.0
 10
-426.3528160481333
 20
44.50353591818538
 30
0.0
 10
-426.9620776730156
 20
44.54371800791782
 30
0.0
 10
-427.5579802529923
 20
44.58191257445287
 30
0.0
 10
-428.1589591071697
 20
44.61940807070943
 30
0.0
 10
-428.7727064346205
 20
44.65672254150885
 30
0.0
 10
-429.3960279513363
 20
44.69369419664326
 30
0.0
 10
-430.0200326865847
 20
44.72984676711254
 30
0.0
 10
-430.6378504576094
 20
44.76486064604025
 30
0.0
 10
-431.252204748212
 20
44.79896407375656
 30
0.0
 10
-431.8692802507639
 20
44.83254340326277
 30
0.0
 10
-432.4949155952747
 20
44.86593351839885
 30
0.0
 10
-433.1471703333268
 20
44.90008880665879
 30
0.0
 10
-433.8615504260113
 20
44.93678745655834
 30
0.0
 10
-434.6690542196179
 20
44.97742090312466
 30
0.0
 10
-435.57254673347
 20
45.02187273358481
 30
0.0
 10
-436.5587312274544
 20
45.06926253154847
 30
0.0
 10
-437.6238511499869
 20
45.11922185474069
 30
0.0
 10
-438.7775195351024
 20
45.1719945838559
 30
0.0
 10
-440.0126299896449
 20
45.22702441467654
 30
0.0
 10
-441.3024327439217
 20
45.28294955488123
 30
0.0
 10
-442.6218512805129
 20
45.33862084878968
 30
0.0
 10
-443.9630338001801
 20
45.39368429564848
 30
0.0
 10
-445.3271333570584
 20
45.44818353456531
 30
0.0
 10
-446.7180866876076
 20
45.50228874407713
 30
0.0
 10
-448.1710144014072
 20
45.55731536749518
 30
0.0
 10
-449.7617585988716
 20
45.61591538787214
 30
0.0
 10
-451.5899141073096
 20
45.68123325755085
 30
0.0
 10
-453.7496088370919
 20
45.75574300986585
 30
0.0
 10
-456.2984596978143
 20
45.84018000009497
 30
0.0
 10
-459.2340582621856
 20
45.9330094135133
 30
0.0
 10
-462.4891766710154
 20
46.03078651880825
 30
0.0
 10
-465.9220394053015
 20
46.12846443661192
 30
0.0
 10
-469.3383518798863
 20
46.22050776266812
 30
0.0
 10
-472.7038372787801
 20
46.30662928834479
 30
0.0
 10
-476.0708986719749
 20
46.38862064986965
 30
0.0
 10
-479.523186256531
 20
46.46853095000088
 30
0.0
 10
-483.0525285941496
 20
46.54618192844901
 30
0.0
 10
-486.6359988246874
 20
46.62116312505249
 30
0.0
 10
-490.288843750894
 20
46.6938513452406
 30
0.0
 10
-493.9917686826521
 20
46.76391486389856
 30
0.0
 10
-497.735805610314
 20
46.83127417343739
 30
0.0
 10
-501.5400053039167
 20
46.89633842368389
 30
0.0
 10
-505.4255198635367
 20
46.95947318166501
 30
0.0
 10
-509.3921380638459
 20
47.02061086392681
 30
0.0
 10
-513.4244936808072
 20
47.07951738970008
 30
0.0
 10
-517.5303948689735
 20
47.13636140308707
 30
0.0
 10
-521.6890775190282
 20
47.19088301812483
 30
0.0
 10
-525.9095214095204
 20
47.2432496485796
 30
0.0
 10
-530.3356811096731
 20
47.29519284289652
 30
0.0
 10
-534.9829166699801
 20
47.34654950139971
 30
0.0
 10
-539.6772806531625
 20
47.3951904662791
 30
0.0
 10
-544.0977835574273
 20
47.43820266766875
 30
0.0
 10
-548.1231426273041
 20
47.47516256997562
 30
0.0
 10
-551.8132828376799
 20
47.5072614758073
 30
0.0
 10
-555.2232301669288
 20
47.53544606531664
 30
0.0
 10
-558.3426063453098
 20
47.56000699341804
 30
0.0
 10
-561.1233554015956
 20
47.58093076134101
 30
0.0
 10
-563.6247753417221
 20
47.59900557183611
 30
0.0
 10
-565.9813960089084
 20
47.61540922803272
 30
0.0
 10
-568.3270868967384
 20
47.63112527109791
 30
0.0
 10
-570.6881106724578
 20
47.64633185935305
 30
0.0
 10
-573.0535194858481
 20
47.66095165062375
 30
0.0
 10
-575.4230795093713
 20
47.67497660375259
 30
0.0
 10
-577.8026359966218
 20
47.68842463331561
 30
0.0
 10
-580.2494628160268
 20
47.70157864195931
 30
0.0
 10
-582.8879651475299
 20
47.71499140570655
 30
0.0
 10
-585.9138036410816
 20
47.72937078753161
 30
0.0
 10
-589.5068619029253
 20
47.74501388182634
 30
0.0
 10
-593.5691587923823
 20
47.76069403746951
 30
0.0
 10
-597.8106679046368
 20
47.77466671355944
 30
0.0
 10
-601.9671296539745
 20
47.78597311750252
 30
0.0
 10
-605.9912689841369
 20
47.79462594144451
 30
0.0
 10
-609.9378311536509
 20
47.80081802176983
 30
0.0
 10
-613.8098319424155
 20
47.80461767475235
 30
0.0
 10
-616.363458465988
 20
47.80559331105152
 30
0.0
 10
-617.6301674124999
 20
47.80568829319999
 30
0.0
 11
-413.9747446255999
 21
42.44892435119999
 31
0.0
 11
-414.0190647903
 21
42.4809527386
 31
0.0
 11
-414.0646200548
 21
42.512945624
 31
0.0
 11
-414.1117047541
 21
42.54499771999999
 31
0.0
 11
-414.1614326378999
 21
42.5777360934
 31
0.0
 11
-414.2158229612
 21
42.6122659159
 31
0.0
 11
-414.2733429205
 21
42.6473878628
 31
0.0
 11
-414.3275052771
 21
42.679214853
 31
0.0
 11
-414.3754561589
 21
42.7064339366
 31
0.0
 11
-414.419998878
 21
42.73094841689999
 31
0.0
 11
-414.4646553862
 21
42.7548029511
 31
0.0
 11
-414.5105846370999
 21
42.77860917559999
 31
0.0
 11
-414.5578810397
 21
42.80239627199999
 31
0.0
 11
-414.6065808958
 21
42.8261657104
 31
0.0
 11
-414.656766714
 21
42.8499331096
 31
0.0
 11
-414.7084778018999
 21
42.8736892036
 31
0.0
 11
-414.7617708804999
 21
42.8974336335
 31
0.0
 11
-414.8167642299999
 21
42.9211985394
 31
0.0
 11
-414.8729842718999
 21
42.94476864309999
 31
0.0
 11
-414.9314578125999
 21
42.96855272609999
 31
0.0
 11
-414.9963539081999
 21
42.9941193375
 31
0.0
 11
-415.0723875089
 21
43.02302309289999
 31
0.0
 11
-415.1630038323
 21
43.05609798339999
 31
0.0
 11
-415.2646344943
 21
43.09157869699999
 31
0.0
 11
-415.3700274654
 21
43.1267445996
 31
0.0
 11
-415.4794574012
 21
43.1616643638
 31
0.0
 11
-415.5940401023
 21
43.1966303884
 31
0.0
 11
-415.7132562112
 21
43.23140297859999
 31
0.0
 11
-415.8371646239999
 21
43.2659363549
 31
0.0
 11
-415.9677383241
 21
43.3007087259
 31
0.0
 11
-416.102321588
 21
43.33499323649999
 31
0.0
 11
-416.2337928421999
 21
43.3671122152
 31
0.0
 11
-416.3642451964999
 21
43.3977592888
 31
0.0
 11
-416.5008968180999
 21
43.42865800659999
 31
0.0
 11
-416.6496120681999
 21
43.4609829133
 31
0.0
 11
-416.8072135737999
 21
43.49385633859999
 31
0.0
 11
-416.9675632199
 21
43.5259323413
 31
0.0
 11
-417.125423159
 21
43.55626084459999
 31
0.0
 11
-417.2767716984999
 21
43.5842669615
 31
0.0
 11
-417.4184370762
 21
43.60960997229999
 31
0.0
 11
-417.5483387679999
 21
43.63216778359999
 31
0.0
 11
-417.66505396
 21
43.65191445159999
 31
0.0
 11
-417.7680548087999
 21
43.6689499842
 31
0.0
 11
-417.8581928227999
 21
43.68356841359999
 31
0.0
 11
-417.9392192809999
 21
43.6964849375
 31
0.0
 11
-418.0170938598
 21
43.70870350949999
 31
0.0
 11
-418.0957999869
 21
43.72086165899999
 31
0.0
 11
-418.1757510426999
 21
43.73302039459999
 31
0.0
 11
-418.2561758918
 21
43.7450621492
 31
0.0
 11
-418.3390739633999
 21
43.7572828326
 31
0.0
 11
-418.4302395256
 21
43.77050743159999
 31
0.0
 11
-418.5361904324
 21
43.7856080555
 31
0.0
 11
-418.6636510258
 21
43.8034096255
 31
0.0
 11
-418.8160334521
 21
43.82419431609999
 31
0.0
 11
-418.9819484076
 21
43.8462405195
 31
0.0
 11
-419.1531030573
 21
43.8683733716
 31
0.0
 11
-419.3318061619
 21
43.89084904029999
 31
0.0
 11
-419.5158811697
 21
43.91335442129999
 31
0.0
 11
-419.7031137405999
 21
43.9356050202
 31
0.0
 11
-419.8945510319999
 21
43.95772331129999
 31
0.0
 11
-420.0908942249999
 21
43.97978777359999
 31
0.0
 11
-420.2912060080999
 21
44.001699257
 31
0.0
 11
-420.4982848516999
 21
44.023764905
 31
0.0
 11
-420.7243257959
 21
44.0472196475
 31
0.0
 11
-420.984397984
 21
44.0734511185
 31
0.0
 11
-421.2944687518
 21
44.1037565582
 31
0.0
 11
-421.6726360674
 21
44.1394225642
 31
0.0
 11
-422.1239512346
 21
44.1803224025
 31
0.0
 11
-422.6256492069
 21
44.2239035097
 31
0.0
 11
-423.1658291559999
 21
44.2688675116
 31
0.0
 11
-423.7523438939
 21
44.3156628377
 31
0.0
 11
-424.3862933737999
 21
44.36415541289999
 31
0.0
 11
-425.0545181438999
 21
44.4132101368
 31
0.0
 11
-425.7272168699
 21
44.46069591199999
 31
0.0
 11
-426.3663254070999
 21
44.50422271959999
 31
0.0
 11
-426.9650373804
 21
44.5437265251
 31
0.0
 11
-427.5549775882
 21
44.5815537706
 31
0.0
 11
-428.1540215738999
 21
44.6189429052
 31
0.0
 11
-428.7679670545999
 21
44.65628429329999
 31
0.0
 11
-429.3962135244999
 21
44.6935608888
 31
0.0
 11
-430.0239792175
 21
44.7299420155
 31
0.0
 11
-430.6399727337
 21
44.764860952
 31
0.0
 11
-431.2496592548
 21
44.7987122792
 31
0.0
 11
-431.8670374831
 21
44.8323142098
 31
0.0
 11
-432.4911964161
 21
44.8656314036
 31
0.0
 11
-433.1265628769
 21
44.8989093558
 31
0.0
 11
-433.8238030748999
 21
44.93473530649999
 31
0.0
 11
-434.634345604
 21
44.97553221859999
 31
0.0
 11
-435.5490858838999
 21
45.0205501634
 31
0.0
 11
-436.5342879613
 21
45.0679060692
 31
0.0
 11
-437.5929032789
 21
45.1175739243
 31
0.0
 11
-438.7444512630999
 21
45.1702631755
 31
0.0
 11
-439.9953006122
 21
45.22600821909999
 31
0.0
 11
-441.2982385816
 21
45.2825157784
 31
0.0
 11
-442.6138569276
 21
45.3380362709
 31
0.0
 11
-443.9535523744999
 21
45.39305124659999
 31
0.0
 11
-445.3217826124999
 21
45.4477306633
 31
0.0
 11
-446.7061509405
 21
45.50159098269999
 31
0.0
 11
-448.1264091338999
 21
45.5553920994
 31
0.0
 11
-449.6805692330999
 21
45.6126580622
 31
0.0
 11
-451.4783984406999
 21
45.67691209289999
 31
0.0
 11
-453.6109016418
 21
45.75051307859999
 31
0.0
 11
-456.1596891510999
 21
45.83499161119999
 31
0.0
 11
-459.1249895696
 21
45.9288185042
 31
0.0
 11
-462.4177248173
 21
46.02779824689999
 31
0.0
 11
-465.9250518536
 21
46.12766544369999
 31
0.0
 11
-469.4235616013999
 21
46.22198485569999
 31
0.0
 11
-472.6666222037
 21
46.30501879729999
 31
0.0
 11
-476.0214810003
 21
46.3867586331
 31
0.0
 11
-479.5247397455999
 21
46.4678976113
 31
0.0
 11
-483.0234737908
 21
46.54492216479999
 31
0.0
 11
-486.6094950891
 21
46.62000258339999
 31
0.0
 11
-490.2751414922
 21
46.69298454049999
 31
0.0
 11
-493.9819996653
 21
46.7631576918
 31
0.0
 11
-497.7182607301
 21
46.8304095263
 31
0.0
 11
-501.5072443448
 21
46.89524538159999
 31
0.0
 11
-505.3945929630999
 21
46.9584355941
 31
0.0
 11
-509.3748002546
 21
47.0198133598
 31
0.0
 11
-513.4070934833
 21
47.07875305329999
 31
0.0
 11
-517.4916535062
 21
47.1353322713
 31
0.0
 11
-521.6924991221
 21
47.19043545029999
 31
0.0
 11
-525.8831363776001
 21
47.2424570621
 31
0.0
 11
-530.1529802175999
 21
47.2925910237
 31
0.0
 11
-534.9709798823
 21
47.3458660094
 31
0.0
 11
-539.8248435166
 21
47.3961842468
 31
0.0
 11
-544.2360627212999
 21
47.4391250695
 31
0.0
 11
-548.2324772266
 21
47.4758308324
 31
0.0
 11
-551.9009128126
 21
47.50774905300001
 31
0.0
 11
-555.3064779926999
 21
47.5359033311
 31
0.0
 11
-558.4623152779999
 21
47.5607548134
 31
0.0
 11
-561.2590377858
 21
47.581801553
 31
0.0
 11
-563.6487217291
 21
47.5990713878
 31
0.0
 11
-565.9665731602999
 21
47.6152062951
 31
0.0
 11
-568.3288993856999
 21
47.63103520989999
 31
0.0
 11
-570.6857941846
 21
47.64621495220001
 31
0.0
 11
-573.0496442569
 21
47.6608247854
 31
0.0
 11
-575.4251256572
 21
47.6748827439
 31
0.0
 11
-577.7944741216999
 21
47.6882702575
 31
0.0
 11
-580.1883136328999
 21
47.7011375256
 31
0.0
 11
-582.7656064021
 21
47.7142365574
 31
0.0
 11
-585.7099821701
 21
47.7282250281
 31
0.0
 11
-589.2658312374
 21
47.74369888229999
 31
0.0
 11
-593.5447842862
 21
47.7601999699
 31
0.0
 11
-597.8968739513
 21
47.7745215468
 31
0.0
 11
-601.9903564043
 21
47.7856441004
 31
0.0
 11
-606.0141670612
 21
47.7942820153
 31
0.0
 11
-609.9692899535
 21
47.8004753205
 31
0.0
 11
-613.8300408348999
 21
47.804248858
 31
0.0
 11
-617.6301674124999
 21
47.80568829319999
 31
0.0
  0
SPLINE
  5
A7E
330
212
100
AcDbEntity
  8
_SURFACE
  6
Continuous
 62
     7
100
AcDbSpline
210
0.0
220
0.0
230
1.0
 70
     8
 71
     3
 72
    20
 73
    16
 74
    14
 42
0.0000000001
 43
0.0000000001
 44
0.0000000001
 12
0.9999999999995255
 22
0.0000009740751331
 32
0.0
 13
0.9997700661271979
 23
0.0214432944301585
 33
0.0
 40
0.0
 40
0.0
 40
0.0
 40
0.0
 40
4.515164925164355
 40
9.043195135550469
 40
13.43726833996001
 40
17.58215628532583
 40
21.37778037879507
 40
24.78642116607224
 40
27.80790712717261
 40
30.82682537500246
 40
33.9781095110524
 40
37.13926534097833
 40
40.22508901189776
 40
43.26173911556296
 40
46.43707498602116
 40
46.43707498602116
 40
46.43707498602116
 40
46.43707498602116
 10
-628.1013617746999
 20
30.2801514949
 30
0.0
 10
-626.5963067996458
 20
30.28015296093662
 30
0.0
 10
-623.5819069227485
 20
30.28414653652438
 30
0.0
 10
-619.1028476554002
 20
30.30185769076047
 30
0.0
 10
-614.747270995633
 20
30.33009667747537
 30
0.0
 10
-610.6358987420947
 20
30.36630702812697
 30
0.0
 10
-606.8530683579195
 20
30.40736765771566
 30
0.0
 10
-603.4447543562261
 20
30.45035625675555
 30
0.0
 10
-600.2953845196229
 20
30.49474281341775
 30
0.0
 10
-597.2318512896703
 20
30.54195139408995
 30
0.0
 10
-594.1218301212837
 20
30.59381324168389
 30
0.0
 10
-590.98957594855
 20
30.64984280696371
 30
0.0
 10
-587.8955908767686
 20
30.70864493226582
 30
0.0
 10
-584.7969420913527
 20
30.77071218112132
 30
0.0
 10
-582.726735275328
 20
30.81414423180504
 30
0.0
 10
-581.6685333576
 20
30.8368407858
 30
0.0
 11
-628.1013617746999
 21
30.2801514949
 31
0.0
 11
-623.58620079
 21
30.2861167005
 31
0.0
 11
-619.0582057822
 21
30.303971546
 31
0.0
 11
-614.6642244544999
 21
30.3323866394
 31
0.0
 11
-610.519496535
 21
30.3688085141
 31
0.0
 11
-606.7240953056999
 21
30.4099396161
 31
0.0
 11
-603.3157249444
 21
30.4528755789
 31
0.0
 11
-600.2945384916
 21
30.4954176821
 31
0.0
 11
-597.2759780259999
 21
30.541894586
 31
0.0
 11
-594.1251312283999
 21
30.5943937686
 31
0.0
 11
-590.9644802432
 21
30.6508874039
 31
0.0
 11
-587.8792130342
 21
30.7094875496
 31
0.0
 11
-584.8431710254
 21
30.7702557394
 31
0.0
 11
-581.6685333576
 21
30.8368407858
 31
0.0
  0
SPLINE
  5
A7F
330
212
100
AcDbEntity
  8
_SURFACE
  6
Continuous
 62
     7
100
AcDbSpline
210
0.0
220
0.0
230
1.0
 70
     8
 71
     3
 72
    28
 73
    24
 74
    22
 42
0.0000000001
 43
0.0000000001
 44
0.0000000001
 12
0.9997702122538713
 22
0.0214364803512472
 32
0.0
 13
-0.1579625704398537
 23
-0.9874451004182635
 33
0.0
 40
0.0
 40
0.0
 40
0.0
 40
0.0
 40
1.742041607257669
 40
3.319616603289512
 40
4.721797152607454
 40
5.950068663622101
 40
7.016498894302617
 40
7.944454988583903
 40
8.774790296341791
 40
9.540875231392323
 40
10.2455166363662
 40
10.89343455692523
 40
11.48559932065859
 40
12.00365225189131
 40
12.42288304662848
 40
12.74824894360094
 40
13.00555534468151
 40
13.21210197562022
 40
13.37407810223878
 40
13.49483297261997
 40
13.57789474445726
 40
13.62687265175781
 40
13.64836367754791
 40
13.64836367754791
 40
13.64836367754791
 40
13.64836367754791
 10
-581.6685333576
 20
30.8368407858
 30
0.0
 10
-581.087986255119
 20
30.84928853269501
 30
0.0
 10
-579.9816807947694
 20
30.87205423818717
 30
0.0
 10
-578.4080185527384
 20
30.90127123388596
 30
0.0
 10
-577.005532672156
 20
30.92441007811502
 30
0.0
 10
-575.7733638259906
 20
30.942050840928
 30
0.0
 10
-574.6992213550486
 20
30.95497786982641
 30
0.0
 10
-573.7576902086869
 20
30.96404745502836
 30
0.0
 10
-572.9162513152451
 20
30.96997962040248
 30
0.0
 10
-572.1492361718617
 20
30.97316535528817
 30
0.0
 10
-571.4430199872524
 20
30.97371689982355
 30
0.0
 10
-570.7947801829158
 20
30.97161209385281
 30
0.0
 10
-570.2087509366504
 20
30.96679398295661
 30
0.0
 10
-569.6989865838149
 20
30.9594051026722
 30
0.0
 10
-569.2781965398372
 20
30.94997890771837
 30
0.0
 10
-568.9444116281078
 20
30.93931708142966
 30
0.0
 10
-568.6815371738431
 20
30.92770438882133
 30
0.0
 10
-568.4734115276866
 20
30.91548357488927
 30
0.0
 10
-568.3105122615033
 20
30.90175216529037
 30
0.0
 10
-568.1901447130224
 20
30.88891674016275
 30
0.0
 10
-568.1053224057592
 20
30.87212738964423
 30
0.0
 10
-568.0590192134753
 20
30.86213645455815
 30
0.0
 10
-568.0350955715416
 20
30.8438559243398
 30
0.0
 10
-568.0362271641
 20
30.8367821883
 30
0.0
 11
-581.6685333576
 21
30.8368407858
 31
0.0
 11
-579.9268581794
 21
30.8725694166
 31
0.0
 11
-578.3495536604
 21
30.9017811
 31
0.0
 11
-576.9475624466999
 21
30.9248230095
 31
0.0
 11
-575.7194156107
 21
30.9423231236
 31
0.0
 11
-574.6530616454
 21
30.9550768524
 31
0.0
 11
-573.7251478726
 21
30.9639393104
 31
0.0
 11
-572.8948326430001
 21
30.9697136332
 31
0.0
 11
-572.1287539325
 21
30.9728018414
 31
0.0
 11
-571.4241126630001
 21
30.9732387866
 31
0.0
 11
-570.7761986435
 21
30.9709904279
 31
0.0
 11
-570.1840554976
 21
30.9659305691
 31
0.0
 11
-569.6660606466999
 21
30.9581733789
 31
0.0
 11
-569.2469408131
 21
30.9485284663
 31
0.0
 11
-568.9217501012999
 21
30.9378528927
 31
0.0
 11
-568.6647045173999
 21
30.9262704994
 31
0.0
 11
-568.4585453551
 21
30.913624925
 31
0.0
 11
-568.297148073
 21
30.8999434439
 31
0.0
 11
-568.1772779066999
 21
30.8853529692
 31
0.0
 11
-568.0956598590999
 21
30.8699337524
 31
0.0
 11
-568.0494392145
 21
30.853732289
 31
0.0
 11
-568.0362271641
 21
30.8367821883
 31
0.0
  0
SPLINE
  5
A80
330
212
100
AcDbEntity
  8
_SURFACE
  6
Continuous
 62
     7
100
AcDbSpline
210
0.0
220
0.0
230
1.0
 70
     8
 71
     3
 72
    23
 73
    19
 74
    17
 42
0.0000000001
 43
0.0000000001
 44
0.0000000001
 12
-0.1577657987066713
 22
-0.9874765580804671
 32
0.0
 13
0.9929475824220501
 23
-0.1185542009471019
 33
0.0
 40
0.0
 40
0.0
 40
0.0
 40
0.0
 40
0.0707772978702045
 40
0.1373697494248566
 40
0.196903326001036
 40
0.2480977501286325
 40
0.2969307841979267
 40
0.3418227489663707
 40
0.3808607067167612
 40
0.4155944394923361
 40
0.4470581855313621
 40
0.475360369428315
 40
0.499675297941305
 40
0.5193798761482729
 40
0.5363897344749944
 40
0.5506066572390682
 40
0.5601474826929165
 40
0.5601529819058138
 40
0.5601529819058138
 40
0.5601529819058138
 40
0.5601529819058138
 10
-568.0362271641
 20
30.8367821883
 30
0.0
 10
-568.0399492430763
 20
30.8134852141363
 30
0.0
 10
-568.0472955920164
 20
30.76828836757569
 30
0.0
 10
-568.0576469483148
 20
30.70347530958221
 30
0.0
 10
-568.0670009580542
 20
30.64511335834264
 30
0.0
 10
-568.0753792329173
 20
30.59259035843255
 30
0.0
 10
-568.0829572317174
 20
30.54488204665711
 30
0.0
 10
-568.0898366269084
 20
30.50116543721712
 30
0.0
 10
-568.0959120596693
 20
30.46208098046895
 30
0.0
 10
-568.1012321400167
 20
30.42740589127646
 30
0.0
 10
-568.1059343424878
 20
30.3962664605393
 30
0.0
 10
-568.1100879346541
 20
30.36852525075344
 30
0.0
 10
-568.1134987146249
 20
30.34473047501989
 30
0.0
 10
-568.1166070284387
 20
30.32442727615576
 30
0.0
 10
-568.1183598217887
 20
30.30810643247061
 30
0.0
 10
-568.1219615658423
 20
30.29331353714403
 30
0.0
 10
-568.120003712869
 20
30.28782320584356
 30
0.0
 10
-568.1222254098433
 20
30.28328123291827
 30
0.0
 10
-568.1222235896999
 20
30.2832810156
 30
0.0
 11
-568.0362271641
 21
30.8367821883
 31
0.0
 11
-568.0474862838999
 21
30.7669061687
 31
0.0
 11
-568.0580244115
 21
30.701152823
 31
0.0
 11
-568.0674330636
 21
30.6423674166
 31
0.0
 11
-568.0754975355999
 21
30.5918121661
 31
0.0
 11
-568.0831512548
 21
30.5435826544
 31
0.0
 11
-568.0901251169
 21
30.49923568440001
 31
0.0
 11
-568.0961191128
 21
30.4606606386
 31
0.0
 11
-568.1013829599
 21
30.4263280869
 31
0.0
 11
-568.1060857125999
 21
30.3952177762
 31
0.0
 11
-568.1102508236
 21
30.3672237507
 31
0.0
 11
-568.1137667813
 21
30.3431643702
 31
0.0
 11
-568.1165696042
 21
30.3236601505
 31
0.0
 11
-568.1189556658999
 21
30.3068184763
 31
0.0
 11
-568.1209221225
 21
30.2927382085
 31
0.0
 11
-568.1222228512
 21
30.283286465
 31
0.0
 11
-568.1222235896999
 21
30.2832810156
 31
0.0
  0
SPLINE
  5
A81
330
212
100
AcDbEntity
  8
0
  6
Continuous
 62
     7
100
AcDbSpline
210
0.0
220
0.0
230
1.0
 70
     8
 71
     3
 72
    10
 73
     6
 74
     4
 42
0.0000000001
 43
0.0000000001
 44
0.0000000001
 12
-0.9999989472970748
 22
-0.0014510012895891
 32
0.0
 13
-0.9999999999999735
 23
0.0000002299999101
 33
0.0
 40
0.0
 40
0.0
 40
0.0
 40
0.0
 40
3.7200386702685
 40
7.439200535299708
 40
11.15739566622317
 40
11.15739566622317
 40
11.15739566622317
 40
11.15739566622317
 10
-616.9452052248
 20
68.29838736149999
 30
0.0
 10
-618.1852168095243
 20
68.29658810119735
 30
0.0
 10
-620.6649486732463
 20
68.29362230194107
 30
0.0
 10
-624.3840797776339
 20
68.29101249360668
 30
0.0
 10
-626.8631988190255
 20
68.29044994873848
 30
0.0
 10
-628.102597196
 20
68.2904502338
 30
0.0
 11
-616.9452052248
 21
68.29838736149999
 31
0.0
 11
-620.6652412228
 21
68.2939284516
 31
0.0
 11
-624.3844021636999
 21
68.29130662279999
 31
0.0
 11
-628.102597196
 21
68.2904502338
 31
0.0
  0
LINE
  5
A82
330
212
100
AcDbEntity
  8
0
  6
Continuous
 62
     7
100
AcDbLine
 10
-616.8942521515
 20
428.4362161157999
 30
0.0
 11
-616.894301637
 21
428.3490603728999
 31
0.0
  0
ENDSEC
  0
SECTION
  2
OBJECTS
  0
DICTIONARY
  5
C
330
0
100
AcDbDictionary
281
     1
  3
ACAD_COLOR
350
AB2
  3
ACAD_GROUP
350
D
  3
ACAD_LAYOUT
350
1A
  3
ACAD_MATERIAL
350
A88
  3
ACAD_MLEADERSTYLE
350
AD7
  3
ACAD_MLINESTYLE
350
17
  3
ACAD_PLOTSETTINGS
350
19
  3
ACAD_PLOTSTYLENAME
350
E
  3
ACAD_SCALELIST
350
AB5
  3
ACAD_TABLESTYLE
350
AB3
  3
ACAD_VISUALSTYLE
350
AA1
  3
ACDB_RECOMPOSE_DATA
350
ADC
  3
AcDbVariableDictionary
350
ADD
  3
AcmDictionary
350
B3F
  3
AMG
350
B1E
  3
AMGSNAPSETTINGS
350
B7F
  3
DWGPROPS
350
BAC
  0
DICTIONARY
  5
AB2
102
{ACAD_REACTORS
330
C
102
}
330
C
100
AcDbDictionary
281
     1
  0
DICTIONARY
  5
D
102
{ACAD_REACTORS
330
C
102
}
330
C
100
AcDbDictionary
281
     1
  0
DICTIONARY
  5
1A
102
{ACAD_REACTORS
330
C
102
}
330
C
100
AcDbDictionary
281
     1
  3
Layout1
350
A85
  3
Model
350
A84
  0
DICTIONARY
  5
A88
102
{ACAD_REACTORS
330
C
102
}
330
C
100
AcDbDictionary
281
     1
  3
ByBlock
350
A91
  3
ByLayer
350
A89
  3
Global
350
A99
  0
DICTIONARY
  5
AD7
102
{ACAD_REACTORS
330
C
102
}
330
C
100
AcDbDictionary
281
     1
  3
Standard
350
AD8
  0
DICTIONARY
  5
17
102
{ACAD_REACTORS
330
C
102
}
330
C
100
AcDbDictionary
281
     1
  3
Standard
350
18
  0
DICTIONARY
  5
19
102
{ACAD_REACTORS
330
C
102
}
330
C
100
AcDbDictionary
281
     1
  0
ACDBDICTIONARYWDFLT
  5
E
102
{ACAD_REACTORS
330
C
102
}
330
C
100
AcDbDictionary
281
     1
  3
Normal
350
F
100
AcDbDictionaryWithDefault
340
F
  0
DICTIONARY
  5
AB5
102
{ACAD_REACTORS
330
C
102
}
330
C
100
AcDbDictionary
281
     1
  3
A0
350
AB6
  3
A1
350
AB7
  3
A2
350
AB8
  3
A3
350
AB9
  3
A4
350
ABA
  3
A5
350
ABB
  3
A6
350
ABC
  3
A7
350
ABD
  3
A8
350
ABE
  3
A9
350
ABF
  3
B0
350
AC0
  3
B1
350
AC1
  3
B2
350
AC2
  3
B3
350
AC3
  3
B4
350
AC4
  3
B5
350
AC5
  3
B6
350
AC6
  3
B7
350
AC7
  3
B8
350
AC8
  3
B9
350
AC9
  3
C0
350
ACA
  3
C1
350
ACB
  3
C2
350
ACC
  3
C3
350
ACD
  3
C4
350
ACE
  3
C5
350
ACF
  3
C6
350
AD0
  3
C7
350
AD1
  3
C8
350
AD2
  3
C9
350
AD3
  3
D0
350
AD4
  3
D1
350
AD5
  3
D2
350
AD6
  0
DICTIONARY
  5
AB3
102
{ACAD_REACTORS
330
C
102
}
330
C
100
AcDbDictionary
281
     1
  3
Standard
350
AB4
  0
DICTIONARY
  5
AA1
102
{ACAD_REACTORS
330
C
102
}
330
C
100
AcDbDictionary
281
     1
  3
2dWireframe
350
AA7
  3
3D Hidden
350
AA9
  3
3dWireframe
350
AA8
  3
Basic
350
AA6
  3
Brighten
350
AAD
  3
ColorChange
350
AB1
  3
Conceptual
350
AAA
  3
Dim
350
AAC
  3
Facepattern
350
AB0
  3
Flat
350
AA2
  3
FlatWithEdges
350
AA3
  3
Gouraud
350
AA4
  3
GouraudWithEdges
350
AA5
  3
Linepattern
350
AAF
  3
Realistic
350
AAB
  3
Thicken
350
AAE
  0
XRECORD
  5
ADC
102
{ACAD_REACTORS
330
C
102
}
330
C
100
AcDbXrecord
280
     1
 90
        1
330
AB4
  0
DICTIONARY
  5
ADD
102
{ACAD_REACTORS
330
C
102
}
330
C
100
AcDbDictionary
281
     1
  3
CANNOSCALE
350
AE0
  3
CMLEADERSTYLE
350
ADF
  3
CTABLESTYLE
350
ADE
  3
DIMASSOC
350
BAB
  3
HIDETEXT
350
BAA
  3
INDEXCTL
350
BA9
  3
SORTENTS
350
BA8
  0
DICTIONARY
  5
B3F
102
{ACAD_REACTORS
330
C
102
}
330
C
100
AcDbDictionary
281
     1
  3
AcmStdDictionary
350
B4A
  3
AMDTSECTSYM_ARROWCOLOR
350
B69
  0
DICTIONARY
  5
B1E
102
{ACAD_REACTORS
330
C
102
}
330
C
100
AcDbDictionary
281
     1
  0
DICTIONARY
  5
B7F
102
{ACAD_REACTORS
330
C
102
}
330
C
100
AcDbDictionary
281
     1
  0
XRECORD
  5
BAC
102
{ACAD_REACTORS
330
C
102
}
330
C
100
AcDbXrecord
280
     1
  1
DWGPROPS COOKIE
  2

  3

  4

  6

  7

  8
ko27558
  9

300
=
301
=
302
=
303
=
304
=
305
=
306
=
307
=
308
=
309
=
 40
0.0003982291666667
 41
2455695.499542118
 42
2455695.49993963
  1

 90
        0
  0
LAYOUT
  5
A85
102
{ACAD_XDICTIONARY
360
BAF
102
}
102
{ACAD_REACTORS
330
1A
102
}
330
1A
100
AcDbPlotSettings
  1

  2
none_device
  4
ANSI_D_(34.00_x_22.00_Inches)
  6

 40
0.0
 41
0.0
 42
0.0
 43
0.0
 44
863.6000000000001
 45
558.8
 46
0.0
 47
0.0
 48
0.0
 49
0.0
140
0.0
141
0.0
142
1.0
143
1.0
 70
     0
 72
     1
 73
     0
 74
     0
  7

 75
     0
147
1.0
148
0.0
149
0.0
100
AcDbLayout
  1
Layout1
 70
     1
 71
     1
 10
0.0
 20
0.0
 11
12.0
 21
9.0
 12
0.0
 22
0.0
 32
0.0
 14
1.000000000000000E+20
 24
1.000000000000000E+20
 34
1.000000000000000E+20
 15
-1.000000000000000E+20
 25
-1.000000000000000E+20
 35
-1.000000000000000E+20
146
0.0
 13
0.0
 23
0.0
 33
0.0
 16
1.0
 26
0.0
 36
0.0
 17
0.0
 27
1.0
 37
0.0
 76
     0
330
213
  0
LAYOUT
  5
A84
102
{ACAD_XDICTIONARY
360
BAD
102
}
102
{ACAD_REACTORS
330
1A
102
}
330
1A
100
AcDbPlotSettings
  1

  2
none_device
  4
ANSI_D_(34.00_x_22.00_Inches)
  6

 40
0.0
 41
0.0
 42
0.0
 43
0.0
 44
863.6000000000001
 45
558.8
 46
0.0
 47
0.0
 48
0.0
 49
0.0
140
0.0
141
0.0
142
1.0
143
1.0
 70
  1024
 72
     1
 73
     0
 74
     0
  7

 75
     0
147
1.0
148
0.0
149
0.0
100
AcDbLayout
  1
Model
 70
     0
 71
     0
 10
0.0
 20
0.0
 11
863.6000000000001
 21
558.8
 12
0.0
 22
0.0
 32
0.0
 14
0.0
 24
0.0
 34
0.0
 15
0.0
 25
0.0
 35
0.0
146
0.0
 13
0.0
 23
0.0
 33
0.0
 16
1.0
 26
0.0
 36
0.0
 17
0.0
 27
1.0
 37
0.0
 76
     0
330
212
331
1F4
  0
MATERIAL
  5
A91
102
{ACAD_XDICTIONARY
360
A92
102
}
102
{ACAD_REACTORS
330
A88
102
}
330
A88
100
AcDbMaterial
  1
ByBlock
 72
     0
 73
     2
 43
0.0008202099737533
 43
0.0
 43
0.0
 43
0.0
 43
0.0
 43
0.0008202099737533
 43
0.0
 43
0.0
 43
0.0
 43
0.0
 43
1.0
 43
0.0
 43
0.0
 43
0.0
 43
0.0
 43
1.0
 77
     0
 78
     2
 47
0.0008202099737533
 47
0.0
 47
0.0
 47
0.0
 47
0.0
 47
0.0008202099737533
 47
0.0
 47
0.0
 47
0.0
 47
0.0
 47
1.0
 47
0.0
 47
0.0
 47
0.0
 47
0.0
 47
1.0
171
     0
172
     2
 49
0.0008202099737533
 49
0.0
 49
0.0
 49
0.0
 49
0.0
 49
0.0008202099737533
 49
0.0
 49
0.0
 49
0.0
 49
0.0
 49
1.0
 49
0.0
 49
0.0
 49
0.0
 49
0.0
 49
1.0
175
     0
176
     2
142
0.0008202099737533
142
0.0
142
0.0
142
0.0
142
0.0
142
0.0008202099737533
142
0.0
142
0.0
142
0.0
142
0.0
142
1.0
142
0.0
142
0.0
142
0.0
142
0.0
142
1.0
179
     0
270
     2
144
0.0008202099737533
144
0.0
144
0.0
144
0.0
144
0.0
144
0.0008202099737533
144
0.0
144
0.0
144
0.0
144
0.0
144
1.0
144
0.0
144
0.0
144
0.0
144
0.0
144
1.0
274
     2
147
0.0008202099737533
147
0.0
147
0.0
147
0.0
147
0.0
147
0.0008202099737533
147
0.0
147
0.0
147
0.0
147
0.0
147
1.0
147
0.0
147
0.0
147
0.0
147
0.0
147
1.0
  0
MATERIAL
  5
A89
102
{ACAD_XDICTIONARY
360
A8A
102
}
102
{ACAD_REACTORS
330
A88
102
}
330
A88
100
AcDbMaterial
  1
ByLayer
 72
     0
 73
     2
 43
0.0008202099737533
 43
0.0
 43
0.0
 43
0.0
 43
0.0
 43
0.0008202099737533
 43
0.0
 43
0.0
 43
0.0
 43
0.0
 43
1.0
 43
0.0
 43
0.0
 43
0.0
 43
0.0
 43
1.0
 77
     0
 78
     2
 47
0.0008202099737533
 47
0.0
 47
0.0
 47
0.0
 47
0.0
 47
0.0008202099737533
 47
0.0
 47
0.0
 47
0.0
 47
0.0
 47
1.0
 47
0.0
 47
0.0
 47
0.0
 47
0.0
 47
1.0
171
     0
172
     2
 49
0.0008202099737533
 49
0.0
 49
0.0
 49
0.0
 49
0.0
 49
0.0008202099737533
 49
0.0
 49
0.0
 49
0.0
 49
0.0
 49
1.0
 49
0.0
 49
0.0
 49
0.0
 49
0.0
 49
1.0
175
     0
176
     2
142
0.0008202099737533
142
0.0
142
0.0
142
0.0
142
0.0
142
0.0008202099737533
142
0.0
142
0.0
142
0.0
142
0.0
142
1.0
142
0.0
142
0.0
142
0.0
142
0.0
142
1.0
179
     0
270
     2
144
0.0008202099737533
144
0.0
144
0.0
144
0.0
144
0.0
144
0.0008202099737533
144
0.0
144
0.0
144
0.0
144
0.0
144
1.0
144
0.0
144
0.0
144
0.0
144
0.0
144
1.0
274
     2
147
0.0008202099737533
147
0.0
147
0.0
147
0.0
147
0.0
147
0.0008202099737533
147
0.0
147
0.0
147
0.0
147
0.0
147
1.0
147
0.0
147
0.0
147
0.0
147
0.0
147
1.0
  0
MATERIAL
  5
A99
102
{ACAD_XDICTIONARY
360
A9A
102
}
102
{ACAD_REACTORS
330
A88
102
}
330
A88
100
AcDbMaterial
  1
Global
 72
     0
 73
     2
 43
0.0008202099737533
 43
0.0
 43
0.0
 43
0.0
 43
0.0
 43
0.0008202099737533
 43
0.0
 43
0.0
 43
0.0
 43
0.0
 43
1.0
 43
0.0
 43
0.0
 43
0.0
 43
0.0
 43
1.0
 77
     0
 78
     2
 47
0.0008202099737533
 47
0.0
 47
0.0
 47
0.0
 47
0.0
 47
0.0008202099737533
 47
0.0
 47
0.0
 47
0.0
 47
0.0
 47
1.0
 47
0.0
 47
0.0
 47
0.0
 47
0.0
 47
1.0
171
     0
172
     2
 49
0.0008202099737533
 49
0.0
 49
0.0
 49
0.0
 49
0.0
 49
0.0008202099737533
 49
0.0
 49
0.0
 49
0.0
 49
0.0
 49
1.0
 49
0.0
 49
0.0
 49
0.0
 49
0.0
 49
1.0
175
     0
176
     2
142
0.0008202099737533
142
0.0
142
0.0
142
0.0
142
0.0
142
0.0008202099737533
142
0.0
142
0.0
142
0.0
142
0.0
142
1.0
142
0.0
142
0.0
142
0.0
142
0.0
142
1.0
179
     0
270
     2
144
0.0008202099737533
144
0.0
144
0.0
144
0.0
144
0.0
144
0.0008202099737533
144
0.0
144
0.0
144
0.0
144
0.0
144
1.0
144
0.0
144
0.0
144
0.0
144
0.0
144
1.0
274
     2
147
0.0008202099737533
147
0.0
147
0.0
147
0.0
147
0.0
147
0.0008202099737533
147
0.0
147
0.0
147
0.0
147
0.0
147
1.0
147
0.0
147
0.0
147
0.0
147
0.0
147
1.0
  0
ACAD_PROXY_OBJECT
  5
AD8
102
{ACAD_REACTORS
330
AD7
102
}
330
AD7
100
AcDbProxyObject
 90
      499
 91
      507
 95
    65563
 70
     0
 93
      817
310
40901902A40600000030400FEFFFFFF8000000000000008102B5E8DC0F42B5CFC0000000000001040405064068000000C1000000000000000410000000000000004102000000304015D90000000000000C03F4214C01D0018401B80190018401C80190028C00CC
340
14
340
0
340
11
340
0
 94
        0
1001
ACAD_MLEADERVER
1070
     2
1001
ACAD
1000
AcRTDxfName
1000
MLEADERSTYLE
  0
MLINESTYLE
  5
18
102
{ACAD_REACTORS
330
17
102
}
330
17
100
AcDbMlineStyle
  2
STANDARD
 70
     0
  3

 62
   256
 51
90.0
 52
90.0
 71
     2
 49
0.5
 62
   256
  6
BYLAYER
 49
-0.5
 62
   256
  6
BYLAYER
  0
ACDBPLACEHOLDER
  5
F
102
{ACAD_REACTORS
330
E
102
}
330
E
  0
ACAD_PROXY_OBJECT
  5
AB6
102
{ACAD_REACTORS
330
AB5
102
}
330
AB5
100
AcDbProxyObject
 90
      499
 91
      506
 95
    65563
 70
     0
 93
       82
310
968198801D0018801D004C
 94
        0
1001
ACAD
1000
AcRTDxfName
1000
SCALE
  0
ACAD_PROXY_OBJECT
  5
AB7
102
{ACAD_REACTORS
330
AB5
102
}
330
AB5
100
AcDbProxyObject
 90
      499
 91
      506
 95
    65563
 70
     0
 93
      146
310
9000000000000001008198801D0019001D004C
 94
        0
1001
ACAD
1000
AcRTDxfName
1000
SCALE
  0
ACAD_PROXY_OBJECT
  5
AB8
102
{ACAD_REACTORS
330
AB5
102
}
330
AB5
100
AcDbProxyObject
 90
      499
 91
      506
 95
    65563
 70
     0
 93
      146
310
9000000000000041008198801D001A001D004C
 94
        0
1001
ACAD
1000
AcRTDxfName
1000
SCALE
  0
ACAD_PROXY_OBJECT
  5
AB9
102
{ACAD_REACTORS
330
AB5
102
}
330
AB5
100
AcDbProxyObject
 90
      499
 91
      506
 95
    65563
 70
     0
 93
      146
310
9000000000000051008198801D001A801D004C
 94
        0
1001
ACAD
1000
AcRTDxfName
1000
SCALE
  0
ACAD_PROXY_OBJECT
  5
ABA
102
{ACAD_REACTORS
330
AB5
102
}
330
AB5
100
AcDbProxyObject
 90
      499
 91
      506
 95
    65563
 70
     0
 93
      146
310
9000000000000081008198801D001C001D004C
 94
        0
1001
ACAD
1000
AcRTDxfName
1000
SCALE
  0
ACAD_PROXY_OBJECT
  5
ABB
102
{ACAD_REACTORS
330
AB5
102
}
330
AB5
100
AcDbProxyObject
 90
      499
 91
      506
 95
    65563
 70
     0
 93
      162
310
9000000000000091008218801D001880180025004C
 94
        0
1001
ACAD
1000
AcRTDxfName
1000
SCALE
  0
ACAD_PROXY_OBJECT
  5
ABC
102
{ACAD_REACTORS
330
AB5
102
}
330
AB5
100
AcDbProxyObject
 90
      499
 91
      506
 95
    65563
 70
     0
 93
      162
310
90000000000000C1008218801D0018801B0025004C
 94
        0
1001
ACAD
1000
AcRTDxfName
1000
SCALE
  0
ACAD_PROXY_OBJECT
  5
ABD
102
{ACAD_REACTORS
330
AB5
102
}
330
AB5
100
AcDbProxyObject
 90
      499
 91
      506
 95
    65563
 70
     0
 93
      162
310
90000000000000D1008218801D001900180025004C
 94
        0
1001
ACAD
1000
AcRTDxfName
1000
SCALE
  0
ACAD_PROXY_OBJECT
  5
ABE
102
{ACAD_REACTORS
330
AB5
102
}
330
AB5
100
AcDbProxyObject
 90
      499
 91
      506
 95
    65563
 70
     0
 93
      162
310
90000000000000F9008218801D001980180025004C
 94
        0
1001
ACAD
1000
AcRTDxfName
1000
SCALE
  0
ACAD_PROXY_OBJECT
  5
ABF
102
{ACAD_REACTORS
330
AB5
102
}
330
AB5
100
AcDbProxyObject
 90
      499
 91
      506
 95
    65563
 70
     0
 93
      162
310
9000000000000111008218801D001A00180025004C
 94
        0
1001
ACAD
1000
AcRTDxfName
1000
SCALE
  0
ACAD_PROXY_OBJECT
  5
AC0
102
{ACAD_REACTORS
330
AB5
102
}
330
AB5
100
AcDbProxyObject
 90
      499
 91
      506
 95
    65563
 70
     0
 93
      162
310
9000000000000125008218801D001A80180025004C
 94
        0
1001
ACAD
1000
AcRTDxfName
1000
SCALE
  0
ACAD_PROXY_OBJECT
  5
AC1
102
{ACAD_REACTORS
330
AB5
102
}
330
AB5
100
AcDbProxyObject
 90
      499
 91
      506
 95
    65563
 70
     0
 93
      178
310
9000000000000165008298801D001880180018002D004C
 94
        0
1001
ACAD
1000
AcRTDxfName
1000
SCALE
  0
ACAD_PROXY_OBJECT
  5
AC2
102
{ACAD_REACTORS
330
AB5
102
}
330
AB5
100
AcDbProxyObject
 90
      499
 91
      506
 95
    65563
 70
     0
 93
      146
310
8000000000000004048199001D0018801D004C
 94
        0
1001
ACAD
1000
AcRTDxfName
1000
SCALE
  0
ACAD_PROXY_OBJECT
  5
AC3
102
{ACAD_REACTORS
330
AB5
102
}
330
AB5
100
AcDbProxyObject
 90
      499
 91
      506
 95
    65563
 70
     0
 93
      146
310
800000000000010404819A001D0018801D004C
 94
        0
1001
ACAD
1000
AcRTDxfName
1000
SCALE
  0
ACAD_PROXY_OBJECT
  5
AC4
102
{ACAD_REACTORS
330
AB5
102
}
330
AB5
100
AcDbProxyObject
 90
      499
 91
      506
 95
    65563
 70
     0
 93
      146
310
800000000000020404819C001D0018801D004C
 94
        0
1001
ACAD
1000
AcRTDxfName
1000
SCALE
  0
ACAD_PROXY_OBJECT
  5
AC5
102
{ACAD_REACTORS
330
AB5
102
}
330
AB5
100
AcDbProxyObject
 90
      499
 91
      506
 95
    65563
 70
     0
 93
      162
310
80000000000002440482188018001D00188025004C
 94
        0
1001
ACAD
1000
AcRTDxfName
1000
SCALE
  0
ACAD_PROXY_OBJECT
  5
AC6
102
{ACAD_REACTORS
330
AB5
102
}
330
AB5
100
AcDbProxyObject
 90
      499
 91
      506
 95
    65563
 70
     0
 93
      178
310
800000000000059404829880180018001D0018802D004C
 94
        0
1001
ACAD
1000
AcRTDxfName
1000
SCALE
  0
ACAD_PROXY_OBJECT
  5
AC7
102
{ACAD_REACTORS
330
AB5
102
}
330
AB5
100
AcDbProxyObject
 90
      499
 91
      506
 95
    65563
 70
     0
 93
      386
310
8000000000000803F0000000000000A1008718801780188019001C00110010001E8010001880138016801800110075004C
 94
        0
1001
ACAD
1000
AcRTDxfName
1000
SCALE
  0
ACAD_PROXY_OBJECT
  5
AC8
102
{ACAD_REACTORS
330
AB5
102
}
330
AB5
100
AcDbProxyObject
 90
      499
 91
      506
 95
    65563
 70
     0
 93
      370
310
8000000000000903F0000000000000A10086988017801B001A00110010001E801000188013801680180011006D004C
 94
        0
1001
ACAD
1000
AcRTDxfName
1000
SCALE
  0
ACAD_PROXY_OBJECT
  5
AC9
102
{ACAD_REACTORS
330
AB5
102
}
330
AB5
100
AcDbProxyObject
 90
      499
 91
      506
 95
    65563
 70
     0
 93
      370
310
8000000000000A03F0000000000000A100869880178019801900110010001E801000188013801680180011006D004C
 94
        0
1001
ACAD
1000
AcRTDxfName
1000
SCALE
  0
ACAD_PROXY_OBJECT
  5
ACA
102
{ACAD_REACTORS
330
AB5
102
}
330
AB5
100
AcDbProxyObject
 90
      499
 91
      506
 95
    65563
 70
     0
 93
      370
310
8000000000000B03F0000000000000A100869880178018801B00110010001E801000188013801680180011006D004C
 94
        0
1001
ACAD
1000
AcRTDxfName
1000
SCALE
  0
ACAD_PROXY_OBJECT
  5
ACB
102
{ACAD_REACTORS
330
AB5
102
}
330
AB5
100
AcDbProxyObject
 90
      499
 91
      506
 95
    65563
 70
     0
 93
      370
310
8000000000000B83F0000000000000A100869980178019801900110010001E801000188013801680180011006D004C
 94
        0
1001
ACAD
1000
AcRTDxfName
1000
SCALE
  0
ACAD_PROXY_OBJECT
  5
ACC
102
{ACAD_REACTORS
330
AB5
102
}
330
AB5
100
AcDbProxyObject
 90
      499
 91
      506
 95
    65563
 70
     0
 93
      354
310
8000000000000C03F0000000000000A10086188017801C00110010001E8010001880138016801800110065004C
 94
        0
1001
ACAD
1000
AcRTDxfName
1000
SCALE
  0
ACAD_PROXY_OBJECT
  5
ACD
102
{ACAD_REACTORS
330
AB5
102
}
330
AB5
100
AcDbProxyObject
 90
      499
 91
      506
 95
    65563
 70
     0
 93
      370
310
8000000000000C83F0000000000000A100869980178018801B00110010001E801000188013801680180011006D004C
 94
        0
1001
ACAD
1000
AcRTDxfName
1000
SCALE
  0
ACAD_PROXY_OBJECT
  5
ACE
102
{ACAD_REACTORS
330
AB5
102
}
330
AB5
100
AcDbProxyObject
 90
      499
 91
      506
 95
    65563
 70
     0
 93
      354
310
8000000000000D03F0000000000000A10086188017801A00110010001E8010001880138016801800110065004C
 94
        0
1001
ACAD
1000
AcRTDxfName
1000
SCALE
  0
ACAD_PROXY_OBJECT
  5
ACF
102
{ACAD_REACTORS
330
AB5
102
}
330
AB5
100
AcDbProxyObject
 90
      499
 91
      506
 95
    65563
 70
     0
 93
      354
310
8000000000000D83F0000000000000A10086198017801C00110010001E8010001880138016801800110065004C
 94
        0
1001
ACAD
1000
AcRTDxfName
1000
SCALE
  0
ACAD_PROXY_OBJECT
  5
AD0
102
{ACAD_REACTORS
330
AB5
102
}
330
AB5
100
AcDbProxyObject
 90
      499
 91
      506
 95
    65563
 70
     0
 93
      354
310
8000000000000E03F0000000000000A10086188017801900110010001E8010001880138016801800110065004C
 94
        0
1001
ACAD
1000
AcRTDxfName
1000
SCALE
  0
ACAD_PROXY_OBJECT
  5
AD1
102
{ACAD_REACTORS
330
AB5
102
}
330
AB5
100
AcDbProxyObject
 90
      499
 91
      506
 95
    65563
 70
     0
 93
      354
310
8000000000000E83F0000000000000A10086198017801A00110010001E8010001880138016801800110065004C
 94
        0
1001
ACAD
1000
AcRTDxfName
1000
SCALE
  0
ACAD_PROXY_OBJECT
  5
AD2
102
{ACAD_REACTORS
330
AB5
102
}
330
AB5
100
AcDbProxyObject
 90
      499
 91
      506
 95
    65563
 70
     0
 93
      258
310
90000000000000A100851880110010001E8010001880138016801800110055004C
 94
        0
1001
ACAD
1000
AcRTDxfName
1000
SCALE
  0
ACAD_PROXY_OBJECT
  5
AD3
102
{ACAD_REACTORS
330
AB5
102
}
330
AB5
100
AcDbProxyObject
 90
      499
 91
      506
 95
    65563
 70
     0
 93
      386
310
8000000000000F83F0000000000000A1008718801680188017801900110010001E8010001880138016801800110075004C
 94
        0
1001
ACAD
1000
AcRTDxfName
1000
SCALE
  0
ACAD_PROXY_OBJECT
  5
AD4
102
{ACAD_REACTORS
330
AB5
102
}
330
AB5
100
AcDbProxyObject
 90
      499
 91
      506
 95
    65563
 70
     0
 93
      322
310
800000000000008400000000000000A100851980110010001E8010001880138016801800110055004C
 94
        0
1001
ACAD
1000
AcRTDxfName
1000
SCALE
  0
ACAD_PROXY_OBJECT
  5
AD5
102
{ACAD_REACTORS
330
AB5
102
}
330
AB5
100
AcDbProxyObject
 90
      499
 91
      506
 95
    65563
 70
     0
 93
      322
310
800000000000018400000000000000A100851B00110010001E8010001880138016801800110055004C
 94
        0
1001
ACAD
1000
AcRTDxfName
1000
SCALE
  0
ACAD_PROXY_OBJECT
  5
AD6
102
{ACAD_REACTORS
330
AB5
102
}
330
AB5
100
AcDbProxyObject
 90
      499
 91
      506
 95
    65563
 70
     0
 93
      370
310
800000000000028400000000000000A100869880138016801800110010001E801000188013801680180011006D004C
 94
        0
1001
ACAD
1000
AcRTDxfName
1000
SCALE
  0
TABLESTYLE
  5
AB4
102
{ACAD_XDICTIONARY
360
ADA
102
}
102
{ACAD_REACTORS
330
AB3
102
}
330
AB3
100
AcDbTableStyle
  3
Standard
 70
     0
 71
     0
 40
1.5
 41
1.5
280
     0
281
     0
  7
STANDARD
140
4.5
170
     2
 62
     0
 63
     7
283
     0
274
    -2
284
     1
 64
     0
275
    -2
285
     1
 65
     0
276
    -2
286
     1
 66
     0
277
    -2
287
     1
 67
     0
278
    -2
288
     1
 68
     0
279
    -2
289
     1
 69
     0
  7
STANDARD
140
6.0
170
     5
 62
     0
 63
     7
283
     0
274
    -2
284
     1
 64
     0
275
    -2
285
     1
 65
     0
276
    -2
286
     1
 66
     0
277
    -2
287
     1
 67
     0
278
    -2
288
     1
 68
     0
279
    -2
289
     1
 69
     0
  7
STANDARD
140
4.5
170
     5
 62
     0
 63
     7
283
     0
274
    -2
284
     1
 64
     0
275
    -2
285
     1
 65
     0
276
    -2
286
     1
 66
     0
277
    -2
287
     1
 67
     0
278
    -2
288
     1
 68
     0
279
    -2
289
     1
 69
     0
  0
VISUALSTYLE
  5
AA7
102
{ACAD_REACTORS
330
AA1
102
}
330
AA1
100
AcDbVisualStyle
  2
2dWireframe
 70
     4
 71
     0
 72
     2
 73
     0
 90
        0
 40
-0.6
 41
-30.0
 62
     5
 63
     7
 74
     1
 91
        4
 64
     7
 65
   257
 75
     1
175
     1
 42
1.0
 92
        0
 66
   257
 43
1.0
 76
     1
 77
     6
 78
     2
 67
     7
 79
     5
170
     0
171
     0
290
     0
174
     0
 93
        1
 44
0.0
173
     0
291
     0
 45
0.0
1001
ACAD
1000
AcDbSavedByObjectVersion
1070
     0
  0
VISUALSTYLE
  5
AA9
102
{ACAD_REACTORS
330
AA1
102
}
330
AA1
100
AcDbVisualStyle
  2
3D Hidden
 70
     6
 71
     1
 72
     2
 73
     2
 90
        0
 40
-0.6
 41
-30.0
 62
     5
 63
     7
 74
     2
 91
        2
 64
     7
 65
   257
 75
     2
175
     1
 42
40.0
 92
        0
 66
   257
 43
1.0
 76
     1
 77
     6
 78
     2
 67
     7
 79
     3
170
     0
171
     0
290
     0
174
     0
 93
        1
 44
0.0
173
     0
291
     0
 45
0.0
1001
ACAD
1000
AcDbSavedByObjectVersion
1070
     0
  0
VISUALSTYLE
  5
AA8
102
{ACAD_REACTORS
330
AA1
102
}
330
AA1
100
AcDbVisualStyle
  2
3dWireframe
 70
     5
 71
     0
 72
     2
 73
     0
 90
        0
 40
-0.6
 41
-30.0
 62
     5
 63
     7
 74
     1
 91
        4
 64
     7
 65
   257
 75
     1
175
     1
 42
1.0
 92
        0
 66
   257
 43
1.0
 76
     1
 77
     6
 78
     2
 67
     7
 79
     5
170
     0
171
     0
290
     0
174
     0
 93
        1
 44
0.0
173
     0
291
     0
 45
0.0
1001
ACAD
1000
AcDbSavedByObjectVersion
1070
     0
  0
VISUALSTYLE
  5
AA6
102
{ACAD_REACTORS
330
AA1
102
}
330
AA1
100
AcDbVisualStyle
  2
Basic
 70
     7
 71
     1
 72
     0
 73
     1
 90
        0
 40
-0.6
 41
-30.0
 62
     5
 63
     7
 74
     0
 91
        4
 64
     7
 65
   257
 75
     1
175
     1
 42
1.0
 92
        8
 66
     7
 43
1.0
 76
     1
 77
     6
 78
     2
 67
     7
 79
     5
170
     0
171
     0
290
     0
174
     0
 93
        1
 44
0.0
173
     0
291
     1
 45
0.0
1001
ACAD
1000
AcDbSavedByObjectVersion
1070
     0
  0
VISUALSTYLE
  5
AAD
102
{ACAD_REACTORS
330
AA1
102
}
330
AA1
100
AcDbVisualStyle
  2
Brighten
 70
    12
 71
     2
 72
     2
 73
     0
 90
        0
 40
-0.6
 41
-30.0
 62
     5
 63
     7
 74
     1
 91
        4
 64
     7
 65
   257
 75
     1
175
     1
 42
1.0
 92
        8
 66
     7
 43
1.0
 76
     1
 77
     6
 78
     2
 67
     7
 79
     5
170
     0
171
     0
290
     0
174
     0
 93
        1
 44
50.0
173
     0
291
     1
 45
0.0
1001
ACAD
1000
AcDbSavedByObjectVersion
1070
     0
  0
VISUALSTYLE
  5
AB1
102
{ACAD_REACTORS
330
AA1
102
}
330
AA1
100
AcDbVisualStyle
  2
ColorChange
 70
    16
 71
     2
 72
     2
 73
     3
 90
        0
 40
-0.6
 41
-30.0
 62
     5
 63
     8
 74
     1
 91
        4
 64
     7
 65
   257
 75
     1
175
     1
 42
1.0
 92
        8
 66
     8
 43
1.0
 76
     1
 77
     6
 78
     2
 67
     7
 79
     5
170
     0
171
     0
290
     0
174
     0
 93
        1
 44
0.0
173
     0
291
     1
 45
0.0
1001
ACAD
1000
AcDbSavedByObjectVersion
1070
     0
  0
VISUALSTYLE
  5
AAA
102
{ACAD_REACTORS
330
AA1
102
}
330
AA1
100
AcDbVisualStyle
  2
Conceptual
 70
     9
 71
     3
 72
     2
 73
     0
 90
        0
 40
-0.6
 41
-30.0
 62
     5
 63
     7
 74
     2
 91
        2
 64
     7
 65
   257
 75
     1
175
     1
 42
40.0
 92
        8
 66
     7
 43
1.0
 76
     1
 77
     6
 78
     2
 67
     7
 79
     3
170
     0
171
     0
290
     0
174
     0
 93
        1
 44
0.0
173
     0
291
     0
 45
0.0
1001
ACAD
1000
AcDbSavedByObjectVersion
1070
     0
  0
VISUALSTYLE
  5
AAC
102
{ACAD_REACTORS
330
AA1
102
}
330
AA1
100
AcDbVisualStyle
  2
Dim
 70
    11
 71
     2
 72
     2
 73
     0
 90
        0
 40
-0.6
 41
-30.0
 62
     5
 63
     7
 74
     1
 91
        4
 64
     7
 65
   257
 75
     1
175
     1
 42
1.0
 92
        8
 66
     7
 43
1.0
 76
     1
 77
     6
 78
     2
 67
     7
 79
     5
170
     0
171
     0
290
     0
174
     0
 93
        1
 44
-50.0
173
     0
291
     1
 45
0.0
1001
ACAD
1000
AcDbSavedByObjectVersion
1070
     0
  0
VISUALSTYLE
  5
AB0
102
{ACAD_REACTORS
330
AA1
102
}
330
AA1
100
AcDbVisualStyle
  2
Facepattern
 70
    15
 71
     2
 72
     2
 73
     0
 90
        0
 40
-0.6
 41
-30.0
 62
     5
 63
     7
 74
     1
 91
        4
 64
     7
 65
   257
 75
     1
175
     1
 42
1.0
 92
        8
 66
     7
 43
1.0
 76
     1
 77
     6
 78
     2
 67
     7
 79
     5
170
     0
171
     0
290
     0
174
     0
 93
        1
 44
0.0
173
     0
291
     1
 45
0.0
1001
ACAD
1000
AcDbSavedByObjectVersion
1070
     0
  0
VISUALSTYLE
  5
AA2
102
{ACAD_REACTORS
330
AA1
102
}
330
AA1
100
AcDbVisualStyle
  2
Flat
 70
     0
 71
     2
 72
     1
 73
     1
 90
        2
 40
-0.6
 41
30.0
 62
     5
 63
     7
 74
     0
 91
        4
 64
     7
 65
   257
 75
     1
175
     1
 42
1.0
 92
        8
 66
     7
 43
1.0
 76
     1
 77
     6
 78
     2
 67
     7
 79
     5
170
     0
171
     0
290
     0
174
     0
 93
       13
 44
0.0
173
     0
291
     1
 45
0.0
1001
ACAD
1000
AcDbSavedByObjectVersion
1070
     0
  0
VISUALSTYLE
  5
AA3
102
{ACAD_REACTORS
330
AA1
102
}
330
AA1
100
AcDbVisualStyle
  2
FlatWithEdges
 70
     1
 71
     2
 72
     1
 73
     1
 90
        2
 40
-0.6
 41
30.0
 62
     5
 63
     7
 74
     1
 91
        4
 64
     7
 65
   257
 75
     1
175
     1
 42
1.0
 92
        0
 66
   257
 43
1.0
 76
     1
 77
     6
 78
     2
 67
     7
 79
     5
170
     0
171
     0
290
     0
174
     0
 93
       13
 44
0.0
173
     0
291
     1
 45
0.0
1001
ACAD
1000
AcDbSavedByObjectVersion
1070
     0
  0
VISUALSTYLE
  5
AA4
102
{ACAD_REACTORS
330
AA1
102
}
330
AA1
100
AcDbVisualStyle
  2
Gouraud
 70
     2
 71
     2
 72
     2
 73
     1
 90
        2
 40
-0.6
 41
30.0
 62
     5
 63
     7
 74
     0
 91
        4
 64
     7
 65
   257
 75
     1
175
     1
 42
1.0
 92
        0
 66
     7
 43
1.0
 76
     1
 77
     6
 78
     2
 67
     7
 79
     5
170
     0
171
     0
290
     0
174
     0
 93
       13
 44
0.0
173
     0
291
     1
 45
0.0
1001
ACAD
1000
AcDbSavedByObjectVersion
1070
     0
  0
VISUALSTYLE
  5
AA5
102
{ACAD_REACTORS
330
AA1
102
}
330
AA1
100
AcDbVisualStyle
  2
GouraudWithEdges
 70
     3
 71
     2
 72
     2
 73
     1
 90
        2
 40
-0.6
 41
30.0
 62
     5
 63
     7
 74
     1
 91
        4
 64
     7
 65
   257
 75
     1
175
     1
 42
1.0
 92
        0
 66
   257
 43
1.0
 76
     1
 77
     6
 78
     2
 67
     7
 79
     5
170
     0
171
     0
290
     0
174
     0
 93
       13
 44
0.0
173
     0
291
     1
 45
0.0
1001
ACAD
1000
AcDbSavedByObjectVersion
1070
     0
  0
VISUALSTYLE
  5
AAF
102
{ACAD_REACTORS
330
AA1
102
}
330
AA1
100
AcDbVisualStyle
  2
Linepattern
 70
    14
 71
     2
 72
     2
 73
     0
 90
        0
 40
-0.6
 41
-30.0
 62
     5
 63
     7
 74
     1
 91
        4
 64
     7
 65
   257
 75
     7
175
     7
 42
1.0
 92
        8
 66
     7
 43
1.0
 76
     1
 77
     6
 78
     2
 67
     7
 79
     5
170
     0
171
     0
290
     0
174
     0
 93
        1
 44
0.0
173
     0
291
     1
 45
0.0
1001
ACAD
1000
AcDbSavedByObjectVersion
1070
     0
  0
VISUALSTYLE
  5
AAB
102
{ACAD_REACTORS
330
AA1
102
}
330
AA1
100
AcDbVisualStyle
  2
Realistic
 70
     8
 71
     2
 72
     2
 73
     0
 90
        0
 40
-0.6
 41
-30.0
 62
     5
 63
     7
 74
     1
 91
        0
 64
     7
 65
   257
 75
     1
175
     1
 42
1.0
 92
        8
 66
     8
 43
1.0
 76
     1
 77
     6
 78
     2
 67
     7
 79
     5
170
     0
171
     0
290
     0
174
     0
 93
       13
 44
0.0
173
     0
291
     0
 45
0.0
1001
ACAD
1000
AcDbSavedByObjectVersion
1070
     0
  0
VISUALSTYLE
  5
AAE
102
{ACAD_REACTORS
330
AA1
102
}
330
AA1
100
AcDbVisualStyle
  2
Thicken
 70
    13
 71
     2
 72
     2
 73
     0
 90
        0
 40
-0.6
 41
-30.0
 62
     5
 63
     7
 74
     1
 91
        4
 64
     7
 65
   257
 75
     1
175
     1
 42
1.0
 92
       12
 66
     7
 43
1.0
 76
     1
 77
     6
 78
     2
 67
     7
 79
     5
170
     0
171
     0
290
     0
174
     0
 93
        1
 44
0.0
173
     0
291
     1
 45
0.0
1001
ACAD
1000
AcDbSavedByObjectVersion
1070
     0
  0
DICTIONARYVAR
  5
AE0
102
{ACAD_REACTORS
330
ADD
102
}
330
ADD
100
DictionaryVariables
280
     0
  1
1:1
  0
DICTIONARYVAR
  5
ADF
102
{ACAD_REACTORS
330
ADD
102
}
330
ADD
100
DictionaryVariables
280
     0
  1
STANDARD
  0
DICTIONARYVAR
  5
ADE
102
{ACAD_REACTORS
330
ADD
102
}
330
ADD
100
DictionaryVariables
280
     0
  1
STANDARD
  0
DICTIONARYVAR
  5
BAB
102
{ACAD_REACTORS
330
ADD
102
}
330
ADD
100
DictionaryVariables
280
     0
  1
2
  0
DICTIONARYVAR
  5
BAA
102
{ACAD_REACTORS
330
ADD
102
}
330
ADD
100
DictionaryVariables
280
     0
  1
1
  0
DICTIONARYVAR
  5
BA9
102
{ACAD_REACTORS
330
ADD
102
}
330
ADD
100
DictionaryVariables
280
     0
  1
0
  0
DICTIONARYVAR
  5
BA8
102
{ACAD_REACTORS
330
ADD
102
}
330
ADD
100
DictionaryVariables
280
     0
  1
127
  0
DICTIONARY
  5
B4A
102
{ACAD_REACTORS
330
B3F
102
}
330
B3F
100
AcDbDictionary
281
     1
  0
XRECORD
  5
B69
102
{ACAD_REACTORS
330
B3F
102
}
330
B3F
100
AcDbXrecord
280
     1
 90
-1023410169
  0
DICTIONARY
  5
BAF
330
A85
100
AcDbDictionary
280
     1
281
     1
  3
ACAD_XREC_ROUNDTRIP
360
BB0
  0
DICTIONARY
  5
BAD
330
A84
100
AcDbDictionary
280
     1
281
     1
  3
ACAD_XREC_ROUNDTRIP
360
BAE
  0
DICTIONARY
  5
A92
330
A91
100
AcDbDictionary
280
     1
281
     1
  3
ACAD_XREC_ROUNDTRIP
360
BB2
  3
BUMPTILE
360
A94
  3
DIFFUSETILE
360
A93
  3
OPACITYTILE
360
A97
  3
REFLECTIONTILE
360
A96
  3
REFRACTIONTILE
360
A98
  3
SPECULARTILE
360
A95
  0
DICTIONARY
  5
A8A
330
A89
100
AcDbDictionary
280
     1
281
     1
  3
ACAD_XREC_ROUNDTRIP
360
BB1
  3
BUMPTILE
360
A8C
  3
DIFFUSETILE
360
A8B
  3
OPACITYTILE
360
A8F
  3
REFLECTIONTILE
360
A8E
  3
REFRACTIONTILE
360
A90
  3
SPECULARTILE
360
A8D
  0
DICTIONARY
  5
A9A
330
A99
100
AcDbDictionary
280
     1
281
     1
  3
ACAD_XREC_ROUNDTRIP
360
BB3
  3
BUMPTILE
360
A9C
  3
DIFFUSETILE
360
A9B
  3
OPACITYTILE
360
A9F
  3
REFLECTIONTILE
360
A9E
  3
REFRACTIONTILE
360
AA0
  3
SPECULARTILE
360
A9D
  0
DICTIONARY
  5
ADA
330
AB4
100
AcDbDictionary
280
     1
281
     1
  3
ACAD_ROUNDTRIP_2008_TABLESTYLE_CELLSTYLEMAP
360
ADB
  3
ACAD_XREC_ROUNDTRIP
360
BB4
  0
XRECORD
  5
BB0
102
{ACAD_REACTORS
330
BAF
102
}
330
BAF
100
AcDbXrecord
280
     1
102
SHADEPLOT
 70
     0
102
SHADEPLOTRESLEVEL
 70
     2
102
SHADEPLOTCUSTOMDPI
 70
   300
  0
XRECORD
  5
BAE
102
{ACAD_REACTORS
330
BAD
102
}
330
BAD
100
AcDbXrecord
280
     1
102
SHADEPLOT
 70
     0
102
SHADEPLOTRESLEVEL
 70
     2
102
SHADEPLOTCUSTOMDPI
 70
   300
  0
XRECORD
  5
BB2
102
{ACAD_REACTORS
330
A92
102
}
330
A92
100
AcDbXrecord
280
     1
102
MATERIAL
148
0.0
149
0.0
149
0.0
 93
        0
 94
      127
282
     0
 72
     0
 77
     0
171
     0
175
     0
179
     0
273
     0
  0
XRECORD
  5
A94
102
{ACAD_REACTORS
330
A92
102
}
330
A92
100
AcDbXrecord
280
     1
270
     1
271
     1
  0
XRECORD
  5
A93
102
{ACAD_REACTORS
330
A92
102
}
330
A92
100
AcDbXrecord
280
     1
270
     1
271
     1
  0
XRECORD
  5
A97
102
{ACAD_REACTORS
330
A92
102
}
330
A92
100
AcDbXrecord
280
     1
270
     1
271
     1
  0
XRECORD
  5
A96
102
{ACAD_REACTORS
330
A92
102
}
330
A92
100
AcDbXrecord
280
     1
270
     1
271
     1
  0
XRECORD
  5
A98
102
{ACAD_REACTORS
330
A92
102
}
330
A92
100
AcDbXrecord
280
     1
270
     1
271
     1
  0
XRECORD
  5
A95
102
{ACAD_REACTORS
330
A92
102
}
330
A92
100
AcDbXrecord
280
     1
270
     1
271
     1
  0
XRECORD
  5
BB1
102
{ACAD_REACTORS
330
A8A
102
}
330
A8A
100
AcDbXrecord
280
     1
102
MATERIAL
148
0.0
149
0.0
149
0.0
 93
        0
 94
      127
282
     0
 72
     0
 77
     0
171
     0
175
     0
179
     0
273
     0
  0
XRECORD
  5
A8C
102
{ACAD_REACTORS
330
A8A
102
}
330
A8A
100
AcDbXrecord
280
     1
270
     1
271
     1
  0
XRECORD
  5
A8B
102
{ACAD_REACTORS
330
A8A
102
}
330
A8A
100
AcDbXrecord
280
     1
270
     1
271
     1
  0
XRECORD
  5
A8F
102
{ACAD_REACTORS
330
A8A
102
}
330
A8A
100
AcDbXrecord
280
     1
270
     1
271
     1
  0
XRECORD
  5
A8E
102
{ACAD_REACTORS
330
A8A
102
}
330
A8A
100
AcDbXrecord
280
     1
270
     1
271
     1
  0
XRECORD
  5
A90
102
{ACAD_REACTORS
330
A8A
102
}
330
A8A
100
AcDbXrecord
280
     1
270
     1
271
     1
  0
XRECORD
  5
A8D
102
{ACAD_REACTORS
330
A8A
102
}
330
A8A
100
AcDbXrecord
280
     1
270
     1
271
     1
  0
XRECORD
  5
BB3
102
{ACAD_REACTORS
330
A9A
102
}
330
A9A
100
AcDbXrecord
280
     1
102
MATERIAL
148
0.0
149
0.0
149
0.0
 93
        0
 94
      127
282
     0
 72
     0
 77
     0
171
     0
175
     0
179
     0
273
     0
  0
XRECORD
  5
A9C
102
{ACAD_REACTORS
330
A9A
102
}
330
A9A
100
AcDbXrecord
280
     1
270
     1
271
     1
  0
XRECORD
  5
A9B
102
{ACAD_REACTORS
330
A9A
102
}
330
A9A
100
AcDbXrecord
280
     1
270
     1
271
     1
  0
XRECORD
  5
A9F
102
{ACAD_REACTORS
330
A9A
102
}
330
A9A
100
AcDbXrecord
280
     1
270
     1
271
     1
  0
XRECORD
  5
A9E
102
{ACAD_REACTORS
330
A9A
102
}
330
A9A
100
AcDbXrecord
280
     1
270
     1
271
     1
  0
XRECORD
  5
AA0
102
{ACAD_REACTORS
330
A9A
102
}
330
A9A
100
AcDbXrecord
280
     1
270
     1
271
     1
  0
XRECORD
  5
A9D
102
{ACAD_REACTORS
330
A9A
102
}
330
A9A
100
AcDbXrecord
280
     1
270
     1
271
     1
  0
ACAD_PROXY_OBJECT
  5
ADB
102
{ACAD_REACTORS
330
ADA
102
}
330
ADA
100
AcDbProxyObject
 90
      499
 91
      508
 95
    65563
 70
     0
 93
     5441
310
40D054060020000020000003200101A0000800029416000000304000000000000001840404000000000000F83F0000000000003E0FC000000000000F83F0000000000003E0FC0000000000001240000000000000049010640640600000030400FEFFFFFF8000000000000F23F40A40600000030400FEFFFFFF800000000000
310
0F23F41240600000030400FEFFFFFF8000000000000F23F42240600000030400FEFFFFFF8000000000000F23F44240600000030400FEFFFFFF8000000000000F23F48240600000030400FEFFFFFF8000000000000F23F4050141501A8000000C800406800020000A5058000000C10000000000000004901010000000000003
310
E0FC000000000000F83F0000000000003E0FC000000000000F83F000000000000049000000000000001240419019018000000C1003FBFFFFFE0000000000003C8FD029018000000C1003FBFFFFFE0000000000003C8FD049018000000C1003FBFFFFFE0000000000003C8FD089018000000C1003FBFFFFFE0000000000003C
310
8FD109018000000C1003FBFFFFFE0000000000003C8FD209018000000C1003FBFFFFFE0000000000003C8FD0240505406A0000003200101A000080002940A000000304000000000000001240404000000000000F83F0000000000003E0FC000000000000F83F0000000000003E0FC000000000000124000000000000004901
310
0640640600000030400FEFFFFFF8000000000000F23F40A40600000030400FEFFFFFF8000000000000F23F41240600000030400FEFFFFFF8000000000000F23F42240600000030400FEFFFFFF8000000000000F23F44240600000030400FEFFFFFF8000000000000F23F48240600000030400FEFFFFFF8000000000000F23F
310
40D029065F005400490054004C0045009075F004800450041004400450052009055F0044004100540041004401CC
340
11
340
0
340
0
340
0
340
0
340
0
340
0
340
11
340
0
340
0
340
0
340
0
340
0
340
0
340
11
340
0
340
0
340
0
340
0
340
0
340
0
 94
        0
1001
ACAD
1000
AcRTDxfName
1000
CELLSTYLEMAP
  0
XRECORD
  5
BB4
102
{ACAD_REACTORS
330
ADA
102
}
330
ADA
100
AcDbXrecord
280
     1
102
ACAD_ROUNDTRIP_PRE2007_TABLESTYLE
 90
      512
 91
        0
  1

 92
      512
 93
        0
  2

 94
      512
 95
        0
  3

  0
ENDSEC
  0
EOF
