  0
SECTION
  2
HEADER
  9
$ACADVER
  1
AC1015
  9
$ACADMAINTVER
 70
    20
  9
$DWGCODEPAGE
  3
ANSI_936
  9
$INSBASE
 10
0.0
 20
0.0
 30
0.0
  9
$EXTMIN
 10
6451.025480395903
 20
-315.5093551615638
 30
0.0
  9
$EXTMAX
 10
15518.12352965084
 20
741.6429326845082
 30
0.0
  9
$LIMMIN
 10
0.0
 20
0.0
  9
$LIMMAX
 10
863.6000000000001
 20
558.8
  9
$ORTHOMODE
 70
     1
  9
$REGENMODE
 70
     1
  9
$FILLMODE
 70
     1
  9
$QTEXTMODE
 70
     0
  9
$MIRRTEXT
 70
     0
  9
$LTSCALE
 40
47.498
  9
$ATTMODE
 70
     1
  9
$TEXTSIZE
 40
0.2
  9
$TRACEWID
 40
0.05
  9
$TEXTSTYLE
  7
STANDARD
  9
$CLAYER
  8
0
  9
$CELTYPE
  6
BYLAYER
  9
$CECOLOR
 62
   256
  9
$CELTSCALE
 40
1.0
  9
$DISPSILH
 70
     0
  9
$DIMSCALE
 40
1.0
  9
$DIMASZ
 40
3.5
  9
$DIMEXO
 40
1.0
  9
$DIMDLI
 40
10.0
  9
$DIMRND
 40
0.0
  9
$DIMDLE
 40
0.0
  9
$DIMEXE
 40
1.0
  9
$DIMTP
 40
0.1
  9
$DIMTM
 40
0.1
  9
$DIMTXT
 40
3.5
  9
$DIMCEN
 40
0.0
  9
$DIMTSZ
 40
0.0
  9
$DIMTOL
 70
     0
  9
$DIMLIM
 70
     0
  9
$DIMTIH
 70
     0
  9
$DIMTOH
 70
     0
  9
$DIMSE1
 70
     0
  9
$DIMSE2
 70
     0
  9
$DIMTAD
 70
     1
  9
$DIMZIN
 70
     8
  9
$DIMBLK
  1

  9
$DIMASO
 70
     1
  9
$DIMSHO
 70
     1
  9
$DIMPOST
  1

  9
$DIMAPOST
  1
"
  9
$DIMALT
 70
     0
  9
$DIMALTD
 70
     2
  9
$DIMALTF
 40
0.0393701
  9
$DIMLFAC
 40
1.0
  9
$DIMTOFL
 70
     1
  9
$DIMTVP
 40
0.0
  9
$DIMTIX
 70
     0
  9
$DIMSOXD
 70
     0
  9
$DIMSAH
 70
     0
  9
$DIMBLK1
  1

  9
$DIMBLK2
  1

  9
$DIMSTYLE
  2
AM_ISO
  9
$DIMCLRD
 70
   256
  9
$DIMCLRE
 70
   256
  9
$DIMCLRT
 70
   140
  9
$DIMTFAC
 40
0.71
  9
$DIMGAP
 40
1.5
  9
$DIMJUST
 70
     0
  9
$DIMSD1
 70
     0
  9
$DIMSD2
 70
     0
  9
$DIMTOLJ
 70
     0
  9
$DIMTZIN
 70
     8
  9
$DIMALTZ
 70
     0
  9
$DIMALTTZ
 70
     0
  9
$DIMUPT
 70
     0
  9
$DIMDEC
 70
     2
  9
$DIMTDEC
 70
     3
  9
$DIMALTU
 70
     2
  9
$DIMALTTD
 70
     4
  9
$DIMTXSTY
  7
STANDARD
  9
$DIMAUNIT
 70
     0
  9
$DIMADEC
 70
     0
  9
$DIMALTRND
 40
0.0
  9
$DIMAZIN
 70
     2
  9
$DIMDSEP
 70
    46
  9
$DIMATFIT
 70
     3
  9
$DIMFRAC
 70
     0
  9
$DIMLDRBLK
  1

  9
$DIMLUNIT
 70
     2
  9
$DIMLWD
 70
    -1
  9
$DIMLWE
 70
    -1
  9
$DIMTMOVE
 70
     0
  9
$LUNITS
 70
     2
  9
$LUPREC
 70
     4
  9
$SKETCHINC
 40
0.1
  9
$FILLETRAD
 40
0.0
  9
$AUNITS
 70
     0
  9
$AUPREC
 70
     0
  9
$MENU
  1
.
  9
$ELEVATION
 40
0.0
  9
$PELEVATION
 40
0.0
  9
$THICKNESS
 40
0.0
  9
$LIMCHECK
 70
     0
  9
$CHAMFERA
 40
0.0
  9
$CHAMFERB
 40
0.0
  9
$CHAMFERC
 40
0.0
  9
$CHAMFERD
 40
0.0
  9
$SKPOLY
 70
     0
  9
$TDCREATE
 40
2456125.637183033
  9
$TDUCREATE
 40
2456125.303849699
  9
$TDUPDATE
 40
2456127.446825348
  9
$TDUUPDATE
 40
2456127.113492014
  9
$TDINDWG
 40
0.0744712731
  9
$TDUSRTIMER
 40
0.0744712731
  9
$USRTIMER
 70
     1
  9
$ANGBASE
 50
0.0
  9
$ANGDIR
 70
     0
  9
$PDMODE
 70
     3
  9
$PDSIZE
 40
7.9375
  9
$PLINEWID
 40
0.0
  9
$SPLFRAME
 70
     0
  9
$SPLINETYPE
 70
     6
  9
$SPLINESEGS
 70
     8
  9
$HANDSEED
  5
5B87
  9
$SURFTAB1
 70
     6
  9
$SURFTAB2
 70
     6
  9
$SURFTYPE
 70
     6
  9
$SURFU
 70
     6
  9
$SURFV
 70
     6
  9
$UCSBASE
  2

  9
$UCSNAME
  2

  9
$UCSORG
 10
0.0
 20
0.0
 30
0.0
  9
$UCSXDIR
 10
1.0
 20
0.0
 30
0.0
  9
$UCSYDIR
 10
0.0
 20
1.0
 30
0.0
  9
$UCSORTHOREF
  2

  9
$UCSORTHOVIEW
 70
     0
  9
$UCSORGTOP
 10
0.0
 20
0.0
 30
0.0
  9
$UCSORGBOTTOM
 10
0.0
 20
0.0
 30
0.0
  9
$UCSORGLEFT
 10
0.0
 20
0.0
 30
0.0
  9
$UCSORGRIGHT
 10
0.0
 20
0.0
 30
0.0
  9
$UCSORGFRONT
 10
0.0
 20
0.0
 30
0.0
  9
$UCSORGBACK
 10
0.0
 20
0.0
 30
0.0
  9
$PUCSBASE
  2

  9
$PUCSNAME
  2

  9
$PUCSORG
 10
0.0
 20
0.0
 30
0.0
  9
$PUCSXDIR
 10
1.0
 20
0.0
 30
0.0
  9
$PUCSYDIR
 10
0.0
 20
1.0
 30
0.0
  9
$PUCSORTHOREF
  2

  9
$PUCSORTHOVIEW
 70
     0
  9
$PUCSORGTOP
 10
0.0
 20
0.0
 30
0.0
  9
$PUCSORGBOTTOM
 10
0.0
 20
0.0
 30
0.0
  9
$PUCSORGLEFT
 10
0.0
 20
0.0
 30
0.0
  9
$PUCSORGRIGHT
 10
0.0
 20
0.0
 30
0.0
  9
$PUCSORGFRONT
 10
0.0
 20
0.0
 30
0.0
  9
$PUCSORGBACK
 10
0.0
 20
0.0
 30
0.0
  9
$USERI1
 70
     0
  9
$USERI2
 70
     0
  9
$USERI3
 70
     0
  9
$USERI4
 70
     0
  9
$USERI5
 70
     0
  9
$USERR1
 40
0.0
  9
$USERR2
 40
0.0
  9
$USERR3
 40
0.0
  9
$USERR4
 40
0.0
  9
$USERR5
 40
0.0
  9
$WORLDVIEW
 70
     1
  9
$SHADEDGE
 70
     3
  9
$SHADEDIF
 70
    70
  9
$TILEMODE
 70
     1
  9
$MAXACTVP
 70
    64
  9
$PINSBASE
 10
0.0
 20
0.0
 30
0.0
  9
$PLIMCHECK
 70
     0
  9
$PEXTMIN
 10
1.000000000000000E+20
 20
1.000000000000000E+20
 30
1.000000000000000E+20
  9
$PEXTMAX
 10
-1.000000000000000E+20
 20
-1.000000000000000E+20
 30
-1.000000000000000E+20
  9
$PLIMMIN
 10
0.0
 20
0.0
  9
$PLIMMAX
 10
12.0
 20
9.0
  9
$UNITMODE
 70
     0
  9
$VISRETAIN
 70
     1
  9
$PLINEGEN
 70
     0
  9
$PSLTSCALE
 70
     1
  9
$TREEDEPTH
 70
  3020
  9
$CMLSTYLE
  2
Standard
  9
$CMLJUST
 70
     0
  9
$CMLSCALE
 40
1.0
  9
$PROXYGRAPHICS
 70
     1
  9
$MEASUREMENT
 70
     1
  9
$CELWEIGHT
370
    -1
  9
$ENDCAPS
280
     0
  9
$JOINSTYLE
280
     0
  9
$LWDISPLAY
290
     0
  9
$INSUNITS
 70
     4
  9
$HYPERLINKBASE
  1

  9
$STYLESHEET
  1

  9
$XEDIT
290
     1
  9
$CEPSNTYPE
380
     0
  9
$PSTYLEMODE
290
     1
  9
$FINGERPRINTGUID
  2
{C14B9A51-EA5E-4909-8B48-3DE2921B4395}
  9
$VERSIONGUID
  2
{80210BDE-88E3-490F-87F4-AC51565E858F}
  9
$EXTNAMES
290
     1
  9
$PSVPSCALE
 40
0.0
  9
$OLESTARTUP
290
     0
  0
ENDSEC
  0
SECTION
  2
CLASSES
  0
CLASS
  1
ACDBDICTIONARYWDFLT
  2
AcDbDictionaryWithDefault
  3
ObjectDBX Classes
 90
        0
280
     0
281
     0
  0
CLASS
  1
ACDBPLACEHOLDER
  2
AcDbPlaceHolder
  3
ObjectDBX Classes
 90
        0
280
     0
281
     0
  0
CLASS
  1
LAYOUT
  2
AcDbLayout
  3
ObjectDBX Classes
 90
        0
280
     0
281
     0
  0
CLASS
  1
TABLESTYLE
  2
AcDbTableStyle
  3
ObjectDBX Classes
 90
     4095
280
     0
281
     0
  0
CLASS
  1
ACAD_TABLE
  2
AcDbTable
  3
ObjectDBX Classes
 90
    33793
280
     0
281
     1
  0
CLASS
  1
MATERIAL
  2
AcDbMaterial
  3
ObjectDBX Classes
 90
     1153
280
     0
281
     0
  0
CLASS
  1
VISUALSTYLE
  2
AcDbVisualStyle
  3
ObjectDBX Classes
 90
     4095
280
     0
281
     0
  0
CLASS
  1
SCALE
  2
AcDbScale
  3
ObjectDBX Classes
 90
     1153
280
     0
281
     0
  0
CLASS
  1
MLEADERSTYLE
  2
AcDbMLeaderStyle
  3
ACDB_MLEADERSTYLE_CLASS
 90
     4095
280
     0
281
     0
  0
CLASS
  1
CELLSTYLEMAP
  2
AcDbCellStyleMap
  3
ObjectDBX Classes
 90
     1152
280
     0
281
     0
  0
CLASS
  1
DICTIONARYVAR
  2
AcDbDictionaryVar
  3
ObjectDBX Classes
 90
        0
280
     0
281
     0
  0
CLASS
  1
ACME_DOCUMENT
  2
AcMeDbDoc
  3
AcMeServices
 90
     1024
280
     0
281
     0
  0
CLASS
  1
AMGSETTINGSOBJ
  2
AmgSettingsObj
  3
"AcadM|Product Description: AutoCAD Mechanical|Company: Autodesk, Inc."
 90
     1024
280
     0
281
     0
  0
CLASS
  1
ACMESCOPE
  2
AcMeScope
  3
AcMeServices
 90
     1024
280
     0
281
     0
  0
CLASS
  1
ACMECOMMANDHISTORY
  2
AcMeCommandHistory
  3
AcMeServices
 90
     1024
280
     0
281
     0
  0
CLASS
  1
ACIMSYSVARMAN
  2
AcImSysVarManager
  3
AcMeServices
 90
     1024
280
     0
281
     0
  0
CLASS
  1
ACIMINTSYSVAR
  2
AcImIntSysVar
  3
AcMeServices
 90
     1024
280
     0
281
     0
  0
CLASS
  1
ACMEDRAWINGMAN
  2
AcMeDrawingMan
  3
AcMeServices
 90
     1024
280
     0
281
     0
  0
CLASS
  1
ACMEVIEW
  2
AcMeView
  3
AcMeServices
 90
     1024
280
     0
281
     0
  0
CLASS
  1
ACDBENTITYCACHE
  2
AcMeEntityCache
  3
AcMeServices
 90
     1024
280
     0
281
     0
  0
CLASS
  1
GSMANAGER
  2
AcMeGSManager
  3
AcMeServices
 90
     1024
280
     0
281
     0
  0
CLASS
  1
AMDTINTERNALREACTOR
  2
AmdtInternalReactor
  3
AcMeServices
 90
     1024
280
     0
281
     0
  0
CLASS
  1
ACMESTATEMGR
  2
AcMeStateMgr
  3
AcMeServices
 90
     1024
280
     0
281
     0
  0
CLASS
  1
ACGREFMASTER
  2
AcGrefMaster
  3
AcAttribServices
 90
     1024
280
     0
281
     0
  0
CLASS
  1
AM_DRAWING_MGR
  2
AcDmDwgMgr
  3
AcMechDwgViewMgmt
 90
     1024
280
     0
281
     0
  0
CLASS
  1
AM_DWG_DOCUMENT
  2
AcDmDwgDocument
  3
AcMechDwgViewMgmt
 90
     1024
280
     0
281
     0
  0
CLASS
  1
AM_DWG_SHEET
  2
AcDmSheet
  3
AcMechDwgViewMgmt
 90
     1024
280
     0
281
     0
  0
CLASS
  1
AM_VIEWDIMPARMAP
  2
AcDmViewDimParMap
  3
AcMechDwgViewMgmt
 90
     1024
280
     0
281
     0
  0
CLASS
  1
ACIMREALSYSVAR
  2
AcImRealSysVar
  3
AcMeServices
 90
     1024
280
     0
281
     0
  0
CLASS
  1
AM_DWGMGR_NAME
  2
AcDmDwgMgrName
  3
AcMechDwgViewMgmt
 90
     1024
280
     0
281
     0
  0
CLASS
  1
ACME_DATABASE
  2
AcMeDbDatabase
  3
AcMeServices
 90
     1024
280
     0
281
     0
  0
CLASS
  1
ACRFINSADJUSTERMGR
  2
AcRfInsAdjusterMgr
  3
AcMeServices
 90
     1024
280
     0
281
     0
  0
CLASS
  1
ACGREFACADMASTER
  2
AcGrefacadMaster
  3
AcGrefServices
 90
     1024
280
     0
281
     0
  0
CLASS
  1
AMDTMENUSTATEMGR
  2
AmdtMenuStateMgr
  3
McadcomServices
 90
     1024
280
     0
281
     0
  0
CLASS
  1
AMDTMCOMMENUSTATE
  2
AmdtMcomMenuState
  3
McadcomServices
 90
     1024
280
     0
281
     0
  0
CLASS
  1
AMIMASTER
  2
AmiMaster
  3
AmiServices
 90
     1024
280
     0
281
     0
  0
CLASS
  1
MAPIAMMOUDLE
  2
MApiAmModule
  3
MApiAmServices
 90
     1024
280
     0
281
     0
  0
CLASS
  1
ACIMSTRSYSVAR
  2
AcImStrSysVar
  3
AcMeServices
 90
     1024
280
     0
281
     0
  0
CLASS
  1
AMDTADMENUSTATE
  2
AmdtAdMenuState
  3
DesignerServices
 90
     1024
280
     0
281
     0
  0
CLASS
  1
ADAPPL
  2
AcAdAppl
  3
DesignerServices
 90
     1024
280
     0
281
     0
  0
CLASS
  1
DEPMGR
  2
AcAdDepMgr
  3
DesignerServices
 90
     1024
280
     0
281
     0
  0
CLASS
  1
PARAMMGR
  2
AcAdParamMgr
  3
DesignerServices
 90
     1024
280
     0
281
     0
  0
CLASS
  1
PARAMSCOPE
  2
AcAdParamScope
  3
DesignerServices
 90
     1024
280
     0
281
     0
  0
CLASS
  1
NAMEDAPPL
  2
AcAdNamedAppl
  3
DesignerServices
 90
     1024
280
     0
281
     0
  0
CLASS
  1
AMDTDMMENUSTATE
  2
AmdtDmMenuState
  3
AcMechDwgViewMgmt
 90
     1024
280
     0
281
     0
  0
CLASS
  1
AMDTAMMENUSTATE
  2
AmdtAmMenuState
  3
DesignerAssemblies
 90
     1024
280
     0
281
     0
  0
CLASS
  1
ACAMPROJECT
  2
AcAmProject
  3
DesignerAssemblies
 90
     1024
280
     0
281
     0
  0
CLASS
  1
ACAMGRCOMPDEF
  2
AcAmGrCompDef
  3
DesignerAssemblies
 90
     1024
280
     0
281
     0
  0
CLASS
  1
ACCMCONTEXT
  2
AcCmContext
  3
DesignerAssemblies
 90
     1024
280
     0
281
     0
  0
CLASS
  1
ACAMCOMPDEF
  2
AcAmCompDef
  3
DesignerAssemblies
 90
     1024
280
     0
281
     0
  0
CLASS
  1
ACAMCOMPDEFMGR
  2
AcAmCompDefMgr
  3
DesignerAssemblies
 90
     1024
280
     0
281
     0
  0
CLASS
  1
AMCONTEXTMGR
  2
AcAmContextMgr
  3
DesignerAssemblies
 90
     1024
280
     0
281
     0
  0
CLASS
  1
ACAMCONTEXTMODELER
  2
AcAmContextModeler
  3
DesignerAssemblies
 90
     1024
280
     0
281
     0
  0
CLASS
  1
ACMDATADICTIONARY
  2
AcmDataDictionary
  3
"AcmSymBB|Product Description: AutoCAD Mechanical|Company: Autodesk, Inc."
 90
     1024
280
     0
281
     0
  0
CLASS
  1
CATALOGSTATE
  2
AcAmCatalogState
  3
DesignerAssemblies
 90
     1024
280
     0
281
     0
  0
CLASS
  1
ACAMGRCOMPDEFSET
  2
AcAmGrCompDefSet
  3
DesignerAssemblies
 90
     1024
280
     0
281
     0
  0
CLASS
  1
AMDTBROWSERDBTAB
  2
AmdtBrowserDbTab
  3
McadcomServices
 90
     1024
280
     0
281
     0
  0
CLASS
  1
CBROWSERAPPOBJECT
  2
CBrowserAppObject
  3
McadcomServices
 90
     1024
280
     0
281
     0
  0
CLASS
  1
DM_PLACEHOLDER
  2
AcDmSelsetPlaceholder
  3
AcMechDwgViewMgmt
 90
     1024
280
     0
281
     0
  0
CLASS
  1
EXACXREFPANELOBJECT
  2
ExAcXREFPanelObject
  3
EXAC_ESW
 90
     1025
280
     0
281
     0
  0
CLASS
  1
NPOCOLLECTION
  2
AcDbImpNonPersistentObjectsCollection
  3
ObjectDBX Classes
 90
     1153
280
     0
281
     0
  0
CLASS
  1
ACMSTANDARDISO
  2
AcmStandardISO
  3
"Amdt_StdImp|Product Description: AutoCAD Mechanical|Company: Autodesk, Inc."
 90
     1024
280
     0
281
     0
  0
CLASS
  1
AMDTEDGESTANDARDISO13715
  2
AmdtEdgeStdISO13715
  3
"Amdt_StdImp|Product Description: AutoCAD Mechanical|Company: Autodesk, Inc."
 90
     1024
280
     0
281
     0
  0
CLASS
  1
ACMSURFSTANDARDISO2002
  2
AcmSurfTextStdISO2002
  3
"Amdt_StdImp|Product Description: AutoCAD Mechanical|Company: Autodesk, Inc."
 90
     1024
280
     0
281
     0
  0
CLASS
  1
ACMFCFSTANDARDISO
  2
AcmFCFStdISO
  3
"Amdt_StdImp|Product Description: AutoCAD Mechanical|Company: Autodesk, Inc."
 90
     1024
280
     0
281
     0
  0
CLASS
  1
ACMWELDSTANDARDISO
  2
AcmWeldingStdISO
  3
"Amdt_StdImp|Product Description: AutoCAD Mechanical|Company: Autodesk, Inc."
 90
     1024
280
     0
281
     0
  0
CLASS
  1
ACMIDSTANDARDISO
  2
AcmIdStdISO
  3
"Amdt_StdImp|Product Description: AutoCAD Mechanical|Company: Autodesk, Inc."
 90
     1024
280
     0
281
     0
  0
CLASS
  1
ACMDATUMSTANDARDISO
  2
AcmDatumStdISO
  3
"Amdt_StdImp|Product Description: AutoCAD Mechanical|Company: Autodesk, Inc."
 90
     1024
280
     0
281
     0
  0
CLASS
  1
ACMBOMSTANDARDISO
  2
AcmBOMStdISO
  3
"Amdt_StdImp|Product Description: AutoCAD Mechanical|Company: Autodesk, Inc."
 90
     1024
280
     0
281
     0
  0
CLASS
  1
ACMDETAILSTANDARDISO
  2
AmdtDetailSymStdISO
  3
"Amdt_StdImp|Product Description: AutoCAD Mechanical|Company: Autodesk, Inc."
 90
     1024
280
     0
281
     0
  0
CLASS
  1
ACMSECTIONSTANDARDISO2001
  2
AmdtSectionSymStdISO2001
  3
"Amdt_StdImp|Product Description: AutoCAD Mechanical|Company: Autodesk, Inc."
 90
     1024
280
     0
281
     0
  0
CLASS
  1
ACMCENTERLINESTANDARDISO
  2
AmdtCenterLineStdISO
  3
"Amdt_StdImp|Product Description: AutoCAD Mechanical|Company: Autodesk, Inc."
 90
     1024
280
     0
281
     0
  0
CLASS
  1
ACMTHREADLINESTANDARDISO
  2
AmdtThreadLineStdISO
  3
"Amdt_StdImp|Product Description: AutoCAD Mechanical|Company: Autodesk, Inc."
 90
     1024
280
     0
281
     0
  0
CLASS
  1
ACMNOTESTANDARDISO
  2
AmdtNoteStdISO
  3
"Amdt_StdImp|Product Description: AutoCAD Mechanical|Company: Autodesk, Inc."
 90
     1024
280
     0
281
     0
  0
CLASS
  1
ACMTAPERSTANDARDISO
  2
AcmTaperStdISO
  3
"Amdt_StdImp|Product Description: AutoCAD Mechanical|Company: Autodesk, Inc."
 90
     1024
280
     0
281
     0
  0
CLASS
  1
ACMANOOTATIONVIEWSTANDARDISO
  2
AmdtAnViewStdISO
  3
"Amdt_StdImp|Product Description: AutoCAD Mechanical|Company: Autodesk, Inc."
 90
     1024
280
     0
281
     0
  0
CLASS
  1
ACAMGLAYSTD
  2
AcAmgLayStd
  3
"AmgLay|Product Description: AutoCAD Mechanical|Company: Autodesk, Inc."
 90
     1024
280
     0
281
     0
  0
CLASS
  1
ACAMGDIMSTD
  2
AcAmgDimStd
  3
"AmgDim|Product Description: AutoCAD Mechanical|Company: Autodesk, Inc."
 90
     1024
280
     0
281
     0
  0
CLASS
  1
AMGOBJPROPCFG
  2
AmgObjPropCfg
  3
"AmgLay|Product Description: AutoCAD Mechanical|Company: Autodesk, Inc."
 90
     1025
280
     0
281
     0
  0
CLASS
  1
ACAMGHOLECHARTSTDISO
  2
AcAmgHoleChartStdISO
  3
AmgDim|Product Description: AutoCAD Mechanical|Company: Autodesk, Inc.
 90
     1024
280
     0
281
     0
  0
CLASS
  1
ACAMGTITLESTD
  2
AcAmgTitleStd
  3
"AmgTitle|Product Description: AutoCAD Mechanical|Company: Autodesk, Inc."
 90
     4095
280
     0
281
     0
  0
CLASS
  1
AMDTNOTETEMPLATEDB
  2
AmdtNoteTemplateDB
  3
AcmSymBB|Product Description: AutoCAD Mechanical|Company: Autodesk, Inc.
 90
     1024
280
     0
281
     0
  0
CLASS
  1
ACAMGFILTERDAT
  2
AcAmgFilterDat
  3
"AcadM|Product Description: AutoCAD Mechanical|Company: Autodesk, Inc."
 90
     1024
280
     0
281
     0
  0
CLASS
  1
CAMSSTRUCTBTNSTATE
  2
StructBtnState
  3
DesignerAssemblies
 90
     1024
280
     0
281
     0
  0
CLASS
  1
SORTENTSTABLE
  2
AcDbSortentsTable
  3
ObjectDBX Classes
 90
        0
280
     0
281
     0
  0
ENDSEC
  0
SECTION
  2
TABLES
  0
TABLE
  2
VPORT
  5
8
330
0
100
AcDbSymbolTable
 70
     1
  0
VPORT
  5
1F4
330
8
100
AcDbSymbolTableRecord
100
AcDbViewportTableRecord
  2
*ACTIVE
 70
     0
 10
0.0
 20
0.0
 11
1.0
 21
1.0
 12
14691.85871193602
 22
140.9649078085494
 13
0.0
 23
0.0
 14
1.0
 24
1.0
 15
0.0
 25
0.0
 16
0.0
 26
0.0
 36
1.0
 17
0.0
 27
0.0
 37
0.0
 40
2020.975841290609
 41
1.972383720930232
 42
50.0
 43
0.0
 44
0.0
 50
0.0
 51
0.0
 71
     0
 72
   100
 73
     1
 74
     1
 75
     0
 76
     0
 77
     0
 78
     0
281
     0
 65
     1
110
0.0
120
0.0
130
0.0
111
1.0
121
0.0
131
0.0
112
0.0
122
1.0
132
0.0
 79
     0
146
0.0
  0
ENDTAB
  0
TABLE
  2
LTYPE
  5
5
330
0
100
AcDbSymbolTable
 70
    17
  0
LTYPE
  5
14
330
5
100
AcDbSymbolTableRecord
100
AcDbLinetypeTableRecord
  2
BYBLOCK
 70
     0
  3

 72
    65
 73
     0
 40
0.0
  0
LTYPE
  5
15
330
5
100
AcDbSymbolTableRecord
100
AcDbLinetypeTableRecord
  2
BYLAYER
 70
     0
  3

 72
    65
 73
     0
 40
0.0
  0
LTYPE
  5
16
330
5
100
AcDbSymbolTableRecord
100
AcDbLinetypeTableRecord
  2
CONTINUOUS
 70
     0
  3
Solid line
 72
    65
 73
     0
 40
0.0
  0
LTYPE
  5
1F5
330
5
100
AcDbSymbolTableRecord
100
AcDbLinetypeTableRecord
  2
CENTER
 70
     0
  3
____ _ ____ _ ____ _ ____ _ ____ _ ____ _ ____
 72
    65
 73
     4
 40
0.6
 49
0.375
 74
     0
 49
-0.075
 74
     0
 49
0.075
 74
     0
 49
-0.075
 74
     0
  0
LTYPE
  5
1F6
330
5
100
AcDbSymbolTableRecord
100
AcDbLinetypeTableRecord
  2
HIDDEN
 70
     0
  3
- - - - - - - - - - - - - - - - - - - -
 72
    65
 73
     2
 40
0.2
 49
0.1
 74
     0
 49
-0.1
 74
     0
  0
LTYPE
  5
1F7
330
5
100
AcDbSymbolTableRecord
100
AcDbLinetypeTableRecord
  2
PHANTOM
 70
     0
  3
_____ _ _ _____ _ _ _____ _ _ _____
 72
    65
 73
     6
 40
0.8
 49
0.45
 74
     0
 49
-0.05
 74
     0
 49
0.1
 74
     0
 49
-0.05
 74
     0
 49
0.1
 74
     0
 49
-0.05
 74
     0
  0
LTYPE
  5
1F8
330
5
100
AcDbSymbolTableRecord
100
AcDbLinetypeTableRecord
  2
DOT
 70
     0
  3
. . . . . . . . . . . . . . . . . . . .
 72
    65
 73
     2
 40
0.2
 49
0.1
 74
     0
 49
-0.1
 74
     0
  0
LTYPE
  5
1F9
330
5
100
AcDbSymbolTableRecord
100
AcDbLinetypeTableRecord
  2
DASHED
 70
     0
  3
- - - - - - - - - - - - - - - - - - - -
 72
    65
 73
     2
 40
0.2
 49
0.1
 74
     0
 49
-0.1
 74
     0
  0
LTYPE
  5
1B57
330
5
100
AcDbSymbolTableRecord
100
AcDbLinetypeTableRecord
  2
PHANTOM2
 70
     0
  3
Phantom (.5x) ___ _ _ ___ _ _ ___ _ _ ___ _ _
 72
    65
 73
     6
 40
31.75
 49
15.875
 74
     0
 49
-3.174999999999999
 74
     0
 49
3.174999999999999
 74
     0
 49
-3.174999999999999
 74
     0
 49
3.174999999999999
 74
     0
 49
-3.174999999999999
 74
     0
  0
LTYPE
  5
1B9F
330
5
100
AcDbSymbolTableRecord
100
AcDbLinetypeTableRecord
  2
AM_ISO02W050
 70
     0
  3
__ __ __ __ __ __ __ __ __ __ __ __ __ __ __
 72
    65
 73
     2
 40
7.5
 49
6.0
 74
     0
 49
-1.5
 74
     0
  0
LTYPE
  5
1BA0
330
5
100
AcDbSymbolTableRecord
100
AcDbLinetypeTableRecord
  2
AM_ISO08W050
 70
     0
  3
____ . ____ . ____ . ____ . ____ . ____ . ____
 72
    65
 73
     4
 40
18.0
 49
12.0
 74
     0
 49
-1.5
 74
     0
 49
3.0
 74
     0
 49
-1.5
 74
     0
  0
LTYPE
  5
1BA1
330
5
100
AcDbSymbolTableRecord
100
AcDbLinetypeTableRecord
  2
AM_ISO09W050
 70
     0
  3
_____ . . _____ . . _____ . . ____ .. ____
 72
    65
 73
     6
 40
22.5
 49
12.0
 74
     0
 49
-1.5
 74
     0
 49
3.0
 74
     0
 49
-1.5
 74
     0
 49
3.0
 74
     0
 49
-1.5
 74
     0
  0
LTYPE
  5
1BA2
330
5
100
AcDbSymbolTableRecord
100
AcDbLinetypeTableRecord
  2
Amconstr
 70
     0
  3
_______________________
 72
    65
 73
     2
 40
9999.0
 49
9999.0
 74
     0
 49
0.0
 74
     0
  0
LTYPE
  5
1BA3
330
5
100
AcDbSymbolTableRecord
100
AcDbLinetypeTableRecord
  2
AM_ISO08W050x2
 70
     0
  3
__ . __ . __ . __ . __ . __
 72
    65
 73
     4
 40
9.0
 49
6.0
 74
     0
 49
-0.75
 74
     0
 49
1.5
 74
     0
 49
-0.75
 74
     0
  0
LTYPE
  5
1BA4
330
5
100
AcDbSymbolTableRecord
100
AcDbLinetypeTableRecord
  2
AM_ISO02W050x2
 70
     0
  3
 _ _ _ _ _ _ _ _ _ _ _ _
 72
    65
 73
     2
 40
3.75
 49
3.0
 74
     0
 49
-0.75
 74
     0
  0
LTYPE
  5
1BA7
330
5
100
AcDbSymbolTableRecord
100
AcDbLinetypeTableRecord
  2
Amzigzag
 70
     0
  3
/\/-/\/-/\/-/\/-/\/-/\/
 72
    65
 73
     2
 40
11.0001
 49
0.0001
 74
     4
 75
   136
340
1BA6
 46
0.04
 50
0.0
 44
0.0
 45
0.0
 49
-11.0
 74
     0
  0
LTYPE
  5
1BB6
330
5
100
AcDbSymbolTableRecord
100
AcDbLinetypeTableRecord
  2
ACISOWELD
 70
     0
  3
_ _ _ _ _
 72
    65
 73
     2
 40
2.0
 49
2.0
 74
     0
 49
-1.0
 74
     0
  0
LTYPE
  5
1BB7
330
5
100
AcDbSymbolTableRecord
100
AcDbLinetypeTableRecord
  2
ACISOTGB
 70
     0
  3
__ . . __ . .
 72
    65
 73
     6
 40
9.0
 49
4.0
 74
     0
 49
-1.0
 74
     0
 49
1.0
 74
     0
 49
-1.0
 74
     0
 49
1.0
 74
     0
 49
-1.0
 74
     0
  0
LTYPE
  5
1BB8
330
5
100
AcDbSymbolTableRecord
100
AcDbLinetypeTableRecord
  2
ACISOTGL
 70
     0
  3
_ _ _ _ _
 72
    65
 73
     2
 40
3.0
 49
2.0
 74
     0
 49
-1.0
 74
     0
  0
ENDTAB
  0
TABLE
  2
LAYER
  5
2
330
0
100
AcDbSymbolTable
 70
    41
  0
LAYER
  5
10
102
{ACAD_XDICTIONARY
360
460E
102
}
330
2
100
AcDbSymbolTableRecord
100
AcDbLayerTableRecord
  2
0
 70
     0
 62
     7
  6
CONTINUOUS
370
    -3
390
F
  0
LAYER
  5
1FA
102
{ACAD_XDICTIONARY
360
4610
102
}
330
2
100
AcDbSymbolTableRecord
100
AcDbLayerTableRecord
  2
DEFAULT_1
 70
     0
 62
     7
  6
CENTER
370
    -3
390
F
  0
LAYER
  5
1FB
102
{ACAD_XDICTIONARY
360
4612
102
}
330
2
100
AcDbSymbolTableRecord
100
AcDbLayerTableRecord
  2
DEFAULT_2
 70
     0
 62
     8
  6
HIDDEN
370
    -3
390
F
  0
LAYER
  5
1FC
102
{ACAD_XDICTIONARY
360
4614
102
}
330
2
100
AcDbSymbolTableRecord
100
AcDbLayerTableRecord
  2
DEFAULT_3
 70
     0
 62
     7
  6
PHANTOM
370
    -3
390
F
  0
LAYER
  5
1FD
102
{ACAD_XDICTIONARY
360
4616
102
}
330
2
100
AcDbSymbolTableRecord
100
AcDbLayerTableRecord
  2
01_ALL_DTM_PLN
 70
     0
 62
     7
  6
CONTINUOUS
370
    -3
390
F
  0
LAYER
  5
1FE
102
{ACAD_XDICTIONARY
360
4618
102
}
330
2
100
AcDbSymbolTableRecord
100
AcDbLayerTableRecord
  2
01__ASM_ALL_DTM_PLN
 70
     0
 62
     7
  6
CONTINUOUS
370
    -3
390
F
  0
LAYER
  5
1FF
102
{ACAD_XDICTIONARY
360
461A
102
}
330
2
100
AcDbSymbolTableRecord
100
AcDbLayerTableRecord
  2
01__ASM_DEF_DTM_PLN
 70
     0
 62
     7
  6
CONTINUOUS
370
    -3
390
F
  0
LAYER
  5
200
102
{ACAD_XDICTIONARY
360
461C
102
}
330
2
100
AcDbSymbolTableRecord
100
AcDbLayerTableRecord
  2
01___PRT_ALL_DTM_PLN
 70
     0
 62
     7
  6
CONTINUOUS
370
    -3
390
F
  0
LAYER
  5
201
102
{ACAD_XDICTIONARY
360
461E
102
}
330
2
100
AcDbSymbolTableRecord
100
AcDbLayerTableRecord
  2
01___PRT_DEF_DTM_PLN
 70
     0
 62
     7
  6
CONTINUOUS
370
    -3
390
F
  0
LAYER
  5
202
102
{ACAD_XDICTIONARY
360
4620
102
}
330
2
100
AcDbSymbolTableRecord
100
AcDbLayerTableRecord
  2
02_ALL_AXES
 70
     0
 62
     7
  6
CONTINUOUS
370
    -3
390
F
  0
LAYER
  5
203
102
{ACAD_XDICTIONARY
360
4622
102
}
330
2
100
AcDbSymbolTableRecord
100
AcDbLayerTableRecord
  2
02__ASM_ALL_AXES
 70
     0
 62
     7
  6
CONTINUOUS
370
    -3
390
F
  0
LAYER
  5
204
102
{ACAD_XDICTIONARY
360
4624
102
}
330
2
100
AcDbSymbolTableRecord
100
AcDbLayerTableRecord
  2
02___PRT_ALL_AXES
 70
     0
 62
     7
  6
CONTINUOUS
370
    -3
390
F
  0
LAYER
  5
205
102
{ACAD_XDICTIONARY
360
4626
102
}
330
2
100
AcDbSymbolTableRecord
100
AcDbLayerTableRecord
  2
03_ALL_CURVES
 70
     0
 62
     7
  6
CONTINUOUS
370
    -3
390
F
  0
LAYER
  5
206
102
{ACAD_XDICTIONARY
360
4628
102
}
330
2
100
AcDbSymbolTableRecord
100
AcDbLayerTableRecord
  2
03__ASM_ALL_CURVES
 70
     0
 62
     7
  6
CONTINUOUS
370
    -3
390
F
  0
LAYER
  5
207
102
{ACAD_XDICTIONARY
360
462A
102
}
330
2
100
AcDbSymbolTableRecord
100
AcDbLayerTableRecord
  2
03___PRT_ALL_CURVES
 70
     0
 62
     7
  6
CONTINUOUS
370
    -3
390
F
  0
LAYER
  5
208
102
{ACAD_XDICTIONARY
360
462C
102
}
330
2
100
AcDbSymbolTableRecord
100
AcDbLayerTableRecord
  2
04_ALL_DTM_PNT
 70
     0
 62
     7
  6
CONTINUOUS
370
    -3
390
F
  0
LAYER
  5
209
102
{ACAD_XDICTIONARY
360
462E
102
}
330
2
100
AcDbSymbolTableRecord
100
AcDbLayerTableRecord
  2
04__ASM_ALL_DTM_PNT
 70
     0
 62
     7
  6
CONTINUOUS
370
    -3
390
F
  0
LAYER
  5
20A
102
{ACAD_XDICTIONARY
360
4630
102
}
330
2
100
AcDbSymbolTableRecord
100
AcDbLayerTableRecord
  2
04___PRT_ALL_DTM_PNT
 70
     0
 62
     7
  6
CONTINUOUS
370
    -3
390
F
  0
LAYER
  5
20B
102
{ACAD_XDICTIONARY
360
4632
102
}
330
2
100
AcDbSymbolTableRecord
100
AcDbLayerTableRecord
  2
05_ALL_DTM_CSYS
 70
     0
 62
     7
  6
CONTINUOUS
370
    -3
390
F
  0
LAYER
  5
20C
102
{ACAD_XDICTIONARY
360
4634
102
}
330
2
100
AcDbSymbolTableRecord
100
AcDbLayerTableRecord
  2
05__ASM_ALL_DTM_CSYS
 70
     0
 62
     7
  6
CONTINUOUS
370
    -3
390
F
  0
LAYER
  5
20D
102
{ACAD_XDICTIONARY
360
4636
102
}
330
2
100
AcDbSymbolTableRecord
100
AcDbLayerTableRecord
  2
05__ASM_DEF_DTM_CSYS
 70
     0
 62
     7
  6
CONTINUOUS
370
    -3
390
F
  0
LAYER
  5
20E
102
{ACAD_XDICTIONARY
360
4638
102
}
330
2
100
AcDbSymbolTableRecord
100
AcDbLayerTableRecord
  2
05___PRT_ALL_DTM_CSYS
 70
     0
 62
     7
  6
CONTINUOUS
370
    -3
390
F
  0
LAYER
  5
20F
102
{ACAD_XDICTIONARY
360
463A
102
}
330
2
100
AcDbSymbolTableRecord
100
AcDbLayerTableRecord
  2
05___PRT_DEF_DTM_CSYS
 70
     0
 62
     7
  6
CONTINUOUS
370
    -3
390
F
  0
LAYER
  5
210
102
{ACAD_XDICTIONARY
360
463C
102
}
330
2
100
AcDbSymbolTableRecord
100
AcDbLayerTableRecord
  2
06_ALL_SURFS
 70
     0
 62
     7
  6
CONTINUOUS
370
    -3
390
F
  0
LAYER
  5
211
102
{ACAD_XDICTIONARY
360
463E
102
}
330
2
100
AcDbSymbolTableRecord
100
AcDbLayerTableRecord
  2
06__ASM_ALL_SURFS
 70
     0
 62
     7
  6
CONTINUOUS
370
    -3
390
F
  0
LAYER
  5
212
102
{ACAD_XDICTIONARY
360
4640
102
}
330
2
100
AcDbSymbolTableRecord
100
AcDbLayerTableRecord
  2
06___PRT_ALL_SURFS
 70
     0
 62
     7
  6
CONTINUOUS
370
    -3
390
F
  0
LAYER
  5
213
102
{ACAD_XDICTIONARY
360
4642
102
}
330
2
100
AcDbSymbolTableRecord
100
AcDbLayerTableRecord
  2
07__ASM_ALL_SKELETONS
 70
     0
 62
     7
  6
CONTINUOUS
370
    -3
390
F
  0
LAYER
  5
214
102
{ACAD_XDICTIONARY
360
4644
102
}
330
2
100
AcDbSymbolTableRecord
100
AcDbLayerTableRecord
  2
DATUMS
 70
     0
 62
     7
  6
CONTINUOUS
370
    -3
390
F
  0
LAYER
  5
215
102
{ACAD_XDICTIONARY
360
4646
102
}
330
2
100
AcDbSymbolTableRecord
100
AcDbLayerTableRecord
  2
DATUM_AXIS
 70
     0
 62
     7
  6
CONTINUOUS
370
    -3
390
F
  0
LAYER
  5
216
102
{ACAD_XDICTIONARY
360
4648
102
}
330
2
100
AcDbSymbolTableRecord
100
AcDbLayerTableRecord
  2
DATUM_CSYS
 70
     0
 62
     7
  6
CONTINUOUS
370
    -3
390
F
  0
LAYER
  5
217
102
{ACAD_XDICTIONARY
360
464A
102
}
330
2
100
AcDbSymbolTableRecord
100
AcDbLayerTableRecord
  2
DATUM_PLANE
 70
     0
 62
     7
  6
CONTINUOUS
370
    -3
390
F
  0
LAYER
  5
218
102
{ACAD_XDICTIONARY
360
464C
102
}
330
2
100
AcDbSymbolTableRecord
100
AcDbLayerTableRecord
  2
DATUM_POINT
 70
     0
 62
     7
  6
CONTINUOUS
370
    -3
390
F
  0
LAYER
  5
219
102
{ACAD_XDICTIONARY
360
464E
102
}
330
2
100
AcDbSymbolTableRecord
100
AcDbLayerTableRecord
  2
_CURVE
 70
     0
 62
     7
  6
CONTINUOUS
370
    -3
390
F
  0
LAYER
  5
21A
102
{ACAD_XDICTIONARY
360
4650
102
}
330
2
100
AcDbSymbolTableRecord
100
AcDbLayerTableRecord
  2
_SURFACE
 70
     0
 62
     7
  6
CONTINUOUS
370
    -3
390
F
  0
LAYER
  5
21B
102
{ACAD_XDICTIONARY
360
4652
102
}
330
2
100
AcDbSymbolTableRecord
100
AcDbLayerTableRecord
  2
__REF_CURVE
 70
     0
 62
     7
  6
CONTINUOUS
370
    -3
390
F
  0
LAYER
  5
21C
102
{ACAD_XDICTIONARY
360
4654
102
}
330
2
100
AcDbSymbolTableRecord
100
AcDbLayerTableRecord
  2
__REF_SURFACE
 70
     0
 62
     7
  6
CONTINUOUS
370
    -3
390
F
  0
LAYER
  5
21D
102
{ACAD_XDICTIONARY
360
4656
102
}
330
2
100
AcDbSymbolTableRecord
100
AcDbLayerTableRecord
  2
___COSMETIC_SKETCH
 70
     0
 62
     7
  6
CONTINUOUS
370
    -3
390
F
  0
LAYER
  5
21E
102
{ACAD_XDICTIONARY
360
4658
102
}
330
2
100
AcDbSymbolTableRecord
100
AcDbLayerTableRecord
  2
___GDT
 70
     0
 62
     7
  6
CONTINUOUS
370
    -3
390
F
  0
LAYER
  5
21F
102
{ACAD_XDICTIONARY
360
465A
102
}
330
2
100
AcDbSymbolTableRecord
100
AcDbLayerTableRecord
  2
___NOTE
 70
     0
 62
     7
  6
CONTINUOUS
370
    -3
390
F
  0
LAYER
  5
220
102
{ACAD_XDICTIONARY
360
465C
102
}
330
2
100
AcDbSymbolTableRecord
100
AcDbLayerTableRecord
  2
___SYMBOL
 70
     0
 62
     7
  6
CONTINUOUS
370
    -3
390
F
  0
LAYER
  5
32AF
330
2
100
AcDbSymbolTableRecord
100
AcDbLayerTableRecord
  2
Defpoints
 70
     0
 62
     7
  6
CONTINUOUS
290
     0
370
    -3
390
F
  0
ENDTAB
  0
TABLE
  2
STYLE
  5
3
330
0
100
AcDbSymbolTable
 70
    19
  0
STYLE
  5
11
330
3
100
AcDbSymbolTableRecord
100
AcDbTextStyleTableRecord
  2
STANDARD
 70
     0
 40
0.0
 41
0.8
 50
0.0
 71
     0
 42
0.2
  3
txt
  4

  0
STYLE
  5
221
330
3
100
AcDbSymbolTableRecord
100
AcDbTextStyleTableRecord
  2
TEXTSTYLE_1
 70
     0
 40
0.0
 41
0.8
 50
0.0
 71
     0
 42
0.2
  3
gdt
  4

  0
STYLE
  5
222
330
3
100
AcDbSymbolTableRecord
100
AcDbTextStyleTableRecord
  2
TEXTSTYLE_2
 70
     0
 40
0.0
 41
1.04
 50
0.0
 71
     0
 42
0.2
  3
txt
  4

  0
STYLE
  5
223
330
3
100
AcDbSymbolTableRecord
100
AcDbTextStyleTableRecord
  2
TEXTSTYLE_3
 70
     0
 40
0.0
 41
0.9399999999999998
 50
0.0
 71
     0
 42
0.2
  3
txt
  4

  0
STYLE
  5
224
330
3
100
AcDbSymbolTableRecord
100
AcDbTextStyleTableRecord
  2
TEXTSTYLE_4
 70
     0
 40
0.0
 41
1.0
 50
0.0
 71
     0
 42
0.2
  3
txt
  4

  0
STYLE
  5
225
330
3
100
AcDbSymbolTableRecord
100
AcDbTextStyleTableRecord
  2
TEXTSTYLE_5
 70
     0
 40
0.0
 41
1.199999999999999
 50
0.0
 71
     0
 42
0.2
  3
txt
  4

  0
STYLE
  5
226
330
3
100
AcDbSymbolTableRecord
100
AcDbTextStyleTableRecord
  2
TEXTSTYLE_6
 70
     0
 40
0.0
 41
1.02
 50
0.0
 71
     0
 42
0.2
  3
txt
  4

  0
STYLE
  5
227
330
3
100
AcDbSymbolTableRecord
100
AcDbTextStyleTableRecord
  2
TEXTSTYLE_7
 70
     0
 40
0.0
 41
0.925
 50
0.0
 71
     0
 42
0.2
  3
txt
  4

  0
STYLE
  5
228
330
3
100
AcDbSymbolTableRecord
100
AcDbTextStyleTableRecord
  2
TEXTSTYLE_8
 70
     0
 40
0.0
 41
1.0500002909
 50
0.0
 71
     0
 42
0.2
  3
txt
  4

  0
STYLE
  5
229
330
3
100
AcDbSymbolTableRecord
100
AcDbTextStyleTableRecord
  2
TEXTSTYLE_9
 70
     0
 40
0.0
 41
1.09
 50
0.0
 71
     0
 42
0.2
  3
txt
  4

  0
STYLE
  5
22A
330
3
100
AcDbSymbolTableRecord
100
AcDbTextStyleTableRecord
  2
TEXTSTYLE_10
 70
     0
 40
0.0
 41
0.9899995429
 50
0.0
 71
     0
 42
0.2
  3
txt
  4

  0
STYLE
  5
22B
330
3
100
AcDbSymbolTableRecord
100
AcDbTextStyleTableRecord
  2
TEXTSTYLE_11
 70
     0
 40
0.0
 41
1.07
 50
0.0
 71
     0
 42
0.2
  3
txt
  4

  0
STYLE
  5
22C
330
3
100
AcDbSymbolTableRecord
100
AcDbTextStyleTableRecord
  2
TEXTSTYLE_12
 70
     0
 40
0.0
 41
1.229999999999999
 50
0.0
 71
     0
 42
0.2
  3
txt
  4

  0
STYLE
  5
22D
330
3
100
AcDbSymbolTableRecord
100
AcDbTextStyleTableRecord
  2
TEXTSTYLE_13
 70
     0
 40
0.0
 41
0.9700032
 50
0.0
 71
     0
 42
0.2
  3
txt
  4

  0
STYLE
  5
22E
330
3
100
AcDbSymbolTableRecord
100
AcDbTextStyleTableRecord
  2
TEXTSTYLE_14
 70
     0
 40
0.0
 41
1.379999999999999
 50
0.0
 71
     0
 42
0.2
  3
txt
  4

  0
STYLE
  5
22F
330
3
100
AcDbSymbolTableRecord
100
AcDbTextStyleTableRecord
  2
TEXTSTYLE_15
 70
     0
 40
0.0
 41
0.95
 50
0.0
 71
     0
 42
0.2
  3
txt
  4

  0
STYLE
  5
1BA6
330
3
100
AcDbSymbolTableRecord
100
AcDbTextStyleTableRecord
  2

 70
     1
 40
0.0
 41
1.0
 50
0.0
 71
     0
 42
0.2
  3
genltshp.shx
  4

  0
STYLE
  5
1BB4
330
3
100
AcDbSymbolTableRecord
100
AcDbTextStyleTableRecord
  2
ACISOTS
 70
     0
 40
1.0
 41
1.0
 50
0.0
 71
     0
 42
0.2
  3
isocp.shx
  4

  0
STYLE
  5
1BB5
330
3
100
AcDbSymbolTableRecord
100
AcDbTextStyleTableRecord
  2
ACISOGDT
 70
     0
 40
0.0
 41
1.0
 50
0.0
 71
     0
 42
0.2
  3
amgdt.shx
  4

  0
ENDTAB
  0
TABLE
  2
VIEW
  5
6
330
0
100
AcDbSymbolTable
 70
     0
  0
ENDTAB
  0
TABLE
  2
UCS
  5
7
330
0
100
AcDbSymbolTable
 70
     0
  0
ENDTAB
  0
TABLE
  2
APPID
  5
9
330
0
100
AcDbSymbolTable
 70
    14
  0
APPID
  5
230
330
9
100
AcDbSymbolTableRecord
100
AcDbRegAppTableRecord
  2
ACAD
 70
     0
  0
APPID
  5
1B15
330
9
100
AcDbSymbolTableRecord
100
AcDbRegAppTableRecord
  2
ACAD_MLEADERVER
 70
     0
  0
APPID
  5
1B2A
330
9
100
AcDbSymbolTableRecord
100
AcDbRegAppTableRecord
  2
MCAD_NO_VIS
 70
     0
  0
APPID
  5
1B2B
330
9
100
AcDbSymbolTableRecord
100
AcDbRegAppTableRecord
  2
ACAD_TEMP_GRAPHIC
 70
     0
  0
APPID
  5
1B59
330
9
100
AcDbSymbolTableRecord
100
AcDbRegAppTableRecord
  2
AD_DRAW
 70
     0
  0
APPID
  5
1B5C
330
9
100
AcDbSymbolTableRecord
100
AcDbRegAppTableRecord
  2
ACATTRIBSERVICES
 70
     0
  0
APPID
  5
1B7D
330
9
100
AcDbSymbolTableRecord
100
AcDbRegAppTableRecord
  2
DESIGNERASSEMBLIES
 70
     0
  0
APPID
  5
1B83
330
9
100
AcDbSymbolTableRecord
100
AcDbRegAppTableRecord
  2
ACADM_DIM_EDIT
 70
     0
  0
APPID
  5
1B84
330
9
100
AcDbSymbolTableRecord
100
AcDbRegAppTableRecord
  2
AMDT_DM_ADJ
 70
     0
  0
APPID
  5
4667
330
9
100
AcDbSymbolTableRecord
100
AcDbRegAppTableRecord
  2
ACAD_EXEMPT_FROM_CAD_STANDARDS
 70
     0
  0
APPID
  5
5B65
330
9
100
AcDbSymbolTableRecord
100
AcDbRegAppTableRecord
  2
ACAD_DSTYLE_DIMARC_LENGTH_SYMBOL
 70
     0
  0
APPID
  5
5B66
330
9
100
AcDbSymbolTableRecord
100
AcDbRegAppTableRecord
  2
ACAD_DSTYLE_DIM_LINETYPE
 70
     0
  0
APPID
  5
5B67
330
9
100
AcDbSymbolTableRecord
100
AcDbRegAppTableRecord
  2
ACAD_DSTYLE_DIM_EXT1_LINETYPE
 70
     0
  0
APPID
  5
5B68
330
9
100
AcDbSymbolTableRecord
100
AcDbRegAppTableRecord
  2
ACAD_DSTYLE_DIM_EXT2_LINETYPE
 70
     0
  0
ENDTAB
  0
TABLE
  2
DIMSTYLE
  5
A
330
0
100
AcDbSymbolTable
 70
    12
100
AcDbDimStyleTable
 71
     1
340
1B9D
  0
DIMSTYLE
105
253
330
A
100
AcDbSymbolTableRecord
100
AcDbDimStyleTableRecord
  2
STANDARD
 70
     0
 41
4.7625
 47
0.1
 48
0.1
 71
     1
 78
     8
140
3.96875
271
     1
272
     1
284
     8
340
11
341
233
342
233
343
233
344
233
  0
DIMSTYLE
105
254
330
A
100
AcDbSymbolTableRecord
100
AcDbDimStyleTableRecord
  2
DIMSTYLE_1
 70
     0
 41
4.7625
 47
3.0
 48
3.0
 71
     1
 78
     8
140
3.96875
144
3.333333333299999
271
     0
272
     0
284
     8
340
11
341
233
342
233
343
233
344
233
  0
DIMSTYLE
105
255
330
A
100
AcDbSymbolTableRecord
100
AcDbDimStyleTableRecord
  2
DIMSTYLE_2
 70
     0
 41
4.7625
 78
     8
140
3.96875
144
3.333333333299999
271
     0
272
     0
284
     8
340
11
341
233
342
233
343
233
344
233
  0
DIMSTYLE
105
256
330
A
100
AcDbSymbolTableRecord
100
AcDbDimStyleTableRecord
  2
DIMSTYLE_3
 70
     0
 41
4.7625
 47
3.0
 48
1.0
 71
     1
 78
     8
140
3.96875
144
3.333333333299999
271
     0
272
     0
284
     8
340
11
341
233
342
233
343
233
344
233
  0
DIMSTYLE
105
257
330
A
100
AcDbSymbolTableRecord
100
AcDbDimStyleTableRecord
  2
DIMSTYLE_4
 70
     0
 41
4.7625
 78
     8
140
3.96875
271
     0
272
     0
284
     8
340
11
341
233
342
233
343
233
344
233
  0
DIMSTYLE
105
1B9D
102
{ACAD_REACTORS
330
1B8C
102
}
330
A
100
AcDbSymbolTableRecord
100
AcDbDimStyleTableRecord
  2
AM_ISO
 70
     0
  4
"
 41
3.5
 42
1.0
 43
10.0
 44
1.0
 47
0.1
 48
0.1
 73
     0
 74
     0
 77
     1
 78
     8
 79
     2
140
3.5
141
0.0
143
0.0393701
146
0.71
147
1.5
172
     1
176
   256
177
   256
178
   140
271
     2
272
     3
274
     4
283
     0
284
     8
340
11
371
    -1
372
    -1
1001
ACAD_DSTYLE_DIMARC_LENGTH_SYMBOL
1070
   379
1070
     1
1001
ACAD_DSTYLE_DIM_LINETYPE
1070
   380
1005
14
1001
ACAD_DSTYLE_DIM_EXT1_LINETYPE
1070
   381
1005
14
1001
ACAD_DSTYLE_DIM_EXT2_LINETYPE
1070
   382
1005
14
  0
DIMSTYLE
105
1BA8
330
A
100
AcDbSymbolTableRecord
100
AcDbDimStyleTableRecord
  2
AM_ISO$3
 70
     0
  4
"
 41
3.5
 42
1.0
 43
10.0
 44
1.0
 47
0.1
 48
0.1
 73
     0
 77
     1
 78
     8
 79
     2
140
3.5
141
0.0
143
0.0393701
146
0.71
147
1.5
176
   256
177
   256
178
   140
271
     2
272
     3
274
     4
283
     0
284
     8
288
     1
289
     0
340
11
371
    -1
372
    -1
1001
ACAD_DSTYLE_DIMARC_LENGTH_SYMBOL
1070
   379
1070
     1
1001
ACAD_DSTYLE_DIM_LINETYPE
1070
   380
1005
14
1001
ACAD_DSTYLE_DIM_EXT1_LINETYPE
1070
   381
1005
14
1001
ACAD_DSTYLE_DIM_EXT2_LINETYPE
1070
   382
1005
14
  0
DIMSTYLE
105
1BA9
330
A
100
AcDbSymbolTableRecord
100
AcDbDimStyleTableRecord
  2
AM_ISO$4
 70
     0
  4
"
 41
3.5
 42
1.0
 43
10.0
 44
1.0
 47
0.1
 48
0.1
 73
     0
 74
     0
 77
     1
 78
     8
 79
     2
140
3.5
141
0.0
143
0.0393701
146
0.71
147
1.5
172
     1
176
   256
177
   256
178
   140
271
     2
272
     3
274
     4
283
     0
284
     8
340
11
371
    -1
372
    -1
1001
ACAD_DSTYLE_DIMARC_LENGTH_SYMBOL
1070
   379
1070
     1
1001
ACAD_DSTYLE_DIM_LINETYPE
1070
   380
1005
14
1001
ACAD_DSTYLE_DIM_EXT1_LINETYPE
1070
   381
1005
14
1001
ACAD_DSTYLE_DIM_EXT2_LINETYPE
1070
   382
1005
14
  0
DIMSTYLE
105
1BAA
330
A
100
AcDbSymbolTableRecord
100
AcDbDimStyleTableRecord
  2
AM_ISO$6
 70
     0
  4
"
 41
3.5
 42
1.0
 43
10.0
 44
1.0
 47
0.1
 48
0.1
 73
     0
 74
     0
 78
     8
 79
     2
140
3.5
141
0.0
143
0.0393701
146
0.71
147
1.5
172
     1
176
   256
177
   256
178
   140
271
     2
272
     3
274
     4
283
     0
284
     8
340
11
371
    -1
372
    -1
1001
ACAD_DSTYLE_DIMARC_LENGTH_SYMBOL
1070
   379
1070
     1
1001
ACAD_DSTYLE_DIM_LINETYPE
1070
   380
1005
14
1001
ACAD_DSTYLE_DIM_EXT1_LINETYPE
1070
   381
1005
14
1001
ACAD_DSTYLE_DIM_EXT2_LINETYPE
1070
   382
1005
14
  0
DIMSTYLE
105
1BAB
330
A
100
AcDbSymbolTableRecord
100
AcDbDimStyleTableRecord
  2
AM_ISO$7
 70
     0
  4
"
 41
3.5
 42
1.0
 43
10.0
 44
1.0
 47
0.1
 48
0.1
 73
     0
 74
     0
 77
     1
 78
     8
 79
     2
140
3.5
141
0.0
143
0.0393701
146
0.71
147
1.5
172
     1
176
   256
177
   256
178
   140
271
     2
272
     3
274
     4
283
     0
284
     8
340
11
371
    -1
372
    -1
1001
ACAD_DSTYLE_DIMARC_LENGTH_SYMBOL
1070
   379
1070
     1
1001
ACAD_DSTYLE_DIM_LINETYPE
1070
   380
1005
14
1001
ACAD_DSTYLE_DIM_EXT1_LINETYPE
1070
   381
1005
14
1001
ACAD_DSTYLE_DIM_EXT2_LINETYPE
1070
   382
1005
14
  0
DIMSTYLE
105
1BAC
330
A
100
AcDbSymbolTableRecord
100
AcDbDimStyleTableRecord
  2
AM_ISO$SF
 70
     0
  4
"
 41
3.5
 42
1.0
 43
10.0
 44
1.0
 47
0.1
 48
0.1
 73
     0
 74
     0
 75
     1
 76
     1
 77
     1
 78
     8
 79
     2
140
3.5
141
0.0
143
0.0393701
146
0.71
147
1.5
172
     1
176
   256
177
   256
178
   140
271
     2
272
     3
274
     4
283
     0
284
     8
340
11
371
    -1
372
    -1
1001
ACAD_DSTYLE_DIMARC_LENGTH_SYMBOL
1070
   379
1070
     1
1001
ACAD_DSTYLE_DIM_LINETYPE
1070
   380
1005
14
1001
ACAD_DSTYLE_DIM_EXT1_LINETYPE
1070
   381
1005
14
1001
ACAD_DSTYLE_DIM_EXT2_LINETYPE
1070
   382
1005
14
  0
DIMSTYLE
105
1BB1
330
A
100
AcDbSymbolTableRecord
100
AcDbDimStyleTableRecord
  2
AM_ISO$SH
 70
     0
  4
"
 41
3.5
 42
1.0
 43
10.0
 44
1.0
 47
0.1
 48
0.1
 73
     0
 74
     0
 75
     1
 76
     1
 77
     1
 78
     8
 79
     2
140
3.5
141
0.0
143
0.0393701
144
2.0
146
0.71
147
1.5
172
     1
173
     1
176
   256
177
   256
178
   140
271
     2
272
     3
274
     4
283
     0
284
     8
340
11
343
1BAD
371
    -1
372
    -1
1001
ACAD_DSTYLE_DIMARC_LENGTH_SYMBOL
1070
   379
1070
     1
1001
ACAD_DSTYLE_DIM_LINETYPE
1070
   380
1005
14
1001
ACAD_DSTYLE_DIM_EXT1_LINETYPE
1070
   381
1005
14
1001
ACAD_DSTYLE_DIM_EXT2_LINETYPE
1070
   382
1005
14
  0
ENDTAB
  0
TABLE
  2
BLOCK_RECORD
  5
1
330
0
100
AcDbSymbolTable
 70
    47
  0
BLOCK_RECORD
  5
231
102
{ACAD_XDICTIONARY
360
467E
102
}
330
1
100
AcDbSymbolTableRecord
100
AcDbBlockTableRecord
  2
*Model_Space
340
1AC0
  0
BLOCK_RECORD
  5
232
330
1
100
AcDbSymbolTableRecord
100
AcDbBlockTableRecord
  2
*Paper_Space
340
1AC1
  0
BLOCK_RECORD
  5
233
330
1
100
AcDbSymbolTableRecord
100
AcDbBlockTableRecord
  2
_FILLED
340
0
102
{BLKREFS
331
33D0
331
33D6
331
33DD
331
33DE
331
33E7
331
33E8
331
33F1
331
33F2
331
33FB
331
33FC
331
3404
331
340B
331
340C
331
3415
331
3416
331
341F
331
3420
331
3429
331
342A
331
3432
331
3438
331
343E
331
3444
331
344A
331
3450
331
3456
331
345D
331
345E
331
3467
331
3468
331
3471
331
3472
331
347B
331
347C
331
3484
331
348B
331
348C
331
3495
331
3496
331
349F
331
34A0
331
34A9
331
34AA
331
34B2
331
34B8
331
34BE
331
34C4
331
34CA
102
}
  0
BLOCK_RECORD
  5
244
330
1
100
AcDbSymbolTableRecord
100
AcDbBlockTableRecord
  2
SYMBOL_18_BL11
340
0
  0
BLOCK_RECORD
  5
245
330
1
100
AcDbSymbolTableRecord
100
AcDbBlockTableRecord
  2
SYMBOL_15_BL10
340
0
  0
BLOCK_RECORD
  5
246
330
1
100
AcDbSymbolTableRecord
100
AcDbBlockTableRecord
  2
SYMBOL_12_BL9
340
0
  0
BLOCK_RECORD
  5
247
330
1
100
AcDbSymbolTableRecord
100
AcDbBlockTableRecord
  2
SYMBOL_11_BL8
340
0
  0
BLOCK_RECORD
  5
248
330
1
100
AcDbSymbolTableRecord
100
AcDbBlockTableRecord
  2
SYMBOL_10_BL7
340
0
  0
BLOCK_RECORD
  5
249
330
1
100
AcDbSymbolTableRecord
100
AcDbBlockTableRecord
  2
SYMBOL_9_BL6
340
0
  0
BLOCK_RECORD
  5
24A
330
1
100
AcDbSymbolTableRecord
100
AcDbBlockTableRecord
  2
SYMBOL_8_BL5
340
0
  0
BLOCK_RECORD
  5
24B
330
1
100
AcDbSymbolTableRecord
100
AcDbBlockTableRecord
  2
SYMBOL_11_BL4
340
0
  0
BLOCK_RECORD
  5
24C
330
1
100
AcDbSymbolTableRecord
100
AcDbBlockTableRecord
  2
SYMBOL_10_BL3
340
0
  0
BLOCK_RECORD
  5
24D
330
1
100
AcDbSymbolTableRecord
100
AcDbBlockTableRecord
  2
SYMBOL_8_BL2
340
0
  0
BLOCK_RECORD
  5
24E
330
1
100
AcDbSymbolTableRecord
100
AcDbBlockTableRecord
  2
SYMBOL_6_BL1
340
0
  0
BLOCK_RECORD
  5
24F
330
1
100
AcDbSymbolTableRecord
100
AcDbBlockTableRecord
  2
SYMBOL_0_BL0
340
0
  0
BLOCK_RECORD
  5
1BAD
330
1
100
AcDbSymbolTableRecord
100
AcDbBlockTableRecord
  2
GENAXEH
340
0
  0
ENDTAB
  0
ENDSEC
  0
SECTION
  2
BLOCKS
  0
BLOCK
  5
20
330
231
100
AcDbEntity
  8
0
100
AcDbBlockBegin
  2
*Model_Space
 70
     0
 10
0.0
 20
0.0
 30
0.0
  3
*Model_Space
  1

  0
ENDBLK
  5
21
330
231
100
AcDbEntity
  8
0
100
AcDbBlockEnd
  0
BLOCK
  5
1C
330
232
100
AcDbEntity
 67
     1
  8
0
100
AcDbBlockBegin
  2
*Paper_Space
 70
     0
 10
0.0
 20
0.0
 30
0.0
  3
*Paper_Space
  1

  0
ENDBLK
  5
1D
330
232
100
AcDbEntity
 67
     1
  8
0
100
AcDbBlockEnd
  0
BLOCK
  5
313
330
233
100
AcDbEntity
  8
0
100
AcDbBlockBegin
  2
_FILLED
 70
     0
 10
0.0
 20
0.0
 30
0.0
  3
_FILLED
  1

  0
SOLID
  5
314
330
233
100
AcDbEntity
  8
0
  6
ByBlock
 62
     0
100
AcDbTrace
 10
0.0
 20
0.0
 30
0.0
 11
-1.0
 21
0.1666666667
 31
0.0
 12
-1.0
 22
-0.1666666667
 32
0.0
 13
-1.0
 23
-0.1666666667
 33
0.0
  0
ENDBLK
  5
315
330
233
100
AcDbEntity
  8
0
  6
ByBlock
 62
     0
100
AcDbBlockEnd
  0
BLOCK
  5
258
330
244
100
AcDbEntity
  8
___SYMBOL
  6
Continuous
 62
     2
100
AcDbBlockBegin
  2
SYMBOL_18_BL11
 70
     0
 10
609.9304788406999
 20
233.477318748
 30
0.0
  3
SYMBOL_18_BL11
  1

  0
LWPOLYLINE
  5
259
330
244
100
AcDbEntity
  8
___SYMBOL
  6
Continuous
 62
     2
100
AcDbPolyline
 90
       12
 70
     0
 43
0.381
 10
609.0996522461
 20
235.4375733398
 10
609.0996522461
 20
231.468829541
 10
610.4887178467
 20
231.468829541
 10
610.6871708495999
 20
231.7995581909
 10
610.8856238525
 20
232.1302868408
 10
610.8856238525
 20
233.1224727905
 10
610.6871708495999
 20
233.4532014404
 10
610.4887178467
 20
233.7839300903
 10
610.6871708495999
 20
234.1146587402
 10
610.6871708495999
 20
235.1068446899
 10
610.4887178467
 20
235.4375733398
 10
609.0996522461
 20
235.4375733398
  0
LWPOLYLINE
  5
25A
330
244
100
AcDbEntity
  8
___SYMBOL
  6
Continuous
 62
     2
100
AcDbPolyline
 90
        2
 70
     0
 43
0.381
 10
609.0996522461
 20
233.7839300903
 10
610.4887178467
 20
233.7839300903
  0
LINE
  5
25B
330
244
100
AcDbEntity
  8
___SYMBOL
  6
Continuous
 62
     7
100
AcDbLine
 10
606.4012432363999
 20
230.556318748
 30
0.0
 11
604.9139788407
 21
232.0435831437
 31
0.0
  0
LINE
  5
25C
330
244
100
AcDbEntity
  8
___SYMBOL
  6
Continuous
 62
     7
100
AcDbLine
 10
604.9139788407
 20
234.9110543524
 30
0.0
 11
604.9139788407
 21
232.0435831437
 31
0.0
  0
LINE
  5
25D
330
244
100
AcDbEntity
  8
___SYMBOL
  6
Continuous
 62
     7
100
AcDbLine
 10
606.4012432363999
 20
236.398318748
 30
0.0
 11
604.9139788407
 21
234.9110543524
 31
0.0
  0
LINE
  5
25E
330
244
100
AcDbEntity
  8
___SYMBOL
  6
Continuous
 62
     7
100
AcDbLine
 10
613.4597144451
 20
230.556318748
 30
0.0
 11
614.9469788406999
 21
232.0435831437
 31
0.0
  0
LINE
  5
25F
330
244
100
AcDbEntity
  8
___SYMBOL
  6
Continuous
 62
     7
100
AcDbLine
 10
614.9469788406999
 20
234.9110543524
 30
0.0
 11
614.9469788406999
 21
232.0435831437
 31
0.0
  0
LINE
  5
260
330
244
100
AcDbEntity
  8
___SYMBOL
  6
Continuous
 62
     7
100
AcDbLine
 10
613.4597144451
 20
236.398318748
 30
0.0
 11
614.9469788406999
 21
234.9110543524
 31
0.0
  0
LINE
  5
261
330
244
100
AcDbEntity
  8
___SYMBOL
  6
Continuous
 62
     7
100
AcDbLine
 10
606.4012432363999
 20
236.398318748
 30
0.0
 11
613.4597144451
 21
236.398318748
 31
0.0
  0
LINE
  5
262
330
244
100
AcDbEntity
  8
___SYMBOL
  6
Continuous
 62
     7
100
AcDbLine
 10
613.4597144451
 20
230.556318748
 30
0.0
 11
606.4012432363999
 21
230.556318748
 31
0.0
  0
ENDBLK
  5
263
330
244
100
AcDbEntity
  8
0
  6
ByBlock
 62
     0
100
AcDbBlockEnd
  0
BLOCK
  5
264
330
245
100
AcDbEntity
  8
___SYMBOL
  6
Continuous
 62
     2
100
AcDbBlockBegin
  2
SYMBOL_15_BL10
 70
     0
 10
359.3790273541001
 20
242.9795085519
 30
0.0
  3
SYMBOL_15_BL10
  1

  0
LWPOLYLINE
  5
265
330
245
100
AcDbEntity
  8
___SYMBOL
  6
Continuous
 62
     2
100
AcDbPolyline
 90
       12
 70
     0
 43
0.381
 10
358.5482293457
 20
244.9397824829
 10
358.5482293457
 20
240.9710123291
 10
359.9372949463
 20
240.9710123291
 10
360.1357215942
 20
241.301740979
 10
360.3341482422
 20
241.6324696289
 10
360.3341482422
 20
242.6246819336
 10
360.1357215942
 20
242.9554105835
 10
359.9372949463
 20
243.2861392334
 10
360.1357215942
 20
243.6168678833
 10
360.1357215942
 20
244.609053833
 10
359.9372949463
 20
244.9397824829
 10
358.5482293457
 20
244.9397824829
  0
LWPOLYLINE
  5
266
330
245
100
AcDbEntity
  8
___SYMBOL
  6
Continuous
 62
     2
100
AcDbPolyline
 90
        2
 70
     0
 43
0.381
 10
358.5482293457
 20
243.2861392334
 10
359.9372949463
 20
243.2861392334
  0
LINE
  5
267
330
245
100
AcDbEntity
  8
___SYMBOL
  6
Continuous
 62
     7
100
AcDbLine
 10
355.8497917497
 20
240.0585085519
 30
0.0
 11
354.3625273541
 21
241.5457729476
 31
0.0
  0
LINE
  5
268
330
245
100
AcDbEntity
  8
___SYMBOL
  6
Continuous
 62
     7
100
AcDbLine
 10
354.3625273541
 20
244.4132441563
 30
0.0
 11
354.3625273541
 21
241.5457729476
 31
0.0
  0
LINE
  5
269
330
245
100
AcDbEntity
  8
___SYMBOL
  6
Continuous
 62
     7
100
AcDbLine
 10
355.8497917497
 20
245.9005085519
 30
0.0
 11
354.3625273541
 21
244.4132441563
 31
0.0
  0
LINE
  5
26A
330
245
100
AcDbEntity
  8
___SYMBOL
  6
Continuous
 62
     7
100
AcDbLine
 10
362.9082629584
 20
240.0585085519
 30
0.0
 11
364.3955273541
 21
241.5457729476
 31
0.0
  0
LINE
  5
26B
330
245
100
AcDbEntity
  8
___SYMBOL
  6
Continuous
 62
     7
100
AcDbLine
 10
364.3955273541
 20
244.4132441563
 30
0.0
 11
364.3955273541
 21
241.5457729476
 31
0.0
  0
LINE
  5
26C
330
245
100
AcDbEntity
  8
___SYMBOL
  6
Continuous
 62
     7
100
AcDbLine
 10
362.9082629584
 20
245.9005085519
 30
0.0
 11
364.3955273541
 21
244.4132441563
 31
0.0
  0
LINE
  5
26D
330
245
100
AcDbEntity
  8
___SYMBOL
  6
Continuous
 62
     7
100
AcDbLine
 10
355.8497917497
 20
245.9005085519
 30
0.0
 11
362.9082629584
 21
245.9005085519
 31
0.0
  0
LINE
  5
26E
330
245
100
AcDbEntity
  8
___SYMBOL
  6
Continuous
 62
     7
100
AcDbLine
 10
362.9082629584
 20
240.0585085519
 30
0.0
 11
355.8497917497
 21
240.0585085519
 31
0.0
  0
ENDBLK
  5
26F
330
245
100
AcDbEntity
  8
0
  6
ByBlock
 62
     0
100
AcDbBlockEnd
  0
BLOCK
  5
270
330
246
100
AcDbEntity
  8
___SYMBOL
  6
Continuous
 62
     2
100
AcDbBlockBegin
  2
SYMBOL_12_BL9
 70
     0
 10
376.3334110518
 20
233.3791639872
 30
0.0
  3
SYMBOL_12_BL9
  1

  0
LINE
  5
271
330
246
100
AcDbEntity
  8
___SYMBOL
  6
Continuous
 62
     2
100
AcDbLine
 10
372.6750871518
 20
240.6958117872
 30
0.0
 11
379.9917349518
 21
240.6958117872
 31
0.0
  0
LINE
  5
272
330
246
100
AcDbEntity
  8
___SYMBOL
  6
Continuous
 62
     2
100
AcDbLine
 10
379.9917349518
 20
240.6958117872
 30
0.0
 11
379.9917349518
 21
233.3791639872
 31
0.0
  0
LINE
  5
273
330
246
100
AcDbEntity
  8
___SYMBOL
  6
Continuous
 62
     2
100
AcDbLine
 10
379.9917349518
 20
233.3791639872
 30
0.0
 11
372.6750871518
 21
233.3791639872
 31
0.0
  0
LINE
  5
274
330
246
100
AcDbEntity
  8
___SYMBOL
  6
Continuous
 62
     2
100
AcDbLine
 10
372.6750871518
 20
240.6958117872
 30
0.0
 11
372.6750871518
 21
233.3791639872
 31
0.0
  0
LINE
  5
275
330
246
100
AcDbEntity
  8
___SYMBOL
  6
Continuous
 62
     2
100
AcDbLine
 10
372.6750871518
 20
233.3791639872
 30
0.0
 11
372.6750871518
 21
226.0625161872
 31
0.0
  0
LINE
  5
276
330
246
100
AcDbEntity
  8
___SYMBOL
  6
Continuous
 62
     2
100
AcDbLine
 10
372.6750871518
 20
226.0625161872
 30
0.0
 11
379.9917349518
 21
226.0625161872
 31
0.0
  0
LINE
  5
277
330
246
100
AcDbEntity
  8
___SYMBOL
  6
Continuous
 62
     2
100
AcDbLine
 10
379.9917349518
 20
233.3791639872
 30
0.0
 11
379.9917349518
 21
226.0625161872
 31
0.0
  0
ENDBLK
  5
278
330
246
100
AcDbEntity
  8
0
  6
ByBlock
 62
     0
100
AcDbBlockEnd
  0
BLOCK
  5
279
330
247
100
AcDbEntity
  8
___SYMBOL
  6
Continuous
 62
     2
100
AcDbBlockBegin
  2
SYMBOL_11_BL8
 70
     0
 10
353.4247319001
 20
485.0087039545999
 30
0.0
  3
SYMBOL_11_BL8
  1

  0
LINE
  5
27A
330
247
100
AcDbEntity
  8
___SYMBOL
  6
Continuous
 62
     2
100
AcDbLine
 10
349.7664080001
 20
492.3253517545999
 30
0.0
 11
357.0830558001
 21
492.3253517545999
 31
0.0
  0
LINE
  5
27B
330
247
100
AcDbEntity
  8
___SYMBOL
  6
Continuous
 62
     2
100
AcDbLine
 10
357.0830558001
 20
492.3253517545999
 30
0.0
 11
357.0830558001
 21
485.0087039545999
 31
0.0
  0
LINE
  5
27C
330
247
100
AcDbEntity
  8
___SYMBOL
  6
Continuous
 62
     2
100
AcDbLine
 10
357.0830558001
 20
485.0087039545999
 30
0.0
 11
349.7664080001
 21
485.0087039545999
 31
0.0
  0
LINE
  5
27D
330
247
100
AcDbEntity
  8
___SYMBOL
  6
Continuous
 62
     2
100
AcDbLine
 10
349.7664080001
 20
492.3253517545999
 30
0.0
 11
349.7664080001
 21
485.0087039545999
 31
0.0
  0
LINE
  5
27E
330
247
100
AcDbEntity
  8
___SYMBOL
  6
Continuous
 62
     2
100
AcDbLine
 10
349.7664080001
 20
485.0087039545999
 30
0.0
 11
349.7664080001
 21
477.6920561545999
 31
0.0
  0
LINE
  5
27F
330
247
100
AcDbEntity
  8
___SYMBOL
  6
Continuous
 62
     2
100
AcDbLine
 10
349.7664080001
 20
477.6920561545999
 30
0.0
 11
357.0830558001
 21
477.6920561545999
 31
0.0
  0
LINE
  5
280
330
247
100
AcDbEntity
  8
___SYMBOL
  6
Continuous
 62
     2
100
AcDbLine
 10
357.0830558001
 20
485.0087039545999
 30
0.0
 11
357.0830558001
 21
477.6920561545999
 31
0.0
  0
ENDBLK
  5
281
330
247
100
AcDbEntity
  8
0
  6
ByBlock
 62
     0
100
AcDbBlockEnd
  0
BLOCK
  5
282
330
248
100
AcDbEntity
  8
___SYMBOL
  6
Continuous
 62
     2
100
AcDbBlockBegin
  2
SYMBOL_10_BL7
 70
     0
 10
227.1947381338
 20
246.3429377998
 30
0.0
  3
SYMBOL_10_BL7
  1

  0
LINE
  5
283
330
248
100
AcDbEntity
  8
___SYMBOL
  6
Continuous
 62
     2
100
AcDbLine
 10
223.5364142338
 20
253.6595855998
 30
0.0
 11
230.8530620338
 21
253.6595855998
 31
0.0
  0
LINE
  5
284
330
248
100
AcDbEntity
  8
___SYMBOL
  6
Continuous
 62
     2
100
AcDbLine
 10
230.8530620338
 20
253.6595855998
 30
0.0
 11
230.8530620338
 21
246.3429377998
 31
0.0
  0
LINE
  5
285
330
248
100
AcDbEntity
  8
___SYMBOL
  6
Continuous
 62
     2
100
AcDbLine
 10
230.8530620338
 20
246.3429377998
 30
0.0
 11
223.5364142338
 21
246.3429377998
 31
0.0
  0
LINE
  5
286
330
248
100
AcDbEntity
  8
___SYMBOL
  6
Continuous
 62
     2
100
AcDbLine
 10
223.5364142338
 20
253.6595855998
 30
0.0
 11
223.5364142338
 21
246.3429377998
 31
0.0
  0
LINE
  5
287
330
248
100
AcDbEntity
  8
___SYMBOL
  6
Continuous
 62
     2
100
AcDbLine
 10
223.5364142338
 20
246.3429377998
 30
0.0
 11
223.5364142338
 21
239.0262899998
 31
0.0
  0
LINE
  5
288
330
248
100
AcDbEntity
  8
___SYMBOL
  6
Continuous
 62
     2
100
AcDbLine
 10
223.5364142338
 20
239.0262899998
 30
0.0
 11
230.8530620338
 21
239.0262899998
 31
0.0
  0
LINE
  5
289
330
248
100
AcDbEntity
  8
___SYMBOL
  6
Continuous
 62
     2
100
AcDbLine
 10
230.8530620338
 20
246.3429377998
 30
0.0
 11
230.8530620338
 21
239.0262899998
 31
0.0
  0
ENDBLK
  5
28A
330
248
100
AcDbEntity
  8
0
  6
ByBlock
 62
     0
100
AcDbBlockEnd
  0
BLOCK
  5
28B
330
249
100
AcDbEntity
  8
___SYMBOL
  6
Continuous
 62
     2
100
AcDbBlockBegin
  2
SYMBOL_9_BL6
 70
     0
 10
679.6597918479
 20
483.5384070204
 30
0.0
  3
SYMBOL_9_BL6
  1

  0
LINE
  5
28C
330
249
100
AcDbEntity
  8
___SYMBOL
  6
Continuous
 62
     2
100
AcDbLine
 10
676.0014679479
 20
490.8550548204
 30
0.0
 11
683.3181157479
 21
490.8550548204
 31
0.0
  0
LINE
  5
28D
330
249
100
AcDbEntity
  8
___SYMBOL
  6
Continuous
 62
     2
100
AcDbLine
 10
683.3181157479
 20
490.8550548204
 30
0.0
 11
683.3181157479
 21
483.5384070204
 31
0.0
  0
LINE
  5
28E
330
249
100
AcDbEntity
  8
___SYMBOL
  6
Continuous
 62
     2
100
AcDbLine
 10
683.3181157479
 20
483.5384070204
 30
0.0
 11
676.0014679479
 21
483.5384070204
 31
0.0
  0
LINE
  5
28F
330
249
100
AcDbEntity
  8
___SYMBOL
  6
Continuous
 62
     2
100
AcDbLine
 10
676.0014679479
 20
490.8550548204
 30
0.0
 11
676.0014679479
 21
483.5384070204
 31
0.0
  0
LINE
  5
290
330
249
100
AcDbEntity
  8
___SYMBOL
  6
Continuous
 62
     2
100
AcDbLine
 10
676.0014679479
 20
483.5384070204
 30
0.0
 11
676.0014679479
 21
476.2217592204
 31
0.0
  0
LINE
  5
291
330
249
100
AcDbEntity
  8
___SYMBOL
  6
Continuous
 62
     2
100
AcDbLine
 10
676.0014679479
 20
476.2217592204
 30
0.0
 11
683.3181157479
 21
476.2217592204
 31
0.0
  0
LINE
  5
292
330
249
100
AcDbEntity
  8
___SYMBOL
  6
Continuous
 62
     2
100
AcDbLine
 10
683.3181157479
 20
483.5384070204
 30
0.0
 11
683.3181157479
 21
476.2217592204
 31
0.0
  0
ENDBLK
  5
293
330
249
100
AcDbEntity
  8
0
  6
ByBlock
 62
     0
100
AcDbBlockEnd
  0
BLOCK
  5
294
330
24A
100
AcDbEntity
  8
___SYMBOL
  6
Continuous
 62
     2
100
AcDbBlockBegin
  2
SYMBOL_8_BL5
 70
     0
 10
223.7842815441
 20
502.423472679
 30
0.0
  3
SYMBOL_8_BL5
  1

  0
LINE
  5
295
330
24A
100
AcDbEntity
  8
___SYMBOL
  6
Continuous
 62
     2
100
AcDbLine
 10
220.1259576441
 20
509.740120479
 30
0.0
 11
227.4426054441
 21
509.740120479
 31
0.0
  0
LINE
  5
296
330
24A
100
AcDbEntity
  8
___SYMBOL
  6
Continuous
 62
     2
100
AcDbLine
 10
227.4426054441
 20
509.740120479
 30
0.0
 11
227.4426054441
 21
502.423472679
 31
0.0
  0
LINE
  5
297
330
24A
100
AcDbEntity
  8
___SYMBOL
  6
Continuous
 62
     2
100
AcDbLine
 10
227.4426054441
 20
502.423472679
 30
0.0
 11
220.1259576441
 21
502.423472679
 31
0.0
  0
LINE
  5
298
330
24A
100
AcDbEntity
  8
___SYMBOL
  6
Continuous
 62
     2
100
AcDbLine
 10
220.1259576441
 20
509.740120479
 30
0.0
 11
220.1259576441
 21
502.423472679
 31
0.0
  0
LINE
  5
299
330
24A
100
AcDbEntity
  8
___SYMBOL
  6
Continuous
 62
     2
100
AcDbLine
 10
220.1259576441
 20
502.423472679
 30
0.0
 11
220.1259576441
 21
495.106824879
 31
0.0
  0
LINE
  5
29A
330
24A
100
AcDbEntity
  8
___SYMBOL
  6
Continuous
 62
     2
100
AcDbLine
 10
220.1259576441
 20
495.106824879
 30
0.0
 11
227.4426054441
 21
495.106824879
 31
0.0
  0
LINE
  5
29B
330
24A
100
AcDbEntity
  8
___SYMBOL
  6
Continuous
 62
     2
100
AcDbLine
 10
227.4426054441
 20
502.423472679
 30
0.0
 11
227.4426054441
 21
495.106824879
 31
0.0
  0
ENDBLK
  5
29C
330
24A
100
AcDbEntity
  8
0
  6
ByBlock
 62
     0
100
AcDbBlockEnd
  0
BLOCK
  5
29D
330
24B
100
AcDbEntity
  8
0
  6
Continuous
 62
     2
100
AcDbBlockBegin
  2
SYMBOL_11_BL4
 70
     0
 10
855.6625
 20
279.4
 30
0.0
  3
SYMBOL_11_BL4
  1

  0
LINE
  5
29E
330
24B
100
AcDbEntity
  8
0
  6
Continuous
 62
    30
100
AcDbLine
 10
850.9
 20
279.4
 30
0.0
 11
855.6625
 21
277.01875
 31
0.0
  0
LINE
  5
29F
330
24B
100
AcDbEntity
  8
0
  6
Continuous
 62
    30
100
AcDbLine
 10
850.9
 20
279.4
 30
0.0
 11
855.6625
 21
281.78125
 31
0.0
  0
LINE
  5
2A0
330
24B
100
AcDbEntity
  8
0
  6
Continuous
 62
    30
100
AcDbLine
 10
855.6625
 20
279.9953125
 30
0.0
 11
855.6625
 21
281.78125
 31
0.0
  0
LINE
  5
2A1
330
24B
100
AcDbEntity
  8
0
  6
Continuous
 62
    30
100
AcDbLine
 10
860.425
 20
279.9953125
 30
0.0
 11
855.6625
 21
279.9953125
 31
0.0
  0
LINE
  5
2A2
330
24B
100
AcDbEntity
  8
0
  6
Continuous
 62
    30
100
AcDbLine
 10
860.425
 20
279.9953125
 30
0.0
 11
860.425
 21
278.8046875
 31
0.0
  0
LINE
  5
2A3
330
24B
100
AcDbEntity
  8
0
  6
Continuous
 62
    30
100
AcDbLine
 10
855.6625
 20
278.8046875
 30
0.0
 11
860.425
 21
278.8046875
 31
0.0
  0
LINE
  5
2A4
330
24B
100
AcDbEntity
  8
0
  6
Continuous
 62
    30
100
AcDbLine
 10
855.6625
 20
277.01875
 30
0.0
 11
855.6625
 21
278.8046875
 31
0.0
  0
LWPOLYLINE
  5
2A5
330
24B
100
AcDbEntity
  8
0
  6
Continuous
 62
     7
100
AcDbPolyline
 90
        8
 70
     0
 43
0.0
 10
850.9
 20
279.4
 10
855.6625
 20
281.78125
 10
855.6625
 20
279.9953125
 10
860.425
 20
279.9953125
 10
860.425
 20
278.8046875
 10
855.6625
 20
278.8046875
 10
855.6625
 20
277.01875
 10
850.9
 20
279.4
  0
HATCH
  5
2A6
330
24B
100
AcDbEntity
  8
0
  6
Continuous
 62
     7
100
AcDbHatch
 10
0.0
 20
0.0
 30
0.0
210
0.0
220
0.0
230
1.0
  2
SOLID
 70
     1
 71
     1
 91
        1
 92
        1
 93
        7
 72
     1
 10
850.9
 20
279.4
 11
855.6625
 21
281.78125
 72
     1
 10
855.6625
 20
281.78125
 11
855.6625
 21
279.9953125
 72
     1
 10
855.6625
 20
279.9953125
 11
860.425
 21
279.9953125
 72
     1
 10
860.425
 20
279.9953125
 11
860.425
 21
278.8046875
 72
     1
 10
860.425
 20
278.8046875
 11
855.6625
 21
278.8046875
 72
     1
 10
855.6625
 20
278.8046875
 11
855.6625
 21
277.01875
 72
     1
 10
855.6625
 20
277.01875
 11
850.9
 21
279.4
 97
        1
330
2A5
 75
     0
 76
     1
 98
        1
 10
0.0
 20
0.0
  0
ENDBLK
  5
2A7
330
24B
100
AcDbEntity
  8
0
  6
ByBlock
 62
     0
100
AcDbBlockEnd
  0
BLOCK
  5
2A8
330
24C
100
AcDbEntity
  8
0
  6
Continuous
 62
     2
100
AcDbBlockBegin
  2
SYMBOL_10_BL3
 70
     0
 10
7.9375
 20
279.4
 30
0.0
  3
SYMBOL_10_BL3
  1

  0
LINE
  5
2A9
330
24C
100
AcDbEntity
  8
0
  6
Continuous
 62
    30
100
AcDbLine
 10
12.7
 20
279.4
 30
0.0
 11
7.9375
 21
281.78125
 31
0.0
  0
LINE
  5
2AA
330
24C
100
AcDbEntity
  8
0
  6
Continuous
 62
    30
100
AcDbLine
 10
12.7
 20
279.4
 30
0.0
 11
7.9375
 21
277.01875
 31
0.0
  0
LINE
  5
2AB
330
24C
100
AcDbEntity
  8
0
  6
Continuous
 62
    30
100
AcDbLine
 10
7.9375
 20
278.8046875
 30
0.0
 11
7.9375
 21
277.01875
 31
0.0
  0
LINE
  5
2AC
330
24C
100
AcDbEntity
  8
0
  6
Continuous
 62
    30
100
AcDbLine
 10
3.174999999999999
 20
278.8046875
 30
0.0
 11
7.9375
 21
278.8046875
 31
0.0
  0
LINE
  5
2AD
330
24C
100
AcDbEntity
  8
0
  6
Continuous
 62
    30
100
AcDbLine
 10
3.174999999999999
 20
278.8046875
 30
0.0
 11
3.174999999999999
 21
279.9953125
 31
0.0
  0
LINE
  5
2AE
330
24C
100
AcDbEntity
  8
0
  6
Continuous
 62
    30
100
AcDbLine
 10
7.9375
 20
279.9953125
 30
0.0
 11
3.174999999999999
 21
279.9953125
 31
0.0
  0
LINE
  5
2AF
330
24C
100
AcDbEntity
  8
0
  6
Continuous
 62
    30
100
AcDbLine
 10
7.9375
 20
281.78125
 30
0.0
 11
7.9375
 21
279.9953125
 31
0.0
  0
LWPOLYLINE
  5
2B0
330
24C
100
AcDbEntity
  8
0
  6
Continuous
 62
     7
100
AcDbPolyline
 90
        8
 70
     0
 43
0.0
 10
12.7
 20
279.4
 10
7.9375
 20
277.01875
 10
7.9375
 20
278.8046875
 10
3.174999999999999
 20
278.8046875
 10
3.174999999999999
 20
279.9953125
 10
7.9375
 20
279.9953125
 10
7.9375
 20
281.78125
 10
12.7
 20
279.4
  0
HATCH
  5
2B1
330
24C
100
AcDbEntity
  8
0
  6
Continuous
 62
     7
100
AcDbHatch
 10
0.0
 20
0.0
 30
0.0
210
0.0
220
0.0
230
1.0
  2
SOLID
 70
     1
 71
     1
 91
        1
 92
        1
 93
        7
 72
     1
 10
12.7
 20
279.4
 11
7.9375
 21
277.01875
 72
     1
 10
7.9375
 20
277.01875
 11
7.9375
 21
278.8046875
 72
     1
 10
7.9375
 20
278.8046875
 11
3.174999999999999
 21
278.8046875
 72
     1
 10
3.174999999999999
 20
278.8046875
 11
3.174999999999999
 21
279.9953125
 72
     1
 10
3.174999999999999
 20
279.9953125
 11
7.9375
 21
279.9953125
 72
     1
 10
7.9375
 20
279.9953125
 11
7.9375
 21
281.78125
 72
     1
 10
7.9375
 20
281.78125
 11
12.7
 21
279.4
 97
        1
330
2B0
 75
     0
 76
     1
 98
        1
 10
0.0
 20
0.0
  0
ENDBLK
  5
2B2
330
24C
100
AcDbEntity
  8
0
  6
ByBlock
 62
     0
100
AcDbBlockEnd
  0
BLOCK
  5
2B3
330
24D
100
AcDbEntity
  8
0
  6
Continuous
 62
     2
100
AcDbBlockBegin
  2
SYMBOL_8_BL2
 70
     0
 10
431.8
 20
550.8624999999999
 30
0.0
  3
SYMBOL_8_BL2
  1

  0
LINE
  5
2B4
330
24D
100
AcDbEntity
  8
0
  6
Continuous
 62
    30
100
AcDbLine
 10
431.8
 20
546.1
 30
0.0
 11
434.1812499999999
 21
550.8624999999999
 31
0.0
  0
LINE
  5
2B5
330
24D
100
AcDbEntity
  8
0
  6
Continuous
 62
    30
100
AcDbLine
 10
431.8
 20
546.1
 30
0.0
 11
429.4187499999999
 21
550.8624999999999
 31
0.0
  0
LINE
  5
2B6
330
24D
100
AcDbEntity
  8
0
  6
Continuous
 62
    30
100
AcDbLine
 10
431.2046875
 20
550.8624999999999
 30
0.0
 11
429.4187499999999
 21
550.8624999999999
 31
0.0
  0
LINE
  5
2B7
330
24D
100
AcDbEntity
  8
0
  6
Continuous
 62
    30
100
AcDbLine
 10
431.2046875
 20
555.625
 30
0.0
 11
431.2046875
 21
550.8624999999999
 31
0.0
  0
LINE
  5
2B8
330
24D
100
AcDbEntity
  8
0
  6
Continuous
 62
    30
100
AcDbLine
 10
431.2046875
 20
555.625
 30
0.0
 11
432.3953125
 21
555.625
 31
0.0
  0
LINE
  5
2B9
330
24D
100
AcDbEntity
  8
0
  6
Continuous
 62
    30
100
AcDbLine
 10
432.3953125
 20
550.8624999999999
 30
0.0
 11
432.3953125
 21
555.625
 31
0.0
  0
LINE
  5
2BA
330
24D
100
AcDbEntity
  8
0
  6
Continuous
 62
    30
100
AcDbLine
 10
434.1812499999999
 20
550.8624999999999
 30
0.0
 11
432.3953125
 21
550.8624999999999
 31
0.0
  0
LWPOLYLINE
  5
2BB
330
24D
100
AcDbEntity
  8
0
  6
Continuous
 62
     7
100
AcDbPolyline
 90
        8
 70
     0
 43
0.0
 10
431.8
 20
546.1
 10
429.4187499999999
 20
550.8624999999999
 10
431.2046875
 20
550.8624999999999
 10
431.2046875
 20
555.625
 10
432.3953125
 20
555.625
 10
432.3953125
 20
550.8624999999999
 10
434.1812499999999
 20
550.8624999999999
 10
431.8
 20
546.1
  0
HATCH
  5
2BC
330
24D
100
AcDbEntity
  8
0
  6
Continuous
 62
     7
100
AcDbHatch
 10
0.0
 20
0.0
 30
0.0
210
0.0
220
0.0
230
1.0
  2
SOLID
 70
     1
 71
     1
 91
        1
 92
        1
 93
        7
 72
     1
 10
431.8
 20
546.1
 11
429.4187499999999
 21
550.8624999999999
 72
     1
 10
429.4187499999999
 20
550.8624999999999
 11
431.2046875
 21
550.8624999999999
 72
     1
 10
431.2046875
 20
550.8624999999999
 11
431.2046875
 21
555.625
 72
     1
 10
431.2046875
 20
555.625
 11
432.3953125
 21
555.625
 72
     1
 10
432.3953125
 20
555.625
 11
432.3953125
 21
550.8624999999999
 72
     1
 10
432.3953125
 20
550.8624999999999
 11
434.1812499999999
 21
550.8624999999999
 72
     1
 10
434.1812499999999
 20
550.8624999999999
 11
431.8
 21
546.1
 97
        1
330
2BB
 75
     0
 76
     1
 98
        1
 10
0.0
 20
0.0
  0
ENDBLK
  5
2BD
330
24D
100
AcDbEntity
  8
0
  6
ByBlock
 62
     0
100
AcDbBlockEnd
  0
BLOCK
  5
2BE
330
24E
100
AcDbEntity
  8
0
  6
Continuous
 62
     2
100
AcDbBlockBegin
  2
SYMBOL_6_BL1
 70
     0
 10
431.8
 20
7.9375
 30
0.0
  3
SYMBOL_6_BL1
  1

  0
LINE
  5
2BF
330
24E
100
AcDbEntity
  8
0
  6
Continuous
 62
    30
100
AcDbLine
 10
431.8
 20
12.7
 30
0.0
 11
429.4187499999999
 21
7.9375
 31
0.0
  0
LINE
  5
2C0
330
24E
100
AcDbEntity
  8
0
  6
Continuous
 62
    30
100
AcDbLine
 10
431.8
 20
12.7
 30
0.0
 11
434.1812499999999
 21
7.9375
 31
0.0
  0
LINE
  5
2C1
330
24E
100
AcDbEntity
  8
0
  6
Continuous
 62
    30
100
AcDbLine
 10
432.3953125
 20
7.9375
 30
0.0
 11
434.1812499999999
 21
7.9375
 31
0.0
  0
LINE
  5
2C2
330
24E
100
AcDbEntity
  8
0
  6
Continuous
 62
    30
100
AcDbLine
 10
432.3953125
 20
3.174999999999999
 30
0.0
 11
432.3953125
 21
7.9375
 31
0.0
  0
LINE
  5
2C3
330
24E
100
AcDbEntity
  8
0
  6
Continuous
 62
    30
100
AcDbLine
 10
432.3953125
 20
3.174999999999999
 30
0.0
 11
431.2046875
 21
3.174999999999999
 31
0.0
  0
LINE
  5
2C4
330
24E
100
AcDbEntity
  8
0
  6
Continuous
 62
    30
100
AcDbLine
 10
431.2046875
 20
7.9375
 30
0.0
 11
431.2046875
 21
3.174999999999999
 31
0.0
  0
LINE
  5
2C5
330
24E
100
AcDbEntity
  8
0
  6
Continuous
 62
    30
100
AcDbLine
 10
429.4187499999999
 20
7.9375
 30
0.0
 11
431.2046875
 21
7.9375
 31
0.0
  0
LWPOLYLINE
  5
2C6
330
24E
100
AcDbEntity
  8
0
  6
Continuous
 62
     7
100
AcDbPolyline
 90
        8
 70
     0
 43
0.0
 10
431.8
 20
12.7
 10
434.1812499999999
 20
7.9375
 10
432.3953125
 20
7.9375
 10
432.3953125
 20
3.174999999999999
 10
431.2046875
 20
3.174999999999999
 10
431.2046875
 20
7.9375
 10
429.4187499999999
 20
7.9375
 10
431.8
 20
12.7
  0
HATCH
  5
2C7
330
24E
100
AcDbEntity
  8
0
  6
Continuous
 62
     7
100
AcDbHatch
 10
0.0
 20
0.0
 30
0.0
210
0.0
220
0.0
230
1.0
  2
SOLID
 70
     1
 71
     1
 91
        1
 92
        1
 93
        7
 72
     1
 10
431.8
 20
12.7
 11
434.1812499999999
 21
7.9375
 72
     1
 10
434.1812499999999
 20
7.9375
 11
432.3953125
 21
7.9375
 72
     1
 10
432.3953125
 20
7.9375
 11
432.3953125
 21
3.174999999999999
 72
     1
 10
432.3953125
 20
3.174999999999999
 11
431.2046875
 21
3.174999999999999
 72
     1
 10
431.2046875
 20
3.174999999999999
 11
431.2046875
 21
7.9375
 72
     1
 10
431.2046875
 20
7.9375
 11
429.4187499999999
 21
7.9375
 72
     1
 10
429.4187499999999
 20
7.9375
 11
431.8
 21
12.7
 97
        1
330
2C6
 75
     0
 76
     1
 98
        1
 10
0.0
 20
0.0
  0
ENDBLK
  5
2C8
330
24E
100
AcDbEntity
  8
0
  6
ByBlock
 62
     0
100
AcDbBlockEnd
  0
BLOCK
  5
2C9
330
24F
100
AcDbEntity
  8
0
  6
Continuous
 62
     2
100
AcDbBlockBegin
  2
SYMBOL_0_BL0
 70
     0
 10
766.7592361
 20
55.2233084
 30
0.0
  3
SYMBOL_0_BL0
  1

  0
ARC
  5
2CA
330
24F
100
AcDbEntity
  8
0
  6
Continuous
 62
     2
100
AcDbCircle
 10
781.1308736
 20
56.63221465
 30
0.0
 40
0.7786687500000001
100
AcDbArc
 50
270.0
 51
90.0
  0
LINE
  5
2CB
330
24F
100
AcDbEntity
  8
0
  6
Continuous
 62
     2
100
AcDbLine
 10
749.3808736
 20
51.6514334
 30
0.0
 11
749.3808736
 21
58.7951834
 31
0.0
  0
LINE
  5
2CC
330
24F
100
AcDbEntity
  8
0
  6
Continuous
 62
     2
100
AcDbLine
 10
749.3808736
 20
58.7951834
 30
0.0
 11
751.0826736
 21
58.7951834
 31
0.0
  0
LINE
  5
2CD
330
24F
100
AcDbEntity
  8
0
  6
Continuous
 62
     2
100
AcDbLine
 10
749.3808736
 20
51.6514334
 30
0.0
 11
751.0826736
 21
51.6514334
 31
0.0
  0
LINE
  5
2CE
330
24F
100
AcDbEntity
  8
0
  6
Continuous
 62
     2
100
AcDbLine
 10
755.7308736
 20
58.7951834
 30
0.0
 11
752.5558736
 21
55.6201834
 31
0.0
  0
LINE
  5
2CF
330
24F
100
AcDbEntity
  8
0
  6
Continuous
 62
     2
100
AcDbLine
 10
752.5558736
 20
55.6201834
 30
0.0
 11
755.7308736
 21
51.6514334
 31
0.0
  0
CIRCLE
  5
2D0
330
24F
100
AcDbEntity
  8
0
  6
Continuous
 62
     2
100
AcDbCircle
 10
758.5089986
 20
55.2233084
 30
0.0
 40
1.870074999999999
  0
LINE
  5
2D1
330
24F
100
AcDbEntity
  8
0
  6
Continuous
 62
     2
100
AcDbLine
 10
753.5515062341
 20
51.6514334
 30
0.0
 11
755.7308736
 21
51.6514334
 31
0.0
  0
CIRCLE
  5
2D2
330
24F
100
AcDbEntity
  8
0
  6
Continuous
 62
     2
100
AcDbCircle
 10
758.5089986
 20
55.2233084
 30
0.0
 40
3.571874999999999
  0
LINE
  5
2D3
330
24F
100
AcDbEntity
  8
0
  6
Continuous
 62
     2
100
AcDbLine
 10
751.0826736
 20
51.6514334
 30
0.0
 11
751.0826736
 21
54.7374741926
 31
0.0
  0
LINE
  5
2D4
330
24F
100
AcDbEntity
  8
0
  6
Continuous
 62
     2
100
AcDbLine
 10
753.3241649589999
 20
58.7951834
 30
0.0
 11
751.0826736
 21
56.55369204100001
 31
0.0
  0
LINE
  5
2D5
330
24F
100
AcDbEntity
  8
0
  6
Continuous
 62
     2
100
AcDbLine
 10
751.0826736
 20
54.7374741926
 30
0.0
 11
753.5515062341
 21
51.6514334
 31
0.0
  0
LINE
  5
2D6
330
24F
100
AcDbEntity
  8
0
  6
Continuous
 62
     2
100
AcDbLine
 10
753.3241649589999
 20
58.7951834
 30
0.0
 11
755.7308736
 21
58.7951834
 31
0.0
  0
LINE
  5
2D7
330
24F
100
AcDbEntity
  8
0
  6
Continuous
 62
     2
100
AcDbLine
 10
751.0826736
 20
58.7951834
 30
0.0
 11
751.0826736
 21
56.55369204100001
 31
0.0
  0
LINE
  5
2D8
330
24F
100
AcDbEntity
  8
0
  6
Continuous
 62
     2
100
AcDbLine
 10
762.8746236
 20
58.7951834
 30
0.0
 11
762.8746236
 21
51.6514334
 31
0.0
  0
LINE
  5
2D9
330
24F
100
AcDbEntity
  8
0
  6
Continuous
 62
     2
100
AcDbLine
 10
764.5764235999999
 20
51.6514334
 30
0.0
 11
764.5764235999999
 21
54.7692834
 31
0.0
  0
LINE
  5
2DA
330
24F
100
AcDbEntity
  8
0
  6
Continuous
 62
     2
100
AcDbLine
 10
764.5764235999999
 20
56.4710834
 30
0.0
 11
764.5764235999999
 21
58.7951834
 31
0.0
  0
LINE
  5
2DB
330
24F
100
AcDbEntity
  8
0
  6
Continuous
 62
     2
100
AcDbLine
 10
766.5607986
 20
51.6514334
 30
0.0
 11
766.5607986
 21
54.7692834
 31
0.0
  0
LINE
  5
2DC
330
24F
100
AcDbEntity
  8
0
  6
Continuous
 62
     2
100
AcDbLine
 10
766.5607986
 20
56.4710834
 30
0.0
 11
766.5607986
 21
58.7951834
 31
0.0
  0
LINE
  5
2DD
330
24F
100
AcDbEntity
  8
0
  6
Continuous
 62
     2
100
AcDbLine
 10
768.2625986
 20
58.7951834
 30
0.0
 11
768.2625986
 21
51.6514334
 31
0.0
  0
LINE
  5
2DE
330
24F
100
AcDbEntity
  8
0
  6
Continuous
 62
     2
100
AcDbLine
 10
764.5764235999999
 20
56.4710834
 30
0.0
 11
766.5607986
 21
56.4710834
 31
0.0
  0
LINE
  5
2DF
330
24F
100
AcDbEntity
  8
0
  6
Continuous
 62
     2
100
AcDbLine
 10
764.5764235999999
 20
54.7692834
 30
0.0
 11
766.5607986
 21
54.7692834
 31
0.0
  0
LINE
  5
2E0
330
24F
100
AcDbEntity
  8
0
  6
Continuous
 62
     2
100
AcDbLine
 10
766.5607986
 20
51.6514334
 30
0.0
 11
768.2625986
 21
51.6514334
 31
0.0
  0
LINE
  5
2E1
330
24F
100
AcDbEntity
  8
0
  6
Continuous
 62
     2
100
AcDbLine
 10
762.8746236
 20
51.6514334
 30
0.0
 11
764.5764235999999
 21
51.6514334
 31
0.0
  0
LINE
  5
2E2
330
24F
100
AcDbEntity
  8
0
  6
Continuous
 62
     2
100
AcDbLine
 10
766.5607986
 20
58.7951834
 30
0.0
 11
768.2625986
 21
58.7951834
 31
0.0
  0
LINE
  5
2E3
330
24F
100
AcDbEntity
  8
0
  6
Continuous
 62
     2
100
AcDbLine
 10
762.8746236
 20
58.7951834
 30
0.0
 11
764.5764235999999
 21
58.7951834
 31
0.0
  0
LINE
  5
2E4
330
24F
100
AcDbEntity
  8
0
  6
Continuous
 62
     2
100
AcDbLine
 10
769.0563486000001
 20
58.7951834
 30
0.0
 11
769.0563486000001
 21
51.6514334
 31
0.0
  0
LINE
  5
2E5
330
24F
100
AcDbEntity
  8
0
  6
Continuous
 62
     2
100
AcDbLine
 10
773.0250986000001
 20
53.3532334
 30
0.0
 11
773.0250986000001
 21
51.6514334
 31
0.0
  0
LINE
  5
2E6
330
24F
100
AcDbEntity
  8
0
  6
Continuous
 62
     2
100
AcDbLine
 10
769.0563486000001
 20
51.6514334
 30
0.0
 11
773.0250986000001
 21
51.6514334
 31
0.0
  0
LINE
  5
2E7
330
24F
100
AcDbEntity
  8
0
  6
Continuous
 62
     2
100
AcDbLine
 10
770.7581486
 20
53.3532334
 30
0.0
 11
770.7581486
 21
58.7951834
 31
0.0
  0
LINE
  5
2E8
330
24F
100
AcDbEntity
  8
0
  6
Continuous
 62
     2
100
AcDbLine
 10
770.7581486
 20
53.3532334
 30
0.0
 11
773.0250986000001
 21
53.3532334
 31
0.0
  0
LINE
  5
2E9
330
24F
100
AcDbEntity
  8
0
  6
Continuous
 62
     2
100
AcDbLine
 10
769.0563486000001
 20
58.7951834
 30
0.0
 11
770.7581486
 21
58.7951834
 31
0.0
  0
LINE
  5
2EA
330
24F
100
AcDbEntity
  8
0
  6
Continuous
 62
     2
100
AcDbLine
 10
773.8188486
 20
51.6514334
 30
0.0
 11
777.7875986
 21
51.6514334
 31
0.0
  0
LINE
  5
2EB
330
24F
100
AcDbEntity
  8
0
  6
Continuous
 62
     2
100
AcDbLine
 10
777.7875986
 20
53.3532334
 30
0.0
 11
777.7875986
 21
51.6514334
 31
0.0
  0
LINE
  5
2EC
330
24F
100
AcDbEntity
  8
0
  6
Continuous
 62
     2
100
AcDbLine
 10
775.5206486
 20
53.3532334
 30
0.0
 11
777.7875986
 21
53.3532334
 31
0.0
  0
LINE
  5
2ED
330
24F
100
AcDbEntity
  8
0
  6
Continuous
 62
     2
100
AcDbLine
 10
775.5206486
 20
54.5708459
 30
0.0
 11
775.5206486
 21
53.3532334
 31
0.0
  0
LINE
  5
2EE
330
24F
100
AcDbEntity
  8
0
  6
Continuous
 62
     2
100
AcDbLine
 10
775.5206486
 20
57.0933834
 30
0.0
 11
777.7875986
 21
57.0933834
 31
0.0
  0
LINE
  5
2EF
330
24F
100
AcDbEntity
  8
0
  6
Continuous
 62
     2
100
AcDbLine
 10
773.8188486
 20
58.7951834
 30
0.0
 11
773.8188486
 21
51.6514334
 31
0.0
  0
LINE
  5
2F0
330
24F
100
AcDbEntity
  8
0
  6
Continuous
 62
     2
100
AcDbLine
 10
777.7875986
 20
57.0933834
 30
0.0
 11
777.7875986
 21
58.7951834
 31
0.0
  0
LINE
  5
2F1
330
24F
100
AcDbEntity
  8
0
  6
Continuous
 62
     2
100
AcDbLine
 10
773.8188486
 20
58.7951834
 30
0.0
 11
777.7875986
 21
58.7951834
 31
0.0
  0
LINE
  5
2F2
330
24F
100
AcDbEntity
  8
0
  6
Continuous
 62
     2
100
AcDbLine
 10
775.5206486
 20
55.8757709
 30
0.0
 11
777.7875986
 21
55.8757709
 31
0.0
  0
LINE
  5
2F3
330
24F
100
AcDbEntity
  8
0
  6
Continuous
 62
     2
100
AcDbLine
 10
777.7875986
 20
55.8757709
 30
0.0
 11
777.7875986
 21
54.5708459
 31
0.0
  0
LINE
  5
2F4
330
24F
100
AcDbEntity
  8
0
  6
Continuous
 62
     2
100
AcDbLine
 10
775.5206486
 20
54.5708459
 30
0.0
 11
777.7875986
 21
54.5708459
 31
0.0
  0
LINE
  5
2F5
330
24F
100
AcDbEntity
  8
0
  6
Continuous
 62
     2
100
AcDbLine
 10
775.5206486
 20
55.8757709
 30
0.0
 11
775.5206486
 21
57.0933834
 31
0.0
  0
LINE
  5
2F6
330
24F
100
AcDbEntity
  8
0
  6
Continuous
 62
     2
100
AcDbLine
 10
778.5813486000001
 20
51.6514334
 30
0.0
 11
778.5813486000001
 21
58.7951834
 31
0.0
  0
LINE
  5
2F7
330
24F
100
AcDbEntity
  8
0
  6
Continuous
 62
     2
100
AcDbLine
 10
780.2831486
 20
54.4295584
 30
0.0
 11
780.2831486
 21
51.6514334
 31
0.0
  0
ARC
  5
2F8
330
24F
100
AcDbEntity
  8
0
  6
Continuous
 62
     2
100
AcDbCircle
 10
781.1610361
 20
56.6123709
 30
0.0
 40
2.182812499999999
100
AcDbArc
 50
304.1679402531
 51
90.0
  0
LINE
  5
2F9
330
24F
100
AcDbEntity
  8
0
  6
Continuous
 62
     2
100
AcDbLine
 10
781.1610361
 20
58.7951834
 30
0.0
 11
778.5813486000001
 21
58.7951834
 31
0.0
  0
LINE
  5
2FA
330
24F
100
AcDbEntity
  8
0
  6
Continuous
 62
     2
100
AcDbLine
 10
781.1308736
 20
57.41088340000001
 30
0.0
 11
780.2831486
 21
57.41088340000001
 31
0.0
  0
LINE
  5
2FB
330
24F
100
AcDbEntity
  8
0
  6
Continuous
 62
     2
100
AcDbLine
 10
782.3869483446001
 20
54.8063228433
 30
0.0
 11
784.1375986
 21
51.6514334
 31
0.0
  0
LINE
  5
2FC
330
24F
100
AcDbEntity
  8
0
  6
Continuous
 62
     2
100
AcDbLine
 10
782.191350336
 20
51.6514334
 30
0.0
 11
780.6497669218999
 21
54.4295584
 31
0.0
  0
LINE
  5
2FD
330
24F
100
AcDbEntity
  8
0
  6
Continuous
 62
     2
100
AcDbLine
 10
778.5813486000001
 20
51.6514334
 30
0.0
 11
780.2831486
 21
51.6514334
 31
0.0
  0
LINE
  5
2FE
330
24F
100
AcDbEntity
  8
0
  6
Continuous
 62
     2
100
AcDbLine
 10
782.191350336
 20
51.6514334
 30
0.0
 11
784.1375986
 21
51.6514334
 31
0.0
  0
LINE
  5
2FF
330
24F
100
AcDbEntity
  8
0
  6
Continuous
 62
     2
100
AcDbLine
 10
781.1308736
 20
55.8535459
 30
0.0
 11
780.2831486
 21
55.8535459
 31
0.0
  0
LINE
  5
300
330
24F
100
AcDbEntity
  8
0
  6
Continuous
 62
     2
100
AcDbLine
 10
780.2831486
 20
57.41088340000001
 30
0.0
 11
780.2831486
 21
55.8535459
 31
0.0
  0
LINE
  5
301
330
24F
100
AcDbEntity
  8
0
  6
Continuous
 62
     2
100
AcDbLine
 10
780.2831486
 20
54.4295584
 30
0.0
 11
780.6497669218999
 21
54.4295584
 31
0.0
  0
LWPOLYLINE
  5
302
330
24F
100
AcDbEntity
  8
0
  6
Continuous
 62
     2
100
AcDbPolyline
 90
       14
 70
     0
 43
0.0
 10
784.1375986
 20
51.6514334
 10
782.191350336
 20
51.6514334
 10
780.6497669218999
 20
54.4295584
 10
780.2831486
 20
54.4295584
 10
780.2831486
 20
51.6514334
 10
778.5813486000001
 20
51.6514334
 10
778.5813486000001
 20
57.41088340000001
 10
780.2831486
 20
57.41088340000001
 10
780.2831486
 20
55.8535459
 10
781.1308736
 20
55.8535459
 10
783.1747134023999
 20
55.8535459
 10
782.9491152757
 20
55.36039515270001
 10
782.3869483444
 20
54.80632284439999
 10
784.1375986
 20
51.6514334
  0
HATCH
  5
303
330
24F
100
AcDbEntity
  8
0
  6
Continuous
 62
     2
100
AcDbHatch
 10
0.0
 20
0.0
 30
0.0
210
0.0
220
0.0
230
1.0
  2
SOLID
 70
     1
 71
     1
 91
        1
 92
        1
 93
       13
 72
     1
 10
784.1375986
 20
51.6514334
 11
782.191350336
 21
51.6514334
 72
     1
 10
782.191350336
 20
51.6514334
 11
780.6497669218999
 21
54.4295584
 72
     1
 10
780.6497669218999
 20
54.4295584
 11
780.2831486
 21
54.4295584
 72
     1
 10
780.2831486
 20
54.4295584
 11
780.2831486
 21
51.6514334
 72
     1
 10
780.2831486
 20
51.6514334
 11
778.5813486000001
 21
51.6514334
 72
     1
 10
778.5813486000001
 20
51.6514334
 11
778.5813486000001
 21
57.41088340000001
 72
     1
 10
778.5813486000001
 20
57.41088340000001
 11
780.2831486
 21
57.41088340000001
 72
     1
 10
780.2831486
 20
57.41088340000001
 11
780.2831486
 21
55.8535459
 72
     1
 10
780.2831486
 20
55.8535459
 11
781.1308736
 21
55.8535459
 72
     1
 10
781.1308736
 20
55.8535459
 11
783.1747134023999
 21
55.8535459
 72
     1
 10
783.1747134023999
 20
55.8535459
 11
782.9491152757
 21
55.36039515270001
 72
     1
 10
782.9491152757
 20
55.36039515270001
 11
782.3869483444
 21
54.80632284439999
 72
     1
 10
782.3869483444
 20
54.80632284439999
 11
784.1375986
 21
51.6514334
 97
        1
330
302
 75
     0
 76
     1
 98
        1
 10
0.0
 20
0.0
  0
LWPOLYLINE
  5
304
330
24F
100
AcDbEntity
  8
0
  6
Continuous
 62
     2
100
AcDbPolyline
 90
       18
 70
     0
 43
0.0
 10
778.5813486000001
 20
57.41088340000001
 10
778.5813486000001
 20
58.7951834
 10
781.1610361
 20
58.7951834
 10
781.9373485503001
 20
58.6524712382
 10
782.6121504694
 20
58.2429957793
 10
783.0972048324
 20
57.6202999896
 10
783.3290859838
 20
56.8658075024
 10
783.2774731696
 20
56.0781756728
 10
783.1747134023999
 20
55.8535459
 10
781.1308736
 20
55.8535459
 10
781.5202079749999
 20
55.9578677314
 10
781.8052205186
 20
56.242880275
 10
781.90954235
 20
56.63221465
 10
781.8052205186
 20
57.021549025
 10
781.5202079749999
 20
57.3065615686
 10
781.1308736
 20
57.41088340000001
 10
780.2831486
 20
57.41088340000001
 10
778.5813486000001
 20
57.41088340000001
  0
HATCH
  5
305
330
24F
100
AcDbEntity
  8
0
  6
Continuous
 62
     2
100
AcDbHatch
 10
0.0
 20
0.0
 30
0.0
210
0.0
220
0.0
230
1.0
  2
SOLID
 70
     1
 71
     1
 91
        1
 92
        1
 93
       17
 72
     1
 10
778.5813486000001
 20
57.41088340000001
 11
778.5813486000001
 21
58.7951834
 72
     1
 10
778.5813486000001
 20
58.7951834
 11
781.1610361
 21
58.7951834
 72
     1
 10
781.1610361
 20
58.7951834
 11
781.9373485503001
 21
58.6524712382
 72
     1
 10
781.9373485503001
 20
58.6524712382
 11
782.6121504694
 21
58.2429957793
 72
     1
 10
782.6121504694
 20
58.2429957793
 11
783.0972048324
 21
57.6202999896
 72
     1
 10
783.0972048324
 20
57.6202999896
 11
783.3290859838
 21
56.8658075024
 72
     1
 10
783.3290859838
 20
56.8658075024
 11
783.2774731696
 21
56.0781756728
 72
     1
 10
783.2774731696
 20
56.0781756728
 11
783.1747134023999
 21
55.8535459
 72
     1
 10
783.1747134023999
 20
55.8535459
 11
781.1308736
 21
55.8535459
 72
     1
 10
781.1308736
 20
55.8535459
 11
781.5202079749999
 21
55.9578677314
 72
     1
 10
781.5202079749999
 20
55.9578677314
 11
781.8052205186
 21
56.242880275
 72
     1
 10
781.8052205186
 20
56.242880275
 11
781.90954235
 21
56.63221465
 72
     1
 10
781.90954235
 20
56.63221465
 11
781.8052205186
 21
57.021549025
 72
     1
 10
781.8052205186
 20
57.021549025
 11
781.5202079749999
 21
57.3065615686
 72
     1
 10
781.5202079749999
 20
57.3065615686
 11
781.1308736
 21
57.41088340000001
 72
     1
 10
781.1308736
 20
57.41088340000001
 11
780.2831486
 21
57.41088340000001
 72
     1
 10
780.2831486
 20
57.41088340000001
 11
778.5813486000001
 21
57.41088340000001
 97
        1
330
304
 75
     0
 76
     1
 98
        1
 10
0.0
 20
0.0
  0
LWPOLYLINE
  5
306
330
24F
100
AcDbEntity
  8
0
  6
Continuous
 62
     2
100
AcDbPolyline
 90
       12
 70
     0
 43
0.0
 10
751.0826736
 20
51.6514334
 10
749.3808736
 20
51.6514334
 10
749.3808736
 20
58.7951834
 10
751.0826736
 20
58.7951834
 10
751.0826736
 20
56.55369204100001
 10
753.3241649589999
 20
58.7951834
 10
755.7308736
 20
58.7951834
 10
752.5558736
 20
55.6201834
 10
755.7308736
 20
51.6514334
 10
753.5515062341
 20
51.6514334
 10
751.0826736
 20
54.7374741926
 10
751.0826736
 20
51.6514334
  0
HATCH
  5
307
330
24F
100
AcDbEntity
  8
0
  6
Continuous
 62
     2
100
AcDbHatch
 10
0.0
 20
0.0
 30
0.0
210
0.0
220
0.0
230
1.0
  2
SOLID
 70
     1
 71
     1
 91
        1
 92
        1
 93
       11
 72
     1
 10
751.0826736
 20
51.6514334
 11
749.3808736
 21
51.6514334
 72
     1
 10
749.3808736
 20
51.6514334
 11
749.3808736
 21
58.7951834
 72
     1
 10
749.3808736
 20
58.7951834
 11
751.0826736
 21
58.7951834
 72
     1
 10
751.0826736
 20
58.7951834
 11
751.0826736
 21
56.55369204100001
 72
     1
 10
751.0826736
 20
56.55369204100001
 11
753.3241649589999
 21
58.7951834
 72
     1
 10
753.3241649589999
 20
58.7951834
 11
755.7308736
 21
58.7951834
 72
     1
 10
755.7308736
 20
58.7951834
 11
752.5558736
 21
55.6201834
 72
     1
 10
752.5558736
 20
55.6201834
 11
755.7308736
 21
51.6514334
 72
     1
 10
755.7308736
 20
51.6514334
 11
753.5515062341
 21
51.6514334
 72
     1
 10
753.5515062341
 20
51.6514334
 11
751.0826736
 21
54.7374741926
 72
     1
 10
751.0826736
 20
54.7374741926
 11
751.0826736
 21
51.6514334
 97
        1
330
306
 75
     0
 76
     1
 98
        1
 10
0.0
 20
0.0
  0
LWPOLYLINE
  5
308
330
24F
100
AcDbEntity
  8
0
  6
Continuous
 62
     2
100
AcDbPolyline
 90
       23
 70
     0
 43
0.0
 10
758.5089986
 20
51.6514334
 10
757.4052285232
 20
51.8262534059
 10
756.4095031519999
 20
52.33360082319999
 10
755.6192910232
 20
53.123812952
 10
755.1119436058999
 20
54.1195383232
 10
754.9371236
 20
55.2233084
 10
755.1119436058999
 20
56.3270784768
 10
755.4983307727999
 20
57.08540598969999
 10
758.6815473523
 20
57.08540598969999
 10
757.9972282838
 20
57.0219944897
 10
757.3820266324
 20
56.7156604663
 10
756.9190287899
 20
56.207776027
 10
756.6707651806
 20
55.5669337795
 10
756.6707651806
 20
54.8796830205
 10
756.9190287899
 20
54.238840773
 10
757.3820266324
 20
53.7309563337
 10
757.9972282838
 20
53.42462231029999
 10
758.6815473523
 20
53.36121081029999
 10
761.5196664272
 20
53.36121081029999
 10
761.3987061767999
 20
53.123812952
 10
760.608494048
 20
52.33360082319999
 10
759.6127686767998
 20
51.8262534059
 10
758.5089986
 20
51.6514334
  0
HATCH
  5
309
330
24F
100
AcDbEntity
  8
0
  6
Continuous
 62
     2
100
AcDbHatch
 10
0.0
 20
0.0
 30
0.0
210
0.0
220
0.0
230
1.0
  2
SOLID
 70
     1
 71
     1
 91
        1
 92
        1
 93
       22
 72
     1
 10
758.5089986
 20
51.6514334
 11
757.4052285232
 21
51.8262534059
 72
     1
 10
757.4052285232
 20
51.8262534059
 11
756.4095031519999
 21
52.33360082319999
 72
     1
 10
756.4095031519999
 20
52.33360082319999
 11
755.6192910232
 21
53.123812952
 72
     1
 10
755.6192910232
 20
53.123812952
 11
755.1119436058999
 21
54.1195383232
 72
     1
 10
755.1119436058999
 20
54.1195383232
 11
754.9371236
 21
55.2233084
 72
     1
 10
754.9371236
 20
55.2233084
 11
755.1119436058999
 21
56.3270784768
 72
     1
 10
755.1119436058999
 20
56.3270784768
 11
755.4983307727999
 21
57.08540598969999
 72
     1
 10
755.4983307727999
 20
57.08540598969999
 11
758.6815473523
 21
57.08540598969999
 72
     1
 10
758.6815473523
 20
57.08540598969999
 11
757.9972282838
 21
57.0219944897
 72
     1
 10
757.9972282838
 20
57.0219944897
 11
757.3820266324
 21
56.7156604663
 72
     1
 10
757.3820266324
 20
56.7156604663
 11
756.9190287899
 21
56.207776027
 72
     1
 10
756.9190287899
 20
56.207776027
 11
756.6707651806
 21
55.5669337795
 72
     1
 10
756.6707651806
 20
55.5669337795
 11
756.6707651806
 21
54.8796830205
 72
     1
 10
756.6707651806
 20
54.8796830205
 11
756.9190287899
 21
54.238840773
 72
     1
 10
756.9190287899
 20
54.238840773
 11
757.3820266324
 21
53.7309563337
 72
     1
 10
757.3820266324
 20
53.7309563337
 11
757.9972282838
 21
53.42462231029999
 72
     1
 10
757.9972282838
 20
53.42462231029999
 11
758.6815473523
 21
53.36121081029999
 72
     1
 10
758.6815473523
 20
53.36121081029999
 11
761.5196664272
 21
53.36121081029999
 72
     1
 10
761.5196664272
 20
53.36121081029999
 11
761.3987061767999
 21
53.123812952
 72
     1
 10
761.3987061767999
 20
53.123812952
 11
760.608494048
 21
52.33360082319999
 72
     1
 10
760.608494048
 20
52.33360082319999
 11
759.6127686767998
 21
51.8262534059
 72
     1
 10
759.6127686767998
 20
51.8262534059
 11
758.5089986
 21
51.6514334
 97
        1
330
308
 75
     0
 76
     1
 98
        1
 10
0.0
 20
0.0
  0
LWPOLYLINE
  5
30A
330
24F
100
AcDbEntity
  8
0
  6
Continuous
 62
     2
100
AcDbPolyline
 90
       22
 70
     0
 43
0.0
 10
755.4983307727999
 20
57.08540598969999
 10
755.6192910232
 20
57.322803848
 10
756.4095031519999
 20
58.11301597679999
 10
757.4052285232
 20
58.6203633941
 10
758.5089986
 20
58.7951834
 10
759.6127686767998
 20
58.6203633941
 10
760.608494048
 20
58.11301597679999
 10
761.3987061767999
 20
57.322803848
 10
761.9060535941001
 20
56.3270784768
 10
762.0808736
 20
55.2233084
 10
761.9060535941001
 20
54.1195383232
 10
761.5196664272
 20
53.36121081029999
 10
758.6815473523
 20
53.36121081029999
 10
759.3425627557
 20
53.5492859079
 10
759.8910007009
 20
53.9634470192
 10
760.2527916044
 20
54.5477593911
 10
760.3790736
 20
55.2233084
 10
760.2527916044
 20
55.8988574089
 10
759.8910007009
 20
56.4831697808
 10
759.3425627557
 20
56.8973308921
 10
758.6815473523
 20
57.08540598969999
 10
755.4983307727999
 20
57.08540598969999
  0
HATCH
  5
30B
330
24F
100
AcDbEntity
  8
0
  6
Continuous
 62
     2
100
AcDbHatch
 10
0.0
 20
0.0
 30
0.0
210
0.0
220
0.0
230
1.0
  2
SOLID
 70
     1
 71
     1
 91
        1
 92
        1
 93
       21
 72
     1
 10
755.4983307727999
 20
57.08540598969999
 11
755.6192910232
 21
57.322803848
 72
     1
 10
755.6192910232
 20
57.322803848
 11
756.4095031519999
 21
58.11301597679999
 72
     1
 10
756.4095031519999
 20
58.11301597679999
 11
757.4052285232
 21
58.6203633941
 72
     1
 10
757.4052285232
 20
58.6203633941
 11
758.5089986
 21
58.7951834
 72
     1
 10
758.5089986
 20
58.7951834
 11
759.6127686767998
 21
58.6203633941
 72
     1
 10
759.6127686767998
 20
58.6203633941
 11
760.608494048
 21
58.11301597679999
 72
     1
 10
760.608494048
 20
58.11301597679999
 11
761.3987061767999
 21
57.322803848
 72
     1
 10
761.3987061767999
 20
57.322803848
 11
761.9060535941001
 21
56.3270784768
 72
     1
 10
761.9060535941001
 20
56.3270784768
 11
762.0808736
 21
55.2233084
 72
     1
 10
762.0808736
 20
55.2233084
 11
761.9060535941001
 21
54.1195383232
 72
     1
 10
761.9060535941001
 20
54.1195383232
 11
761.5196664272
 21
53.36121081029999
 72
     1
 10
761.5196664272
 20
53.36121081029999
 11
758.6815473523
 21
53.36121081029999
 72
     1
 10
758.6815473523
 20
53.36121081029999
 11
759.3425627557
 21
53.5492859079
 72
     1
 10
759.3425627557
 20
53.5492859079
 11
759.8910007009
 21
53.9634470192
 72
     1
 10
759.8910007009
 20
53.9634470192
 11
760.2527916044
 21
54.5477593911
 72
     1
 10
760.2527916044
 20
54.5477593911
 11
760.3790736
 21
55.2233084
 72
     1
 10
760.3790736
 20
55.2233084
 11
760.2527916044
 21
55.8988574089
 72
     1
 10
760.2527916044
 20
55.8988574089
 11
759.8910007009
 21
56.4831697808
 72
     1
 10
759.8910007009
 20
56.4831697808
 11
759.3425627557
 21
56.8973308921
 72
     1
 10
759.3425627557
 20
56.8973308921
 11
758.6815473523
 21
57.08540598969999
 72
     1
 10
758.6815473523
 20
57.08540598969999
 11
755.4983307727999
 21
57.08540598969999
 97
        1
330
30A
 75
     0
 76
     1
 98
        1
 10
0.0
 20
0.0
  0
LWPOLYLINE
  5
30C
330
24F
100
AcDbEntity
  8
0
  6
Continuous
 62
     2
100
AcDbPolyline
 90
       13
 70
     0
 43
0.0
 10
764.5764235999999
 20
51.6514334
 10
762.8746236
 20
51.6514334
 10
762.8746236
 20
58.7951834
 10
764.5764235999999
 20
58.7951834
 10
764.5764235999999
 20
56.4710834
 10
766.5607986
 20
56.4710834
 10
766.5607986
 20
58.7951834
 10
768.2625986
 20
58.7951834
 10
768.2625986
 20
51.6514334
 10
766.5607986
 20
51.6514334
 10
766.5607986
 20
54.7692834
 10
764.5764235999999
 20
54.7692834
 10
764.5764235999999
 20
51.6514334
  0
HATCH
  5
30D
330
24F
100
AcDbEntity
  8
0
  6
Continuous
 62
     2
100
AcDbHatch
 10
0.0
 20
0.0
 30
0.0
210
0.0
220
0.0
230
1.0
  2
SOLID
 70
     1
 71
     1
 91
        1
 92
        1
 93
       12
 72
     1
 10
764.5764235999999
 20
51.6514334
 11
762.8746236
 21
51.6514334
 72
     1
 10
762.8746236
 20
51.6514334
 11
762.8746236
 21
58.7951834
 72
     1
 10
762.8746236
 20
58.7951834
 11
764.5764235999999
 21
58.7951834
 72
     1
 10
764.5764235999999
 20
58.7951834
 11
764.5764235999999
 21
56.4710834
 72
     1
 10
764.5764235999999
 20
56.4710834
 11
766.5607986
 21
56.4710834
 72
     1
 10
766.5607986
 20
56.4710834
 11
766.5607986
 21
58.7951834
 72
     1
 10
766.5607986
 20
58.7951834
 11
768.2625986
 21
58.7951834
 72
     1
 10
768.2625986
 20
58.7951834
 11
768.2625986
 21
51.6514334
 72
     1
 10
768.2625986
 20
51.6514334
 11
766.5607986
 21
51.6514334
 72
     1
 10
766.5607986
 20
51.6514334
 11
766.5607986
 21
54.7692834
 72
     1
 10
766.5607986
 20
54.7692834
 11
764.5764235999999
 21
54.7692834
 72
     1
 10
764.5764235999999
 20
54.7692834
 11
764.5764235999999
 21
51.6514334
 97
        1
330
30C
 75
     0
 76
     1
 98
        1
 10
0.0
 20
0.0
  0
LWPOLYLINE
  5
30E
330
24F
100
AcDbEntity
  8
0
  6
Continuous
 62
     2
100
AcDbPolyline
 90
        7
 70
     0
 43
0.0
 10
773.0250986000001
 20
51.6514334
 10
769.0563486000001
 20
51.6514334
 10
769.0563486000001
 20
58.7951834
 10
770.7581486
 20
58.7951834
 10
770.7581486
 20
53.3532334
 10
773.0250986000001
 20
53.3532334
 10
773.0250986000001
 20
51.6514334
  0
HATCH
  5
30F
330
24F
100
AcDbEntity
  8
0
  6
Continuous
 62
     2
100
AcDbHatch
 10
0.0
 20
0.0
 30
0.0
210
0.0
220
0.0
230
1.0
  2
SOLID
 70
     1
 71
     1
 91
        1
 92
        1
 93
        6
 72
     1
 10
773.0250986000001
 20
51.6514334
 11
769.0563486000001
 21
51.6514334
 72
     1
 10
769.0563486000001
 20
51.6514334
 11
769.0563486000001
 21
58.7951834
 72
     1
 10
769.0563486000001
 20
58.7951834
 11
770.7581486
 21
58.7951834
 72
     1
 10
770.7581486
 20
58.7951834
 11
770.7581486
 21
53.3532334
 72
     1
 10
770.7581486
 20
53.3532334
 11
773.0250986000001
 21
53.3532334
 72
     1
 10
773.0250986000001
 20
53.3532334
 11
773.0250986000001
 21
51.6514334
 97
        1
330
30E
 75
     0
 76
     1
 98
        1
 10
0.0
 20
0.0
  0
LWPOLYLINE
  5
310
330
24F
100
AcDbEntity
  8
0
  6
Continuous
 62
     2
100
AcDbPolyline
 90
       13
 70
     0
 43
0.0
 10
777.7875986
 20
51.6514334
 10
773.8188486
 20
51.6514334
 10
773.8188486
 20
58.7951834
 10
777.7875986
 20
58.7951834
 10
777.7875986
 20
57.0933834
 10
775.5206486
 20
57.0933834
 10
775.5206486
 20
55.8757709
 10
777.7875986
 20
55.8757709
 10
777.7875986
 20
54.5708459
 10
775.5206486
 20
54.5708459
 10
775.5206486
 20
53.3532334
 10
777.7875986
 20
53.3532334
 10
777.7875986
 20
51.6514334
  0
HATCH
  5
311
330
24F
100
AcDbEntity
  8
0
  6
Continuous
 62
     2
100
AcDbHatch
 10
0.0
 20
0.0
 30
0.0
210
0.0
220
0.0
230
1.0
  2
SOLID
 70
     1
 71
     1
 91
        1
 92
        1
 93
       12
 72
     1
 10
777.7875986
 20
51.6514334
 11
773.8188486
 21
51.6514334
 72
     1
 10
773.8188486
 20
51.6514334
 11
773.8188486
 21
58.7951834
 72
     1
 10
773.8188486
 20
58.7951834
 11
777.7875986
 21
58.7951834
 72
     1
 10
777.7875986
 20
58.7951834
 11
777.7875986
 21
57.0933834
 72
     1
 10
777.7875986
 20
57.0933834
 11
775.5206486
 21
57.0933834
 72
     1
 10
775.5206486
 20
57.0933834
 11
775.5206486
 21
55.8757709
 72
     1
 10
775.5206486
 20
55.8757709
 11
777.7875986
 21
55.8757709
 72
     1
 10
777.7875986
 20
55.8757709
 11
777.7875986
 21
54.5708459
 72
     1
 10
777.7875986
 20
54.5708459
 11
775.5206486
 21
54.5708459
 72
     1
 10
775.5206486
 20
54.5708459
 11
775.5206486
 21
53.3532334
 72
     1
 10
775.5206486
 20
53.3532334
 11
777.7875986
 21
53.3532334
 72
     1
 10
777.7875986
 20
53.3532334
 11
777.7875986
 21
51.6514334
 97
        1
330
310
 75
     0
 76
     1
 98
        1
 10
0.0
 20
0.0
  0
ENDBLK
  5
312
330
24F
100
AcDbEntity
  8
0
  6
ByBlock
 62
     0
100
AcDbBlockEnd
  0
BLOCK
  5
1BAF
330
1BAD
100
AcDbEntity
  8
0
100
AcDbBlockBegin
  2
GENAXEH
 70
     0
 10
0.0
 20
0.0
 30
0.0
  3
GENAXEH
  1

  0
LINE
  5
1BAE
330
1BAD
100
AcDbEntity
  8
0
100
AcDbLine
 10
-1.0
 20
0.0
 30
0.0
 11
1.0
 21
0.0
 31
0.0
  0
ENDBLK
  5
1BB0
330
1BAD
100
AcDbEntity
  8
0
100
AcDbBlockEnd
  0
ENDSEC
  0
SECTION
  2
ENTITIES
  0
LINE
  5
47BB
330
231
100
AcDbEntity
  8
0
  6
Continuous
 62
     7
100
AcDbLine
 10
13875.39428252425
 20
-109.1024192515638
 30
0.0
 11
13875.4211706837
 21
-108.7950861835919
 31
0.0
  0
LINE
  5
47BC
330
231
100
AcDbEntity
  8
0
  6
Continuous
 62
     7
100
AcDbLine
 10
13928.22477507704
 20
-274.5028613226028
 30
0.0
 11
13914.78427965634
 21
-120.8772956876219
 31
0.0
  0
LWPOLYLINE
  5
47BD
330
231
100
AcDbEntity
  8
0
  6
Continuous
 62
     7
100
AcDbPolyline
 90
      177
 70
     0
 43
0.0
 10
13974.96305963119
 20
-306.6243237710996
 10
13974.96669970246
 20
-306.5841081665929
 10
13974.97102191257
 20
-306.5395042129702
 10
13974.97564116504
 20
-306.4949301123824
 10
13974.98055725421
 20
-306.450387838143
 10
13974.98576995975
 20
-306.4058793745654
 10
13974.99127904733
 20
-306.3614067162963
 10
13974.99708426994
 20
-306.3169718383162
 10
13975.00318536893
 20
-306.2725767136053
 10
13975.00958206829
 20
-306.2282233318102
 10
13975.01627408237
 20
-306.1839136629113
 10
13975.02326111184
 20
-306.1396496742223
 10
13975.03054284102
 20
-306.0954333507233
 10
13975.03811894459
 20
-306.0512666543947
 10
13975.04598908355
 20
-306.0071515478835
 10
13975.05415290192
 20
-305.9630900108367
 10
13975.06261003401
 20
-305.9190839995677
 10
13975.07136010184
 20
-305.8751354683908
 10
13975.08040270908
 20
-305.8312463909526
 10
13975.08973745073
 20
-305.7874187155672
 10
13975.0993639088
 20
-305.7436543888814
 10
13975.10928164662
 20
-305.6999553795426
 10
13975.11949021987
 20
-305.6563236268645
 10
13975.12998917154
 20
-305.6127610681611
 10
13975.14077802432
 20
-305.5692696654128
 10
13975.15185629487
 20
-305.5258513472669
 10
13975.16322348653
 20
-305.4825080430376
 10
13975.17487908164
 20
-305.439241707372
 10
13975.18682255754
 20
-305.3960542605841
 10
13975.19905337856
 20
-305.3529476196549
 10
13975.21157098639
 20
-305.3099237322314
 10
13975.22437482001
 20
-305.2669845052946
 10
13975.23746430445
 20
-305.2241318468255
 10
13975.2508388397
 20
-305.1813676974712
 10
13975.26449782611
 20
-305.138693954213
 10
13975.27844065002
 20
-305.096112511365
 10
13975.29266667075
 20
-305.0536253005747
 10
13975.30717525033
 20
-305.0112342048231
 10
13975.32196573576
 20
-304.9689411067583
 10
13975.33703744537
 20
-304.926747931361
 10
13975.35238970185
 20
-304.8846565482791
 10
13975.36802181419
 20
-304.8426688261605
 10
13975.38393305941
 20
-304.8007866803195
 10
13975.40012272285
 20
-304.7590119634042
 10
13975.41659007451
 20
-304.7173465320626
 10
13975.43333434606
 20
-304.6757923002758
 10
13975.45035478419
 20
-304.6343511070252
 10
13975.4676506209
 20
-304.5930247916258
 10
13975.48522104586
 20
-304.5518152590586
 10
13975.50306526841
 20
-304.510724329972
 10
13975.52118248157
 20
-304.4697538290144
 10
13975.53957182968
 20
-304.4289056575002
 10
13975.5582324824
 20
-304.3881816214113
 10
13975.57716359675
 20
-304.347583526063
 10
13975.59636427442
 20
-304.3071132587698
 10
13975.61583364805
 20
-304.266772607847
 10
13975.63557083601
 20
-304.2265633606102
 10
13975.6555748973
 20
-304.1864873927071
 10
13975.67584492993
 20
-304.1465464671203
 10
13975.69638001191
 20
-304.1067423584987
 10
13975.71717914892
 20
-304.0670769491569
 10
13975.73824139863
 20
-304.0275519880771
 10
13975.75956580338
 20
-303.988169224242
 10
13975.78115132519
 20
-303.9489305259662
 10
13975.80299698573
 20
-303.9098376188992
 10
13975.82510178902
 20
-303.8708922336903
 10
13975.84746464638
 20
-303.8320962329875
 10
13975.87008454985
 20
-303.7934513094406
 10
13975.89296045909
 20
-303.7549591830323
 10
13975.91609121411
 20
-303.7166217454106
 10
13975.93947576293
 20
-303.6784406752251
 10
13975.96311303322
 20
-303.6404176591257
 10
13975.98700180967
 20
-303.6025545847603
 10
13976.01114100527
 20
-303.5648531024455
 10
13976.03552950772
 20
-303.5273148781649
 10
13976.06016603635
 20
-303.4899418062327
 10
13976.08504946518
 20
-303.4527355139659
 10
13976.11017864555
 20
-303.4156976393484
 10
13976.13555223481
 20
-303.3788300750277
 10
13976.16116907864
 20
-303.3421344079881
 10
13976.18702798139
 20
-303.3056122618798
 10
13976.21312751005
 20
-303.2692655646837
 10
13976.23946646566
 20
-303.2330958833842
 10
13976.26604361989
 20
-303.1971048039653
 10
13976.29285746375
 20
-303.161294260741
 10
13976.31990677292
 20
-303.125665773696
 10
13976.34719026841
 20
-303.0902209151482
 10
13976.37470632492
 20
-303.0549616717441
 10
13976.40245367111
 20
-303.0198895428023
 10
13976.43043099533
 20
-302.985006054974
 10
13976.45863657927
 20
-302.9503132112392
 10
13976.48706913194
 20
-302.9158124519169
 10
13976.51572728203
 20
-302.881505292992
 10
13976.54460915354
 20
-302.8473938207767
 10
13976.57371340216
 20
-302.8134794529238
 10
13976.60303862757
 20
-302.7797636510852
 10
13976.63258283013
 20
-302.7462485322398
 10
13976.66234465584
 20
-302.712935437374
 10
13976.69232263139
 20
-302.6798258238068
 10
13976.72251452847
 20
-302.6469219415155
 10
13976.75291892842
 20
-302.6142251114872
 10
13976.78353433393
 20
-302.5817367193744
 10
13976.81435835102
 20
-302.5494590641541
 10
13976.8453895637
 20
-302.5173933691476
 10
13976.87662638233
 20
-302.4855410203409
 10
13976.9080660946
 20
-302.4539045027093
 10
13976.93970720985
 20
-302.4224850139073
 10
13976.9715481171
 20
-302.3912838542554
 10
13977.00358585773
 20
-302.3603035957277
 10
13977.03581898706
 20
-302.3295452876472
 10
13977.06824575012
 20
-302.2990102583339
 10
13977.10086265028
 20
-302.268701419092
 10
13977.13366814255
 20
-302.2386197925779
 10
13977.16666045929
 20
-302.2087665894462
 10
13977.19983568587
 20
-302.1791449029994
 10
13977.23319242663
 20
-302.1497554968964
 10
13977.2667286496
 20
-302.1205996831241
 10
13977.30043937716
 20
-302.0916812506447
 10
13977.33432292699
 20
-302.0630010544496
 10
13977.36837740844
 20
-302.0345601085285
 10
13977.4025974079
 20
-302.0063622905095
 10
13977.43698114006
 20
-301.9784083710514
 10
13977.47152667294
 20
-301.9506992258123
 10
13977.50622824525
 20
-301.9232387200868
 10
13977.54108453335
 20
-301.8960270962058
 10
13977.57609300793
 20
-301.8690655291575
 10
13977.61124594506
 20
-301.8423590715581
 10
13977.6465416451
 20
-301.8159080387377
 10
13977.68197776774
 20
-301.7897132146885
 10
13977.71754543972
 20
-301.7637800850224
 10
13977.75324254908
 20
-301.7381090187357
 10
13977.78906696917
 20
-301.712700381158
 10
13977.82500960741
 20
-301.6875593615707
 10
13977.86106869848
 20
-301.6626858463083
 10
13977.89724159441
 20
-301.638080320366
 10
13977.93351767398
 20
-301.6137485496861
 10
13977.96989671252
 20
-301.5896891432827
 10
13978.00637434141
 20
-301.5659034574751
 10
13978.04293342781
 20
-301.5424009065031
 10
13978.07957212042
 20
-301.5191807377071
 10
13978.1162873396
 20
-301.4962429707537
 10
13978.15305973454
 20
-301.4735975415435
 10
13978.18988736192
 20
-301.4512432890883
 10
13978.22676690646
 20
-301.4291798827246
 10
13978.26367655436
 20
-301.4074177856811
 10
13978.3006150103
 20
-301.3859549636448
 10
13978.33757798834
 20
-301.364791124952
 10
13978.37453874106
 20
-301.3439385014802
 10
13978.41149451116
 20
-301.3233952892478
 10
13978.44844209468
 20
-301.3031599322701
 10
13978.48535359423
 20
-301.2832440904305
 10
13978.52222774949
 20
-301.263644569761
 10
13978.55905955217
 20
-301.2443601886067
 10
13978.59581497527
 20
-301.2254045601649
 10
13978.63249296616
 20
-301.2067737228085
 10
13978.6690879562
 20
-301.1884660368871
 10
13978.70555856549
 20
-301.1704973125762
 10
13978.74190306471
 20
-301.1528631425863
 10
13978.77811617258
 20
-301.1355608786107
 10
13978.81415054223
 20
-301.1186074768131
 10
13978.85000464635
 20
-301.1019975929136
 10
13978.88567263934
 20
-301.0857279336118
 10
13978.92110002972
 20
-301.0698168570574
 10
13978.95628067725
 20
-301.0542601392929
 10
13978.99121299059
 20
-301.0390515863799
 10
13979.02584870289
 20
-301.0242049688476
 10
13979.06017994958
 20
-301.0097160234051
 10
13979.09420675664
 20
-300.9955772037948
 10
13979.12789229578
 20
-300.9817960979405
 10
13979.16123199805
 20
-300.9683666459031
 10
13979.19422276747
 20
-300.9552822784147
 10
13979.2268297354
 20
-300.9425488430837
 10
13979.25904880487
 20
-300.9301597926421
 10
13979.29087666592
 20
-300.9181083794907
 10
13979.32227943856
 20
-300.9063992779163
 10
13979.35325390681
 20
-300.8950254106561
 10
13979.36414410957
 20
-300.8910870657067
  0
LINE
  5
47BE
330
231
100
AcDbEntity
  8
0
  6
Continuous
 62
     7
100
AcDbLine
 10
13953.68479937259
 20
-299.9562943520605
 30
0.0
 11
13953.7194709162
 21
-299.9742804058649
 31
0.0
  0
LWPOLYLINE
  5
47BF
330
231
100
AcDbEntity
  8
0
  6
Continuous
 62
     7
100
AcDbPolyline
 90
      157
 70
     0
 43
0.0
 10
13953.7194709162
 20
-299.9742804058649
 10
13953.77055870632
 20
-300.0012783662159
 10
13953.79668768569
 20
-300.0153065325995
 10
13953.82320535518
 20
-300.0296969746936
 10
13953.85011598974
 20
-300.0444599683956
 10
13953.87741440409
 20
-300.059600844652
 10
13953.90509746492
 20
-300.0751261973969
 10
13953.9331721915
 20
-300.0910485731715
 10
13953.96163477987
 20
-300.1073747045753
 10
13953.99047980109
 20
-300.1241105375486
 10
13954.01971147476
 20
-300.1412678353073
 10
13954.04933593519
 20
-300.1588598990515
 10
13954.07933680451
 20
-300.1768868867798
 10
13954.10968446869
 20
-300.19534069224
 10
13954.14038510135
 20
-300.2142347916304
 10
13954.17142190665
 20
-300.2335687426222
 10
13954.20273142021
 20
-300.2533122815182
 10
13954.23430934677
 20
-300.2734714549244
 10
13954.26614985269
 20
-300.2940514281227
 10
13954.29818822431
 20
-300.3150186651148
 10
13954.33041659235
 20
-300.3363756552094
 10
13954.36283341718
 20
-300.3581291183393
 10
13954.39538456666
 20
-300.3802499811285
 10
13954.42806147556
 20
-300.4027390732354
 10
13954.46086398453
 20
-300.4256030135937
 10
13954.49375149399
 20
-300.448819881756
 10
13954.52671962563
 20
-300.4723925436938
 10
13954.55976451952
 20
-300.4963242613741
 10
13954.59284718569
 20
-300.5205923980237
 10
13954.6259622232
 20
-300.5451981342972
 10
13954.65910742108
 20
-300.5701450208258
 10
13954.69224938465
 20
-300.5954127568125
 10
13954.72538313231
 20
-300.6210019665846
 10
13954.75850662274
 20
-300.6469155347797
 10
13954.79159160456
 20
-300.673135506244
 10
13954.82463473679
 20
-300.6996630342994
 10
13954.85763287247
 20
-300.7264994265995
 10
13954.89055875387
 20
-300.753626000331
 10
13954.92340781305
 20
-300.7810420955006
 10
13954.95617876067
 20
-300.8087497634212
 10
13954.98884991262
 20
-300.8367335385806
 10
13955.02141692728
 20
-300.8649922526573
 10
13955.05387881466
 20
-300.8935276156342
 10
13955.08621943891
 20
-300.9223278286291
 10
13955.11843598774
 20
-300.9513925503124
 10
13955.15052633184
 20
-300.9807220386813
 10
13955.18247580301
 20
-301.01030486885
 10
13955.21428110262
 20
-301.0401397448316
 10
13955.24594100068
 20
-301.0702272822865
 10
13955.27744431398
 20
-301.1005584876381
 10
13955.30878853053
 20
-301.1311324132291
 10
13955.33997194936
 20
-301.1619488813947
 10
13955.37098492223
 20
-301.19299970955
 10
13955.40182480649
 20
-301.2242834520427
 10
13955.4324903355
 20
-301.2558000325405
 10
13955.462974187
 20
-301.2875430481072
 10
13955.49327425399
 20
-301.3195113180878
 10
13955.52338896517
 20
-301.3517042068225
 10
13955.55331201461
 20
-301.3841159123688
 10
13955.58304131731
 20
-301.4167450194078
 10
13955.6125754983
 20
-301.4495908666128
 10
13955.64190949363
 20
-301.4826486120319
 10
13955.67104150797
 20
-301.5159169473453
 10
13955.69997005601
 20
-301.5493948978957
 10
13955.72869069214
 20
-301.5830779837282
 10
13955.75720163402
 20
-301.6169647115242
 10
13955.78550155469
 20
-301.6510541079601
 10
13955.8135868215
 20
-301.6853423580743
 10
13955.84145584814
 20
-301.7198280368806
 10
13955.86910725562
 20
-301.7545099543913
 10
13955.89653783032
 20
-301.7893845566419
 10
13955.92374602323
 20
-301.8244503076474
 10
13955.95073055605
 20
-301.8597059957538
 10
13955.9774887108
 20
-301.8951484773254
 10
13956.00401906849
 20
-301.9307762467108
 10
13956.03032034214
 20
-301.9665879509235
 10
13956.05639009011
 20
-302.0025806163266
 10
13956.08222693374
 20
-302.0387526566026
 10
13956.10782966138
 20
-302.0751026984318
 10
13956.13319615471
 20
-302.1116280338415
 10
13956.15832512642
 20
-302.1483270878473
 10
13956.18321537884
 20
-302.1851983891306
 10
13956.20786498368
 20
-302.2222393430507
 10
13956.23227269593
 20
-302.2594483172905
 10
13956.25643737762
 20
-302.2968238188652
 10
13956.28035731675
 20
-302.334363425132
 10
13956.30403133901
 20
-302.3720655037741
 10
13956.32745833073
 20
-302.4099284921404
 10
13956.35063671495
 20
-302.4479500402545
 10
13956.37356536133
 20
-302.4861284767996
 10
13956.39624320588
 20
-302.5244622134585
 10
13956.41866881362
 20
-302.5629489995868
 10
13956.44084111089
 20
-302.6015871532013
 10
13956.46275906571
 20
-302.6403750383186
 10
13956.48442134409
 20
-302.6793104479606
 10
13956.5058269097
 20
-302.7183916594779
 10
13956.52697478088
 20
-302.7576170235537
 10
13956.54786374266
 20
-302.7969844215424
 10
13956.5684928117
 20
-302.8364921267947
 10
13956.58886103702
 20
-302.876138444661
 10
13956.60896728462
 20
-302.9159212894953
 10
13956.62881061451
 20
-302.9558389129816
 10
13956.64839011505
 20
-302.9958895964708
 10
13956.66770472724
 20
-303.0360712809833
 10
13956.68675355075
 20
-303.0763821945368
 10
13956.70553571626
 20
-303.116820599482
 10
13956.72405023877
 20
-303.1573844721726
 10
13956.74229626431
 20
-303.1980720339595
 10
13956.76027295788
 20
-303.238881514194
 10
13956.77797938881
 20
-303.2798108888962
 10
13956.79541474046
 20
-303.3208583524174
 10
13956.81257822115
 20
-303.3620221241089
 10
13956.82946896424
 20
-303.403300204324
 10
13956.8460861964
 20
-303.4446907777474
 10
13956.86242916164
 20
-303.4861920387307
 10
13956.87849704596
 20
-303.5278019909603
 10
13956.89428911337
 20
-303.5695187971214
 10
13956.90980465055
 20
-303.6113406402322
 10
13956.92504289916
 20
-303.6532655429789
 10
13956.94000316622
 20
-303.6952916607136
 10
13956.95468477374
 20
-303.7374171534545
 10
13956.96908701205
 20
-303.7796400435547
 10
13956.98320922583
 20
-303.8219584690328
 10
13956.99705077774
 20
-303.8643705789074
 10
13957.01061100714
 20
-303.906874402865
 10
13957.02388930002
 20
-303.9494680699241
 10
13957.03688505639
 20
-303.99214971177
 10
13957.04959765994
 20
-304.0349173550894
 10
13957.06202653531
 20
-304.0777691142341
 10
13957.07417112286
 20
-304.1207031105565
 10
13957.08603085227
 20
-304.1637173764095
 10
13957.09760518852
 20
-304.2068100171455
 10
13957.1088936103
 20
-304.2499791401166
 10
13957.11989558962
 20
-304.2932227733426
 10
13957.13061063046
 20
-304.3365390105093
 10
13957.14103825152
 20
-304.3799259503022
 10
13957.15117796879
 20
-304.4233816224078
 10
13957.16102932527
 20
-304.4669041128452
 10
13957.17059187898
 20
-304.5104915083002
 10
13957.17986518725
 20
-304.5541418351259
 10
13957.18884883274
 20
-304.5978531693415
 10
13957.19754241247
 20
-304.6416235899664
 10
13957.20594552611
 20
-304.6854511233533
 10
13957.21405779632
 20
-304.7293338385218
 10
13957.22187885811
 20
-304.7732698061576
 10
13957.22940835348
 20
-304.8172570482809
 10
13957.23664594343
 20
-304.8612936265773
 10
13957.24359130365
 20
-304.9053776047331
 10
13957.25024411612
 20
-304.949507006768
 10
13957.25660408218
 20
-304.9936798890347
 10
13957.26267091651
 20
-305.0378943075529
 10
13957.26844434211
 20
-305.082148282342
 10
13957.27392409932
 20
-305.1264398650884
 10
13957.27910994212
 20
-305.1707671054782
 10
13957.28400163321
 20
-305.2151280195313
 10
13957.28859895257
 20
-305.259520642934
 10
13957.29290169387
 20
-305.3039430317056
  0
LINE
  5
47C0
330
231
100
AcDbEntity
  8
0
  6
Continuous
 62
     7
100
AcDbLine
 10
13910.83073269521
 20
-112.6266409046615
 30
0.0
 11
13910.87389757289
 21
-112.6682178282214
 31
0.0
  0
LINE
  5
47C1
330
231
100
AcDbEntity
  8
0
  6
Continuous
 62
     7
100
AcDbLine
 10
13910.87048969763
 20
-112.6649213481865
 30
0.0
 11
13910.91370080085
 21
-112.7068989127401
 31
0.0
  0
LINE
  5
47C2
330
231
100
AcDbEntity
  8
0
  6
Continuous
 62
     7
100
AcDbLine
 10
13910.91035420098
 20
-112.703633916057
 30
0.0
 11
13910.95146321822
 21
-112.7439040260185
 31
0.0
  0
LINE
  5
47C3
330
231
100
AcDbEntity
  8
0
  6
Continuous
 62
     7
100
AcDbLine
 10
13910.95097271013
 20
-112.743421421178
 30
0.0
 11
13910.99251367005
 21
-112.784474943972
 31
0.0
  0
LINE
  5
47C4
330
231
100
AcDbEntity
  8
0
  6
Continuous
 62
     7
100
AcDbLine
 10
13910.98837268812
 20
-112.7803659687288
 30
0.0
 11
13911.03700324115
 21
-112.8288544765055
 31
0.0
  0
LINE
  5
47C5
330
231
100
AcDbEntity
  8
0
  6
Continuous
 62
     7
100
AcDbLine
 10
13911.03003905312
 20
-112.8218791419262
 30
0.0
 11
13911.04268246502
 21
-112.8345506282101
 31
0.0
  0
LINE
  5
47C6
330
231
100
AcDbEntity
  8
0
  6
Continuous
 62
     7
100
AcDbLine
 10
13910.02748182579
 20
-111.9176642764986
 30
0.0
 11
13910.07356734327
 21
-111.9552535199358
 31
0.0
  0
LINE
  5
47C7
330
231
100
AcDbEntity
  8
0
  6
Continuous
 62
     7
100
AcDbLine
 10
13910.07049749597
 20
-111.9527386940843
 30
0.0
 11
13910.11681749176
 21
-111.9908512019554
 31
0.0
  0
LINE
  5
47C8
330
231
100
AcDbEntity
  8
0
  6
Continuous
 62
     7
100
AcDbLine
 10
13910.11456292998
 20
-111.9889878155895
 30
0.0
 11
13910.16067452119
 21
-112.0272693381038
 31
0.0
  0
LINE
  5
47C9
330
231
100
AcDbEntity
  8
0
  6
Continuous
 62
     7
100
AcDbLine
 10
13910.15833438126
 20
-112.0253179056183
 30
0.0
 11
13910.202326394
 21
-112.0621587858724
 31
0.0
  0
LINE
  5
47CA
330
231
100
AcDbEntity
  8
0
  6
Continuous
 62
     7
100
AcDbLine
 10
13910.20200386756
 20
-112.0618874835855
 30
0.0
 11
13910.24653927287
 21
-112.0995193482631
 31
0.0
  0
LINE
  5
47CB
330
231
100
AcDbEntity
  8
0
  6
Continuous
 62
     7
100
AcDbLine
 10
13910.24653927287
 20
-112.0995193482631
 30
0.0
 11
13910.2919324486
 21
-112.1382303854822
 31
0.0
  0
LINE
  5
47CC
330
231
100
AcDbEntity
  8
0
  6
Continuous
 62
     7
100
AcDbLine
 10
13910.28835529303
 20
-112.1351667261191
 30
0.0
 11
13910.33301518943
 21
-112.173577415675
 31
0.0
  0
LINE
  5
47CD
330
231
100
AcDbEntity
  8
0
  6
Continuous
 62
     7
100
AcDbLine
 10
13910.33151054681
 20
-112.1722775743402
 30
0.0
 11
13910.37528072644
 21
-112.2102548825633
 31
0.0
  0
LINE
  5
47CE
330
231
100
AcDbEntity
  8
0
  6
Continuous
 62
     7
100
AcDbLine
 10
13910.37456491093
 20
-112.2096310474684
 30
0.0
 11
13910.41808183409
 21
-112.2477240052017
 31
0.0
  0
LINE
  5
47CF
330
231
100
AcDbEntity
  8
0
  6
Continuous
 62
     7
100
AcDbLine
 10
13910.41512294068
 20
-112.2451230562115
 30
0.0
 11
13910.45893150126
 21
-112.2837950634875
 31
0.0
  0
LINE
  5
47D0
330
231
100
AcDbEntity
  8
0
  6
Continuous
 62
     7
100
AcDbLine
 10
13910.45786770923
 20
-112.2828518422531
 30
0.0
 11
13910.50088046243
 21
-112.3211558078763
 31
0.0
  0
LINE
  5
47D1
330
231
100
AcDbEntity
  8
0
  6
Continuous
 62
     7
100
AcDbLine
 10
13910.50024794342
 20
-112.3205900532006
 30
0.0
 11
13910.54531170578
 21
-112.3610839502576
 31
0.0
  0
LINE
  5
47D2
330
231
100
AcDbEntity
  8
0
  6
Continuous
 62
     7
100
AcDbLine
 10
13910.54417473515
 20
-112.3600576011878
 30
0.0
 11
13910.58776362859
 21
-112.3995802199577
 31
0.0
  0
LINE
  5
47D3
330
231
100
AcDbEntity
  8
0
  6
Continuous
 62
     7
100
AcDbLine
 10
13910.58444464278
 20
-112.3965581861783
 30
0.0
 11
13910.62890706515
 21
-112.4372172825833
 31
0.0
  0
LINE
  5
47D4
330
231
100
AcDbEntity
  8
0
  6
Continuous
 62
     7
100
AcDbLine
 10
13910.62740429884
 20
-112.4358368723876
 30
0.0
 11
13910.67098936999
 21
-112.47605056358
 31
0.0
  0
LINE
  5
47D5
330
231
100
AcDbEntity
  8
0
  6
Continuous
 62
     7
100
AcDbLine
 10
13910.66756018362
 20
-112.4728732663532
 30
0.0
 11
13910.71180891312
 21
-112.5140484722637
 31
0.0
  0
LINE
  5
47D6
330
231
100
AcDbEntity
  8
0
  6
Continuous
 62
     7
100
AcDbLine
 10
13910.70925406834
 20
-112.5116606251425
 30
0.0
 11
13910.75322056067
 21
-112.5529335924086
 31
0.0
  0
LINE
  5
47D7
330
231
100
AcDbEntity
  8
0
  6
Continuous
 62
     7
100
AcDbLine
 10
13910.75124660208
 20
-112.5510723223549
 30
0.0
 11
13910.79524186678
 21
-112.5927414283263
 31
0.0
  0
LINE
  5
47D8
330
231
100
AcDbEntity
  8
0
  6
Continuous
 62
     7
100
AcDbLine
 10
13910.7935467944
 20
-112.5911287587865
 30
0.0
 11
13910.83331215841
 21
-112.6291147179231
 31
0.0
  0
LINE
  5
47D9
330
231
100
AcDbEntity
  8
0
  6
Continuous
 62
     7
100
AcDbLine
 10
13909.20363145272
 20
-111.3012775284278
 30
0.0
 11
13909.25183101572
 21
-111.3346078951208
 31
0.0
  0
LINE
  5
47DA
330
231
100
AcDbEntity
  8
0
  6
Continuous
 62
     7
100
AcDbLine
 10
13909.24937750092
 20
-111.3329035018316
 30
0.0
 11
13909.29807308029
 21
-111.3668878943176
 31
0.0
  0
LINE
  5
47DB
330
231
100
AcDbEntity
  8
0
  6
Continuous
 62
     7
100
AcDbLine
 10
13909.29751016792
 20
-111.3664931479317
 30
0.0
 11
13909.34631385121
 21
-111.4008825960338
 31
0.0
  0
LINE
  5
47DC
330
231
100
AcDbEntity
  8
0
  6
Continuous
 62
     7
100
AcDbLine
 10
13909.34463764997
 20
-111.3996958922343
 30
0.0
 11
13909.3915177895
 21
-111.4330361064955
 31
0.0
  0
LINE
  5
47DD
330
231
100
AcDbEntity
  8
0
  6
Continuous
 62
     7
100
AcDbLine
 10
13909.38832379744
 20
-111.4307546736434
 30
0.0
 11
13909.43633983761
 21
-111.4652061051256
 31
0.0
  0
LINE
  5
47DE
330
231
100
AcDbEntity
  8
0
  6
Continuous
 62
     7
100
AcDbLine
 10
13909.43584785553
 20
-111.4648514293391
 30
0.0
 11
13909.48397150195
 21
-111.4997100410828
 31
0.0
  0
LINE
  5
47DF
330
231
100
AcDbEntity
  8
0
  6
Continuous
 62
     7
100
AcDbLine
 10
13909.48143429732
 20
-111.4978638158786
 30
0.0
 11
13909.52918970977
 21
-111.5327711801348
 31
0.0
  0
LINE
  5
47E0
330
231
100
AcDbEntity
  8
0
  6
Continuous
 62
     7
100
AcDbLine
 10
13909.52753082069
 20
-111.5315529979834
 30
0.0
 11
13909.57482407408
 21
-111.5664411837647
 31
0.0
  0
LINE
  5
47E1
330
231
100
AcDbEntity
  8
0
  6
Continuous
 62
     7
100
AcDbLine
 10
13909.57155684676
 20
-111.5640203219736
 30
0.0
 11
13909.61867395025
 21
-111.5990855799842
 31
0.0
  0
LINE
  5
47E2
330
231
100
AcDbEntity
  8
0
  6
Continuous
 62
     7
100
AcDbLine
 10
13909.61587055028
 20
-111.596989978607
 30
0.0
 11
13909.66363977992
 21
-111.6328598159051
 31
0.0
  0
LINE
  5
47E3
330
231
100
AcDbEntity
  8
0
  6
Continuous
 62
     7
100
AcDbLine
 10
13909.66198754178
 20
-111.6316134123692
 30
0.0
 11
13909.70905157246
 21
-111.6672793513729
 31
0.0
  0
LINE
  5
47E4
330
231
100
AcDbEntity
  8
0
  6
Continuous
 62
     7
100
AcDbLine
 10
13909.7059149925
 20
-111.6648919132476
 30
0.0
 11
13909.75253630795
 21
-111.7005334581619
 31
0.0
  0
LINE
  5
47E5
330
231
100
AcDbEntity
  8
0
  6
Continuous
 62
     7
100
AcDbLine
 10
13909.74948552145
 20
-111.6981909499205
 30
0.0
 11
13909.79694621384
 21
-111.7347960808656
 31
0.0
  0
LINE
  5
47E6
330
231
100
AcDbEntity
  8
0
  6
Continuous
 62
     7
100
AcDbLine
 10
13909.79571751013
 20
-111.7338440073864
 30
0.0
 11
13909.84237473089
 21
-111.7701624555316
 31
0.0
  0
LINE
  5
47E7
330
231
100
AcDbEntity
  8
0
  6
Continuous
 62
     7
100
AcDbLine
 10
13909.83910722156
 20
-111.767607879411
 30
0.0
 11
13909.88398117248
 21
-111.8028382037709
 31
0.0
  0
LINE
  5
47E8
330
231
100
AcDbEntity
  8
0
  6
Continuous
 62
     7
100
AcDbLine
 10
13909.88111234317
 20
-111.8005763603895
 30
0.0
 11
13909.92658352712
 21
-111.836581148338
 31
0.0
  0
LINE
  5
47E9
330
231
100
AcDbEntity
  8
0
  6
Continuous
 62
     7
100
AcDbLine
 10
13909.92572539537
 20
-111.8358986051636
 30
0.0
 11
13909.97192773867
 21
-111.8728158376542
 31
0.0
  0
LINE
  5
47EA
330
231
100
AcDbEntity
  8
0
  6
Continuous
 62
     7
100
AcDbLine
 10
13909.97070485124
 20
-111.8718342651367
 30
0.0
 11
13910.01751580446
 21
-111.909581627326
 31
0.0
  0
LINE
  5
47EB
330
231
100
AcDbEntity
  8
0
  6
Continuous
 62
     7
100
AcDbLine
 10
13910.0160750032
 20
-111.9084144563311
 30
0.0
 11
13910.02767971915
 21
-111.9178249372254
 31
0.0
  0
LINE
  5
47EC
330
231
100
AcDbEntity
  8
0
  6
Continuous
 62
     7
100
AcDbLine
 10
13910.02462765001
 20
-111.9153478143302
 30
0.0
 11
13910.02748182579
 21
-111.9176642764986
 31
0.0
  0
LINE
  5
47ED
330
231
100
AcDbEntity
  8
0
  6
Continuous
 62
     7
100
AcDbLine
 10
13908.36224543799
 20
-110.7685547130426
 30
0.0
 11
13908.41278519126
 21
-110.7980567270195
 31
0.0
  0
LINE
  5
47EE
330
231
100
AcDbEntity
  8
0
  6
Continuous
 62
     7
100
AcDbLine
 10
13908.41124694364
 20
-110.7971542860439
 30
0.0
 11
13908.46108489392
 21
-110.826537290211
 31
0.0
  0
LINE
  5
47EF
330
231
100
AcDbEntity
  8
0
  6
Continuous
 62
     7
100
AcDbLine
 10
13908.46036981341
 20
-110.8261135831148
 30
0.0
 11
13908.51069532748
 21
-110.8560841834058
 31
0.0
  0
LINE
  5
47F0
330
231
100
AcDbEntity
  8
0
  6
Continuous
 62
     7
100
AcDbLine
 10
13908.50793143812
 20
-110.8544302096123
 30
0.0
 11
13908.55792385652
 21
-110.8844909083356
 31
0.0
  0
LINE
  5
47F1
330
231
100
AcDbEntity
  8
0
  6
Continuous
 62
     7
100
AcDbLine
 10
13908.55547259703
 20
-110.88300982348
 30
0.0
 11
13908.60587558133
 21
-110.9136126601152
 31
0.0
  0
LINE
  5
47F2
330
231
100
AcDbEntity
  8
0
  6
Continuous
 62
     7
100
AcDbLine
 10
13908.60372860047
 20
-110.9123027038816
 30
0.0
 11
13908.65271918256
 21
-110.9423360222121
 31
0.0
  0
LINE
  5
47F3
330
231
100
AcDbEntity
  8
0
  6
Continuous
 62
     7
100
AcDbLine
 10
13908.65044416064
 20
-110.9409347318918
 30
0.0
 11
13908.70045916716
 21
-110.9718904543315
 31
0.0
  0
LINE
  5
47F4
330
231
100
AcDbEntity
  8
0
  6
Continuous
 62
     7
100
AcDbLine
 10
13908.69764268032
 20
-110.970138922847
 30
0.0
 11
13908.74752699481
 21
-111.0013091134753
 31
0.0
  0
LINE
  5
47F5
330
231
100
AcDbEntity
  8
0
  6
Continuous
 62
     7
100
AcDbLine
 10
13908.7468840769
 20
-111.0009053871792
 30
0.0
 11
13908.79606614541
 21
-111.0319413088169
 31
0.0
  0
LINE
  5
47F6
330
231
100
AcDbEntity
  8
0
  6
Continuous
 62
     7
100
AcDbLine
 10
13908.79380065773
 20
-111.0305049248476
 30
0.0
 11
13908.84271382859
 21
-111.0616633635934
 31
0.0
  0
LINE
  5
47F7
330
231
100
AcDbEntity
  8
0
  6
Continuous
 62
     7
100
AcDbLine
 10
13908.83974812492
 20
-111.0597654182397
 30
0.0
 11
13908.88831413225
 21
-111.0909888833353
 31
0.0
  0
LINE
  5
47F8
330
231
100
AcDbEntity
  8
0
  6
Continuous
 62
     7
100
AcDbLine
 10
13908.88567483398
 20
-111.0892842147155
 30
0.0
 11
13908.93337520797
 21
-111.1202327672268
 31
0.0
  0
LINE
  5
47F9
330
231
100
AcDbEntity
  8
0
  6
Continuous
 62
     7
100
AcDbLine
 10
13908.93334375729
 20
-111.1202122637652
 30
0.0
 11
13908.98153061908
 21
-111.151778574099
 31
0.0
  0
LINE
  5
47FA
330
231
100
AcDbEntity
  8
0
  6
Continuous
 62
     7
100
AcDbLine
 10
13908.97905305652
 20
-111.1501481180703
 30
0.0
 11
13909.02791384591
 21
-111.1824528303533
 31
0.0
  0
LINE
  5
47FB
330
231
100
AcDbEntity
  8
0
  6
Continuous
 62
     7
100
AcDbLine
 10
13909.02546488806
 20
-111.180826140287
 30
0.0
 11
13909.07469650608
 21
-111.2136813620649
 31
0.0
  0
LINE
  5
47FC
330
231
100
AcDbEntity
  8
0
  6
Continuous
 62
     7
100
AcDbLine
 10
13909.07469650608
 20
-111.2136813620649
 30
0.0
 11
13909.12277545628
 21
-111.2460814443941
 31
0.0
  0
LINE
  5
47FD
330
231
100
AcDbEntity
  8
0
  6
Continuous
 62
     7
100
AcDbLine
 10
13909.11961587655
 20
-111.2439426404491
 30
0.0
 11
13909.16715656913
 21
-111.2762675228637
 31
0.0
  0
LINE
  5
47FE
330
231
100
AcDbEntity
  8
0
  6
Continuous
 62
     7
100
AcDbLine
 10
13909.16676190041
 20
-111.2759979038932
 30
0.0
 11
13909.20427364063
 21
-111.3017194983414
 31
0.0
  0
LINE
  5
47FF
330
231
100
AcDbEntity
  8
0
  6
Continuous
 62
     7
100
AcDbLine
 10
13909.20134542724
 20
-111.2997046881563
 30
0.0
 11
13909.20363145272
 21
-111.3012775284278
 31
0.0
  0
LINE
  5
4800
330
231
100
AcDbEntity
  8
0
  6
Continuous
 62
     7
100
AcDbLine
 10
14308.65889749811
 20
-299.7418593577653
 30
0.0
 11
14308.69210597335
 21
-299.7324831095287
 31
0.0
  0
LINE
  5
4801
330
231
100
AcDbEntity
  8
0
  6
Continuous
 62
     7
100
AcDbLine
 10
14308.69210597335
 20
-299.7324831095287
 30
0.0
 11
14308.72438372257
 21
-299.7235455662384
 31
0.0
  0
LINE
  5
4802
330
231
100
AcDbEntity
  8
0
  6
Continuous
 62
     7
100
AcDbLine
 10
14308.72438372257
 20
-299.7235455662384
 30
0.0
 11
14308.75578783253
 21
-299.7150156972045
 31
0.0
  0
LINE
  5
4803
330
231
100
AcDbEntity
  8
0
  6
Continuous
 62
     7
100
AcDbLine
 10
14308.75578783253
 20
-299.7150156972045
 30
0.0
 11
14308.78633248441
 21
-299.7068755109406
 31
0.0
  0
LINE
  5
4804
330
231
100
AcDbEntity
  8
0
  6
Continuous
 62
     7
100
AcDbLine
 10
14308.78633248441
 20
-299.7068755109406
 30
0.0
 11
14308.8160302101
 21
-299.6991082176143
 31
0.0
  0
LINE
  5
4805
330
231
100
AcDbEntity
  8
0
  6
Continuous
 62
     7
100
AcDbLine
 10
14308.8160302101
 20
-299.6991082176143
 30
0.0
 11
14308.84489654977
 21
-299.6916969693942
 31
0.0
  0
LINE
  5
4806
330
231
100
AcDbEntity
  8
0
  6
Continuous
 62
     7
100
AcDbLine
 10
14308.84489654977
 20
-299.6916969693942
 30
0.0
 11
14308.88209647809
 21
-299.6823468955625
 31
0.0
  0
LINE
  5
4807
330
231
100
AcDbEntity
  8
0
  6
Continuous
 62
     7
100
AcDbLine
 10
14308.88209647809
 20
-299.6823468955625
 30
0.0
 11
14308.91771662422
 21
-299.6736050103156
 31
0.0
  0
LINE
  5
4808
330
231
100
AcDbEntity
  8
0
  6
Continuous
 62
     7
100
AcDbLine
 10
14308.91771662422
 20
-299.6736050103156
 30
0.0
 11
14308.95159853573
 21
-299.6654806752264
 31
0.0
  0
LINE
  5
4809
330
231
100
AcDbEntity
  8
0
  6
Continuous
 62
     7
100
AcDbLine
 10
14308.95159853573
 20
-299.6654806752264
 30
0.0
 11
14308.98358947516
 21
-299.6579800742332
 31
0.0
  0
LINE
  5
480A
330
231
100
AcDbEntity
  8
0
  6
Continuous
 62
     7
100
AcDbLine
 10
14308.98358947516
 20
-299.6579800742332
 30
0.0
 11
14309.01356000711
 21
-299.6511028113398
 31
0.0
  0
LINE
  5
480B
330
231
100
AcDbEntity
  8
0
  6
Continuous
 62
     7
100
AcDbLine
 10
14309.01356000711
 20
-299.6511028113398
 30
0.0
 11
14309.04804591625
 21
-299.6433680306884
 31
0.0
  0
LINE
  5
480C
330
231
100
AcDbEntity
  8
0
  6
Continuous
 62
     7
100
AcDbLine
 10
14309.04804591625
 20
-299.6433680306884
 30
0.0
 11
14309.07916705837
 21
-299.6365515901868
 31
0.0
  0
LINE
  5
480D
330
231
100
AcDbEntity
  8
0
  6
Continuous
 62
     7
100
AcDbLine
 10
14309.07916705837
 20
-299.6365515901868
 30
0.0
 11
14309.11214886088
 21
-299.6294967230695
 31
0.0
  0
LINE
  5
480E
330
231
100
AcDbEntity
  8
0
  6
Continuous
 62
     7
100
AcDbLine
 10
14309.11214886088
 20
-299.6294967230695
 30
0.0
 11
14309.14495863045
 21
-299.6226510568602
 31
0.0
  0
LINE
  5
480F
330
231
100
AcDbEntity
  8
0
  6
Continuous
 62
     7
100
AcDbLine
 10
14309.14495863045
 20
-299.6226510568602
 30
0.0
 11
14309.17675809178
 21
-299.6161801772363
 31
0.0
  0
LINE
  5
4810
330
231
100
AcDbEntity
  8
0
  6
Continuous
 62
     7
100
AcDbLine
 10
14309.17675809178
 20
-299.6161801772363
 30
0.0
 11
14309.20761391889
 21
-299.6100557524811
 31
0.0
  0
LINE
  5
4811
330
231
100
AcDbEntity
  8
0
  6
Continuous
 62
     7
100
AcDbLine
 10
14309.20761391889
 20
-299.6100557524811
 30
0.0
 11
14309.23800099102
 21
-299.6041734976376
 31
0.0
  0
LINE
  5
4812
330
231
100
AcDbEntity
  8
0
  6
Continuous
 62
     7
100
AcDbLine
 10
14309.23800099102
 20
-299.6041734976376
 30
0.0
 11
14309.26843440401
 21
-299.5984317057228
 31
0.0
  0
LINE
  5
4813
330
231
100
AcDbEntity
  8
0
  6
Continuous
 62
     7
100
AcDbLine
 10
14309.26843440401
 20
-299.5984317057228
 30
0.0
 11
14309.29728309886
 21
-299.5931292027484
 31
0.0
  0
LINE
  5
4814
330
231
100
AcDbEntity
  8
0
  6
Continuous
 62
     7
100
AcDbLine
 10
14309.29728309886
 20
-299.5931292027484
 30
0.0
 11
14309.32410730461
 21
-299.5883257801164
 31
0.0
  0
LINE
  5
4815
330
231
100
AcDbEntity
  8
0
  6
Continuous
 62
     7
100
AcDbLine
 10
14309.32410730461
 20
-299.5883257801164
 30
0.0
 11
14309.34051424087
 21
-299.5854526408481
 31
0.0
  0
LINE
  5
4816
330
231
100
AcDbEntity
  8
0
  6
Continuous
 62
     7
100
AcDbLine
 10
14309.15323684333
 20
-299.61456182142
 30
0.0
 11
14309.14843192871
 21
-299.615289684808
 31
0.0
  0
LINE
  5
4817
330
231
100
AcDbEntity
  8
0
  6
Continuous
 62
     7
100
AcDbLine
 10
14612.3756924424
 20
-303.082876005573
 30
0.0
 11
14602.54862444912
 21
-303.426044781876
 31
0.0
  0
LINE
  5
4818
330
231
100
AcDbEntity
  8
0
  6
Continuous
 62
     7
100
AcDbLine
 10
14205.35259644912
 20
-303.426044781876
 30
0.0
 11
14279.59593083535
 21
-300.8334104154788
 31
0.0
  0
LINE
  5
4819
330
231
100
AcDbEntity
  8
0
  6
Continuous
 62
     7
100
AcDbLine
 10
14279.36682042014
 20
-300.8414111274709
 30
0.0
 11
14279.39218550149
 21
-300.8409750384985
 31
0.0
  0
LINE
  5
481A
330
231
100
AcDbEntity
  8
0
  6
Continuous
 62
     7
100
AcDbLine
 10
14279.39218550149
 20
-300.8409750384985
 30
0.0
 11
14279.41986378604
 21
-300.8406210287053
 31
0.0
  0
LINE
  5
481B
330
231
100
AcDbEntity
  8
0
  6
Continuous
 62
     7
100
AcDbLine
 10
14279.41986378604
 20
-300.8406210287053
 30
0.0
 11
14279.44829890735
 21
-300.8403836720789
 31
0.0
  0
LINE
  5
481C
330
231
100
AcDbEntity
  8
0
  6
Continuous
 62
     7
100
AcDbLine
 10
14279.44829890735
 20
-300.8403836720789
 30
0.0
 11
14279.47949264608
 21
-300.8402670769116
 31
0.0
  0
LINE
  5
481D
330
231
100
AcDbEntity
  8
0
  6
Continuous
 62
     7
100
AcDbLine
 10
14631.49995615324
 20
-315.5093551615638
 30
0.0
 11
14618.2490821853
 21
-315.5093551615638
 31
0.0
  0
LINE
  5
481E
330
231
100
AcDbEntity
  8
0
  6
Continuous
 62
     7
100
AcDbLine
 10
14433.12422010543
 20
-315.5093551615638
 30
0.0
 11
14419.87334613783
 21
-315.5093551615638
 31
0.0
  0
LINE
  5
481F
330
231
100
AcDbEntity
  8
0
  6
Continuous
 62
     7
100
AcDbLine
 10
14301.56098902457
 20
-315.5093551615638
 30
0.0
 11
14288.31011505663
 21
-315.5093551615638
 31
0.0
  0
LINE
  5
4820
330
231
100
AcDbEntity
  8
0
  6
Continuous
 62
     7
100
AcDbLine
 10
13972.81123709363
 20
-315.5093551615638
 30
0.0
 11
13959.5603631257
 21
-315.5093551615638
 31
0.0
  0
LINE
  5
4821
330
231
100
AcDbEntity
  8
0
  6
Continuous
 62
     7
100
AcDbLine
 10
14192.09058151992
 20
-313.2293779615638
 30
0.0
 11
14065.21785025993
 21
-313.2293779615638
 31
0.0
  0
LINE
  5
4822
330
231
100
AcDbEntity
  8
0
  6
Continuous
 62
     7
100
AcDbLine
 10
14462.41387825993
 20
-313.2293779615638
 30
0.0
 11
14589.28660949626
 21
-313.2293779615638
 31
0.0
  0
LINE
  5
4823
330
231
100
AcDbEntity
  8
0
  6
Continuous
 62
     7
100
AcDbLine
 10
14205.35259644912
 20
-303.426044781876
 30
0.0
 11
14051.95583533107
 21
-303.426044781876
 31
0.0
  0
LINE
  5
4824
330
231
100
AcDbEntity
  8
0
  6
Continuous
 62
     7
100
AcDbLine
 10
14279.47949264608
 20
-300.8402670769116
 30
0.0
 11
14279.51069368639
 21
-300.8402989402596
 31
0.0
  0
LINE
  5
4825
330
231
100
AcDbEntity
  8
0
  6
Continuous
 62
     7
100
AcDbLine
 10
14279.51069368639
 20
-300.8402989402596
 30
0.0
 11
14279.54207105129
 21
-300.8404795431202
 31
0.0
  0
LINE
  5
4826
330
231
100
AcDbEntity
  8
0
  6
Continuous
 62
     7
100
AcDbLine
 10
14279.54207105129
 20
-300.8404795431202
 30
0.0
 11
14279.57355096282
 21
-300.8408097028186
 31
0.0
  0
LINE
  5
4827
330
231
100
AcDbEntity
  8
0
  6
Continuous
 62
     7
100
AcDbLine
 10
14279.57355096282
 20
-300.8408097028186
 30
0.0
 11
14279.60464746685
 21
-300.8412818724301
 31
0.0
  0
LINE
  5
4828
330
231
100
AcDbEntity
  8
0
  6
Continuous
 62
     7
100
AcDbLine
 10
14279.60464746685
 20
-300.8412818724301
 30
0.0
 11
14279.63384902583
 21
-300.8418571400108
 31
0.0
  0
LINE
  5
4829
330
231
100
AcDbEntity
  8
0
  6
Continuous
 62
     7
100
AcDbLine
 10
14279.63384902583
 20
-300.8418571400108
 30
0.0
 11
14279.66636728631
 21
-300.8426478564369
 31
0.0
  0
LINE
  5
482A
330
231
100
AcDbEntity
  8
0
  6
Continuous
 62
     7
100
AcDbLine
 10
14279.66636728631
 20
-300.8426478564369
 30
0.0
 11
14279.70260339094
 21
-300.8437151514304
 31
0.0
  0
LINE
  5
482B
330
231
100
AcDbEntity
  8
0
  6
Continuous
 62
     7
100
AcDbLine
 10
14051.95583533107
 20
-303.426044781876
 30
0.0
 11
13979.36414410995
 21
-300.8910870655697
 31
0.0
  0
LINE
  5
482C
330
231
100
AcDbEntity
  8
0
  6
Continuous
 62
     7
100
AcDbLine
 10
14439.00292794583
 20
-303.0716361487897
 30
0.0
 11
14449.15186333107
 21
-303.426044781876
 31
0.0
  0
LINE
  5
482D
330
231
100
AcDbEntity
  8
0
  6
Continuous
 62
     7
100
AcDbLine
 10
14279.70260339094
 20
-300.8437151514304
 30
0.0
 11
14279.73462909135
 21
-300.8448217160314
 31
0.0
  0
LINE
  5
482E
330
231
100
AcDbEntity
  8
0
  6
Continuous
 62
     7
100
AcDbLine
 10
14279.73462909135
 20
-300.8448217160314
 30
0.0
 11
14279.76953517695
 21
-300.8462022728924
 31
0.0
  0
LINE
  5
482F
330
231
100
AcDbEntity
  8
0
  6
Continuous
 62
     7
100
AcDbLine
 10
14279.76953517695
 20
-300.8462022728924
 30
0.0
 11
14279.80707723186
 21
-300.8478902053462
 31
0.0
  0
LINE
  5
4830
330
231
100
AcDbEntity
  8
0
  6
Continuous
 62
     7
100
AcDbLine
 10
14279.80707723186
 20
-300.8478902053462
 30
0.0
 11
14279.83676942661
 21
-300.8493743275049
 31
0.0
  0
LINE
  5
4831
330
231
100
AcDbEntity
  8
0
  6
Continuous
 62
     7
100
AcDbLine
 10
14279.83676942661
 20
-300.8493743275049
 30
0.0
 11
14279.86767710053
 21
-300.8510591753228
 31
0.0
  0
LINE
  5
4832
330
231
100
AcDbEntity
  8
0
  6
Continuous
 62
     7
100
AcDbLine
 10
14279.86767710053
 20
-300.8510591753228
 30
0.0
 11
14279.89972154474
 21
-300.8529568213462
 31
0.0
  0
LINE
  5
4833
330
231
100
AcDbEntity
  8
0
  6
Continuous
 62
     7
100
AcDbLine
 10
14279.89972154474
 20
-300.8529568213462
 30
0.0
 11
14279.93282000342
 21
-300.8550782014655
 31
0.0
  0
LINE
  5
4834
330
231
100
AcDbEntity
  8
0
  6
Continuous
 62
     7
100
AcDbLine
 10
14279.93282000342
 20
-300.8550782014655
 30
0.0
 11
14279.9668919557
 21
-300.8574333382473
 31
0.0
  0
LINE
  5
4835
330
231
100
AcDbEntity
  8
0
  6
Continuous
 62
     7
100
AcDbLine
 10
14279.9668919557
 20
-300.8574333382473
 30
0.0
 11
14280.00193015531
 21
-300.8600367395463
 31
0.0
  0
LINE
  5
4836
330
231
100
AcDbEntity
  8
0
  6
Continuous
 62
     7
100
AcDbLine
 10
14280.00193015531
 20
-300.8600367395463
 30
0.0
 11
14280.03797576785
 21
-300.8629072168413
 31
0.0
  0
LINE
  5
4837
330
231
100
AcDbEntity
  8
0
  6
Continuous
 62
     7
100
AcDbLine
 10
14280.03797576785
 20
-300.8629072168413
 30
0.0
 11
14280.07507021057
 21
-300.8660649965965
 31
0.0
  0
LINE
  5
4838
330
231
100
AcDbEntity
  8
0
  6
Continuous
 62
     7
100
AcDbLine
 10
14280.07507021057
 20
-300.8660649965965
 30
0.0
 11
14280.1132538654
 21
-300.8695316789293
 31
0.0
  0
LINE
  5
4839
330
231
100
AcDbEntity
  8
0
  6
Continuous
 62
     7
100
AcDbLine
 10
14280.1132538654
 20
-300.8695316789293
 30
0.0
 11
14280.15256571161
 21
-300.8733302506099
 31
0.0
  0
LINE
  5
483A
330
231
100
AcDbEntity
  8
0
  6
Continuous
 62
     7
100
AcDbLine
 10
14280.15256571161
 20
-300.8733302506099
 30
0.0
 11
14280.19303833355
 21
-300.877484596066
 31
0.0
  0
LINE
  5
483B
330
231
100
AcDbEntity
  8
0
  6
Continuous
 62
     7
100
AcDbLine
 10
14280.19303833355
 20
-300.877484596066
 30
0.0
 11
14280.23469203134
 21
-300.882018720391
 31
0.0
  0
LINE
  5
483C
330
231
100
AcDbEntity
  8
0
  6
Continuous
 62
     7
100
AcDbLine
 10
14280.23469203134
 20
-300.882018720391
 30
0.0
 11
14280.2775451228
 21
-300.8869576466679
 31
0.0
  0
LINE
  5
483D
330
231
100
AcDbEntity
  8
0
  6
Continuous
 62
     7
100
AcDbLine
 10
14280.2775451228
 20
-300.8869576466679
 30
0.0
 11
14280.30678856937
 21
-300.8904879966973
 31
0.0
  0
LINE
  5
483E
330
231
100
AcDbEntity
  8
0
  6
Continuous
 62
     7
100
AcDbLine
 10
14280.30678856937
 20
-300.8904879966973
 30
0.0
 11
14280.33657866813
 21
-300.8942180147301
 31
0.0
  0
LINE
  5
483F
330
231
100
AcDbEntity
  8
0
  6
Continuous
 62
     7
100
AcDbLine
 10
14280.33657866813
 20
-300.8942180147301
 30
0.0
 11
14280.36691892472
 21
-300.8981558193517
 31
0.0
  0
LINE
  5
4840
330
231
100
AcDbEntity
  8
0
  6
Continuous
 62
     7
100
AcDbLine
 10
14280.36691892472
 20
-300.8981558193517
 30
0.0
 11
14280.39781558975
 21
-300.9023101434747
 31
0.0
  0
LINE
  5
4841
330
231
100
AcDbEntity
  8
0
  6
Continuous
 62
     7
100
AcDbLine
 10
14280.39781558975
 20
-300.9023101434747
 30
0.0
 11
14280.42927489049
 21
-300.9066900126756
 31
0.0
  0
LINE
  5
4842
330
231
100
AcDbEntity
  8
0
  6
Continuous
 62
     7
100
AcDbLine
 10
14280.42927489049
 20
-300.9066900126756
 30
0.0
 11
14280.46130024657
 21
-300.9113043468651
 31
0.0
  0
LINE
  5
4843
330
231
100
AcDbEntity
  8
0
  6
Continuous
 62
     7
100
AcDbLine
 10
14280.46130024657
 20
-300.9113043468651
 30
0.0
 11
14280.49389759592
 21
-300.9161627059477
 31
0.0
  0
LINE
  5
4844
330
231
100
AcDbEntity
  8
0
  6
Continuous
 62
     7
100
AcDbLine
 10
14280.49389759592
 20
-300.9161627059477
 30
0.0
 11
14280.52707264384
 21
-300.9212749311582
 31
0.0
  0
LINE
  5
4845
330
231
100
AcDbEntity
  8
0
  6
Continuous
 62
     7
100
AcDbLine
 10
14280.52707264384
 20
-300.9212749311582
 30
0.0
 11
14280.56082845861
 21
-300.9266507580661
 31
0.0
  0
LINE
  5
4846
330
231
100
AcDbEntity
  8
0
  6
Continuous
 62
     7
100
AcDbLine
 10
14280.56082845861
 20
-300.9266507580661
 30
0.0
 11
14280.5951685062
 21
-300.9323002669038
 31
0.0
  0
LINE
  5
4847
330
231
100
AcDbEntity
  8
0
  6
Continuous
 62
     7
100
AcDbLine
 10
14280.5951685062
 20
-300.9323002669038
 30
0.0
 11
14280.63010932613
 21
-300.9382360862117
 31
0.0
  0
LINE
  5
4848
330
231
100
AcDbEntity
  8
0
  6
Continuous
 62
     7
100
AcDbLine
 10
14280.63010932613
 20
-300.9382360862117
 30
0.0
 11
14280.6656645079
 21
-300.9444709101961
 31
0.0
  0
LINE
  5
4849
330
231
100
AcDbEntity
  8
0
  6
Continuous
 62
     7
100
AcDbLine
 10
14280.6656645079
 20
-300.9444709101961
 30
0.0
 11
14280.70186301658
 21
-300.9510208063631
 31
0.0
  0
LINE
  5
484A
330
231
100
AcDbEntity
  8
0
  6
Continuous
 62
     7
100
AcDbLine
 10
14280.70186301658
 20
-300.9510208063631
 30
0.0
 11
14280.73873324854
 21
-300.9579026578773
 31
0.0
  0
LINE
  5
484B
330
231
100
AcDbEntity
  8
0
  6
Continuous
 62
     7
100
AcDbLine
 10
14280.73873324854
 20
-300.9579026578773
 30
0.0
 11
14280.77629269394
 21
-300.9651321695815
 31
0.0
  0
LINE
  5
484C
330
231
100
AcDbEntity
  8
0
  6
Continuous
 62
     7
100
AcDbLine
 10
14280.77629269394
 20
-300.9651321695815
 30
0.0
 11
14280.81456852518
 21
-300.9727277289584
 31
0.0
  0
LINE
  5
484D
330
231
100
AcDbEntity
  8
0
  6
Continuous
 62
     7
100
AcDbLine
 10
14280.81456852518
 20
-300.9727277289584
 30
0.0
 11
14280.85358832165
 21
-300.9807088114802
 31
0.0
  0
LINE
  5
484E
330
231
100
AcDbEntity
  8
0
  6
Continuous
 62
     7
100
AcDbLine
 10
14280.85358832165
 20
-300.9807088114802
 30
0.0
 11
14280.8933764921
 21
-300.9890952746147
 31
0.0
  0
LINE
  5
484F
330
231
100
AcDbEntity
  8
0
  6
Continuous
 62
     7
100
AcDbLine
 10
14280.8933764921
 20
-300.9890952746147
 30
0.0
 11
14280.93398090971
 21
-300.9979131761014
 31
0.0
  0
LINE
  5
4850
330
231
100
AcDbEntity
  8
0
  6
Continuous
 62
     7
100
AcDbLine
 10
14280.93398090971
 20
-300.9979131761014
 30
0.0
 11
14280.97546240456
 21
-301.0071932153002
 31
0.0
  0
LINE
  5
4851
330
231
100
AcDbEntity
  8
0
  6
Continuous
 62
     7
100
AcDbLine
 10
14280.97546240456
 20
-301.0071932153002
 30
0.0
 11
14281.01785765294
 21
-301.0169625876055
 31
0.0
  0
LINE
  5
4852
330
231
100
AcDbEntity
  8
0
  6
Continuous
 62
     7
100
AcDbLine
 10
14281.01785765294
 20
-301.0169625876055
 30
0.0
 11
14281.0612244716
 21
-301.0272551710118
 31
0.0
  0
LINE
  5
4853
330
231
100
AcDbEntity
  8
0
  6
Continuous
 62
     7
100
AcDbLine
 10
14281.0612244716
 20
-301.0272551710118
 30
0.0
 11
14281.10562100996
 21
-301.0381072131571
 31
0.0
  0
LINE
  5
4854
330
231
100
AcDbEntity
  8
0
  6
Continuous
 62
     7
100
AcDbLine
 10
14281.10562100996
 20
-301.0381072131571
 30
0.0
 11
14281.15106632084
 21
-301.0495474074207
 31
0.0
  0
LINE
  5
4855
330
231
100
AcDbEntity
  8
0
  6
Continuous
 62
     7
100
AcDbLine
 10
14281.15106632084
 20
-301.0495474074207
 30
0.0
 11
14281.19757443075
 21
-301.0616045135151
 31
0.0
  0
LINE
  5
4856
330
231
100
AcDbEntity
  8
0
  6
Continuous
 62
     7
100
AcDbLine
 10
14281.19757443075
 20
-301.0616045135151
 30
0.0
 11
14281.24511287336
 21
-301.0742960002656
 31
0.0
  0
LINE
  5
4857
330
231
100
AcDbEntity
  8
0
  6
Continuous
 62
     7
100
AcDbLine
 10
14281.24511287336
 20
-301.0742960002656
 30
0.0
 11
14281.29366148754
 21
-301.0876426371312
 31
0.0
  0
LINE
  5
4858
330
231
100
AcDbEntity
  8
0
  6
Continuous
 62
     7
100
AcDbLine
 10
14281.29366148754
 20
-301.0876426371312
 30
0.0
 11
14281.34319296422
 21
-301.1016633812557
 31
0.0
  0
LINE
  5
4859
330
231
100
AcDbEntity
  8
0
  6
Continuous
 62
     7
100
AcDbLine
 10
14281.34319296422
 20
-301.1016633812557
 30
0.0
 11
14281.39368196266
 21
-301.1163777634437
 31
0.0
  0
LINE
  5
485A
330
231
100
AcDbEntity
  8
0
  6
Continuous
 62
     7
100
AcDbLine
 10
14281.39368196266
 20
-301.1163777634437
 30
0.0
 11
14281.44511200235
 21
-301.131808049806
 31
0.0
  0
LINE
  5
485B
330
231
100
AcDbEntity
  8
0
  6
Continuous
 62
     7
100
AcDbLine
 10
14281.44511200235
 20
-301.131808049806
 30
0.0
 11
14281.49746908644
 21
-301.147977623442
 31
0.0
  0
LINE
  5
485C
330
231
100
AcDbEntity
  8
0
  6
Continuous
 62
     7
100
AcDbLine
 10
14281.49746908644
 20
-301.147977623442
 30
0.0
 11
14281.55074202337
 21
-301.1649112074378
 31
0.0
  0
LINE
  5
485D
330
231
100
AcDbEntity
  8
0
  6
Continuous
 62
     7
100
AcDbLine
 10
14281.55074202337
 20
-301.1649112074378
 30
0.0
 11
14281.60491849527
 21
-301.1826337065443
 31
0.0
  0
LWPOLYLINE
  5
485E
330
231
100
AcDbEntity
  8
0
  6
Continuous
 62
     7
100
AcDbPolyline
 90
      182
 70
     0
 43
0.0
 10
14281.60491849527
 20
-301.1826337065443
 10
14281.65998543126
 20
-301.2011703001766
 10
14281.68784855929
 20
-301.2107518323603
 10
14281.71592886682
 20
-301.2205463807472
 10
14281.74422487753
 20
-301.2305572919704
 10
14281.77273545808
 20
-301.2407880769949
 10
14281.80145551021
 20
-301.2512408384662
 10
14281.83038642757
 20
-301.2619200596729
 10
14281.85953669706
 20
-301.2728329985424
 10
14281.88890215874
 20
-301.283982333048
 10
14281.91848289293
 20
-301.2953723758131
 10
14281.94829352882
 20
-301.3070132430699
 10
14281.9783317721
 20
-301.318908710114
 10
14282.00859535013
 20
-301.3310626015739
 10
14282.03909865676
 20
-301.3434856193425
 10
14282.06983917235
 20
-301.3561818603788
 10
14282.10081431593
 20
-301.3691554423084
 10
14282.13203810136
 20
-301.3824176266852
 10
14282.16350524068
 20
-301.3959717521426
 10
14282.19521534324
 20
-301.409823302959
 10
14282.22718939883
 20
-301.4239874143165
 10
14282.25941573256
 20
-301.4384650995382
 10
14282.29189961539
 20
-301.4532649912045
 10
14282.32468681785
 20
-301.4684148447045
 10
14282.35777173033
 20
-301.483919528656
 10
14282.39115229052
 20
-301.4997856423266
 10
14282.42487865892
 20
-301.5160452723953
 10
14282.45894630024
 20
-301.5327051597948
 10
14282.49335055319
 20
-301.5497720917904
 10
14282.52814032063
 20
-301.5672801163751
 10
14282.56332136714
 20
-301.5852427914132
 10
14282.59887691359
 20
-301.6036623898821
 10
14282.63482117181
 20
-301.6225573982635
 10
14282.67118665748
 20
-301.6419569075997
 10
14282.70792829506
 20
-301.6618490793427
 10
14282.74494442856
 20
-301.6821896709348
 10
14282.78223779229
 20
-301.7029900789286
 10
14282.81979427639
 20
-301.7242524683025
 10
14282.85748902244
 20
-301.7459146973448
 10
14282.89531738482
 20
-301.7679812090108
 10
14282.93327463124
 20
-301.7904564335896
 10
14282.9712383236
 20
-301.813273568416
 10
14283.00920038565
 20
-301.8364318601641
 10
14283.04716192503
 20
-301.8599361171192
 10
14283.08501686447
 20
-301.88372346891
 10
14283.12273939924
 20
-301.9077787680213
 10
14283.16035092779
 20
-301.9321167349724
 10
14283.19781784745
 20
-301.9567165916381
 10
14283.23513076565
 20
-301.9815725850757
 10
14283.27229534067
 20
-302.0066889022434
 10
14283.30930107194
 20
-302.0320588475414
 10
14283.34614618215
 20
-302.0576814786458
 10
14283.38282890632
 20
-302.0835558462329
 10
14283.41933900722
 20
-302.1096748807066
 10
14283.4556742002
 20
-302.1360369614165
 10
14283.49183351293
 20
-302.1626413963695
 10
14283.52780890351
 20
-302.1894821932921
 10
14283.56359619997
 20
-302.2165560212179
 10
14283.59919657962
 20
-302.2438635508065
 10
14283.63461011015
 20
-302.2714046817258
 10
14283.66983460157
 20
-302.2991775703275
 10
14283.70486923755
 20
-302.3271814329526
 10
14283.73971607975
 20
-302.3554178452524
 10
14283.7743740555
 20
-302.383885933902
 10
14283.80884115782
 20
-302.4125840445847
 10
14283.84311796605
 20
-302.4415126832954
 10
14283.87720417119
 20
-302.4706716693693
 10
14283.91109697292
 20
-302.5000586884961
 10
14283.94479322096
 20
-302.5296710410363
 10
14283.97829096597
 20
-302.5595070076737
 10
14284.01158917433
 20
-302.5895656634174
 10
14284.04468611668
 20
-302.6198454449499
 10
14284.07758016107
 20
-302.6503448499529
 10
14284.1102700155
 20
-302.6810626711049
 10
14284.14275447432
 20
-302.7119977737507
 10
14284.17503216988
 20
-302.7431488605701
 10
14284.20710158885
 20
-302.7745144739108
 10
14284.23896131358
 20
-302.8060932317868
 10
14284.27060995509
 20
-302.8378837608783
 10
14284.30204607706
 20
-302.8698846218665
 10
14284.33326820617
 20
-302.9020943177663
 10
14284.3642749341
 20
-302.9345113945923
 10
14284.39506490419
 20
-302.9671344343586
 10
14284.42563674014
 20
-302.9999619784133
 10
14284.45598907461
 20
-303.0329925591042
 10
14284.48612056796
 20
-303.0662247177792
 10
14284.51602989786
 20
-303.0996569961198
 10
14284.54571574034
 20
-303.1332879151406
 10
14284.57517677072
 20
-303.1671159748567
 10
14284.60441167971
 20
-303.2011396729495
 10
14284.63341917029
 20
-303.2353575004345
 10
14284.6621979515
 20
-303.26976793466
 10
14284.69074673768
 20
-303.3043694399749
 10
14284.71906425917
 20
-303.3391604767277
 10
14284.74714925898
 20
-303.3741395012673
 10
14284.77500048713
 20
-303.4093049579425
 10
14284.80261670597
 20
-303.4446552834357
 10
14284.82999668883
 20
-303.4801889077626
 10
14284.85713921907
 20
-303.5159042529389
 10
14284.88404309103
 20
-303.5517997326472
 10
14284.91070710905
 20
-303.58787375157
 10
14284.93713008749
 20
-303.6241247060569
 10
14284.96331085268
 20
-303.6605509861238
 10
14284.98924824063
 20
-303.6971509731202
 10
14285.01494109803
 20
-303.7339230397293
 10
14285.04038828356
 20
-303.7708655519671
 10
14285.06558866589
 20
-303.8079768688502
 10
14285.09054112536
 20
-303.8452553403951
 10
14285.11524455266
 20
-303.8826993106184
 10
14285.13969785012
 20
-303.9203071158698
 10
14285.16389993143
 20
-303.958077084833
 10
14285.1878497206
 20
-303.9960075395247
 10
14285.2115461533
 20
-304.0340967939617
 10
14285.23498817688
 20
-304.0723431564942
 10
14285.25817474968
 20
-304.1107449271394
 10
14285.28110484104
 20
-304.1493003995808
 10
14285.30377743198
 20
-304.1880078611689
 10
14285.32619151517
 20
-304.2268655915878
 10
14285.34834609429
 20
-304.2658718645211
 10
14285.37024018534
 20
-304.3050249466531
 10
14285.39187281535
 20
-304.3443230980009
 10
14285.41324302264
 20
-304.3837645732489
 10
14285.43434985791
 20
-304.4233476190811
 10
14285.45519238281
 20
-304.4630704771819
 10
14285.47576967204
 20
-304.5029313822356
 10
14285.49608081059
 20
-304.5429285635931
 10
14285.51612489615
 20
-304.5830602436056
 10
14285.53590103805
 20
-304.6233246396243
 10
14285.55540835764
 20
-304.6637199623337
 10
14285.5746459876
 20
-304.7042444167518
 10
14285.59361307392
 20
-304.7448962025632
 10
14285.61230877297
 20
-304.7856735134527
 10
14285.63073225473
 20
-304.8265745374383
 10
14285.64888270022
 20
-304.8675974575384
 10
14285.66675930279
 20
-304.908740450771
 10
14285.68436126877
 20
-304.9500016894878
 10
14285.70168781517
 20
-304.9913793397072
 10
14285.71873817266
 20
-305.0328715634474
 10
14285.73551158359
 20
-305.0744765173937
 10
14285.75200730263
 20
-305.1161923522312
 10
14285.76822459679
 20
-305.1580172149784
 10
14285.78416274574
 20
-305.1999492473206
 10
14285.79982104049
 20
-305.2419865862763
 10
14285.81519878638
 20
-305.2841273635309
 10
14285.83029529908
 20
-305.3263697071034
 10
14285.8451099086
 20
-305.3687117400121
 10
14285.85964195661
 20
-305.4111515809428
 10
14285.87389079679
 20
-305.4536873445809
 10
14285.8878557968
 20
-305.496317140612
 10
14285.90153633566
 20
-305.539039075055
 10
14285.91493180571
 20
-305.5818512495957
 10
14285.92804161161
 20
-305.6247517622529
 10
14285.9408651707
 20
-305.6677387070459
 10
14285.95340191367
 20
-305.7108101736603
 10
14285.96565128351
 20
-305.7539642487818
 10
14285.97761273523
 20
-305.7971990147632
 10
14285.98928573816
 20
-305.8405125509568
 10
14286.00066977332
 20
-305.883902932382
 10
14286.0117643347
 20
-305.9273682317246
 10
14286.02256892966
 20
-305.9709065173374
 10
14286.03308307818
 20
-306.0145158549064
 10
14286.04330631262
 20
-306.0581943071174
 10
14286.0532381793
 20
-306.1019399329901
 10
14286.06287823656
 20
-306.1457507892105
 10
14286.07222605608
 20
-306.1896249287981
 10
14286.08128122286
 20
-306.2335604027723
 10
14286.09004333424
 20
-306.2775552588194
 10
14286.09851200122
 20
-306.3216075422921
 10
14286.10668684714
 20
-306.3657152958768
 10
14286.114567509
 20
-306.4098765599264
 10
14286.12215363647
 20
-306.4540893724605
 10
14286.12944489255
 20
-306.4983517684988
 10
14286.13644095359
 20
-306.5426617820609
 10
14286.14314150859
 20
-306.5870174444999
 10
14286.14954625954
 20
-306.631416784502
 10
14286.15565492212
 20
-306.6758578297538
 10
14286.16146722499
 20
-306.7203386056083
 10
14286.1669829095
 20
-306.7648571357519
 10
14286.17220173098
 20
-306.8094114422044
 10
14286.17712345743
 20
-306.8539995453188
 10
14286.18174787052
 20
-306.8986194641152
 10
14286.18607476392
 20
-306.9432692162798
  0
LINE
  5
485F
330
231
100
AcDbEntity
  8
0
  6
Continuous
 62
     7
100
AcDbLine
 10
13907.50476218958
 20
-110.3125445468565
 30
0.0
 11
13907.5578961989
 21
-110.338452405442
 31
0.0
  0
LINE
  5
4860
330
231
100
AcDbEntity
  8
0
  6
Continuous
 62
     7
100
AcDbLine
 10
13907.55512997423
 20
-110.3370962223373
 30
0.0
 11
13907.60814471941
 21
-110.3632293416701
 31
0.0
  0
LINE
  5
4861
330
231
100
AcDbEntity
  8
0
  6
Continuous
 62
     7
100
AcDbLine
 10
13907.60582807057
 20
-110.3620811048193
 30
0.0
 11
13907.65927909773
 21
-110.3887203490908
 31
0.0
  0
LINE
  5
4862
330
231
100
AcDbEntity
  8
0
  6
Continuous
 62
     7
100
AcDbLine
 10
13907.65759469857
 20
-110.3878761851992
 30
0.0
 11
13907.70987287778
 21
-110.4142189294358
 31
0.0
  0
LINE
  5
4863
330
231
100
AcDbEntity
  8
0
  6
Continuous
 62
     7
100
AcDbLine
 10
13907.7071774324
 20
-110.4128534810904
 30
0.0
 11
13907.76060280048
 21
-110.4400646689758
 31
0.0
  0
LINE
  5
4864
330
231
100
AcDbEntity
  8
0
  6
Continuous
 62
     7
100
AcDbLine
 10
13907.75839638988
 20
-110.4389347259421
 30
0.0
 11
13907.81075838359
 21
-110.4658938293483
 31
0.0
  0
LINE
  5
4865
330
231
100
AcDbEntity
  8
0
  6
Continuous
 62
     7
100
AcDbLine
 10
13907.80866244321
 20
-110.4648089411973
 30
0.0
 11
13907.85946408619
 21
-110.4912407618765
 31
0.0
  0
LINE
  5
4866
330
231
100
AcDbEntity
  8
0
  6
Continuous
 62
     7
100
AcDbLine
 10
13907.85744065576
 20
-110.4901825384588
 30
0.0
 11
13907.90898591597
 21
-110.5172813491346
 31
0.0
  0
LINE
  5
4867
330
231
100
AcDbEntity
  8
0
  6
Continuous
 62
     7
100
AcDbLine
 10
13907.90695961123
 20
-110.5162104921767
 30
0.0
 11
13907.95775781258
 21
-110.543194418668
 31
0.0
  0
LINE
  5
4868
330
231
100
AcDbEntity
  8
0
  6
Continuous
 62
     7
100
AcDbLine
 10
13907.95560693875
 20
-110.5420460288187
 30
0.0
 11
13908.00664649835
 21
-110.5694370992386
 31
0.0
  0
LINE
  5
4869
330
231
100
AcDbEntity
  8
0
  6
Continuous
 62
     7
100
AcDbLine
 10
13908.00572206059
 20
-110.5689383792258
 30
0.0
 11
13908.05773378214
 21
-110.5971481757917
 31
0.0
  0
LINE
  5
486A
330
231
100
AcDbEntity
  8
0
  6
Continuous
 62
     7
100
AcDbLine
 10
13908.05512052494
 20
-110.595723495372
 30
0.0
 11
13908.10730940971
 21
-110.6243229137083
 31
0.0
  0
LINE
  5
486B
330
231
100
AcDbEntity
  8
0
  6
Continuous
 62
     7
100
AcDbLine
 10
13908.10431465966
 20
-110.6226733848704
 30
0.0
 11
13908.15430616007
 21
-110.6503438288299
 31
0.0
  0
LINE
  5
486C
330
231
100
AcDbEntity
  8
0
  6
Continuous
 62
     7
100
AcDbLine
 10
13908.15251236101
 20
-110.6493459851417
 30
0.0
 11
13908.20373474078
 21
-110.677985940406
 31
0.0
  0
LINE
  5
486D
330
231
100
AcDbEntity
  8
0
  6
Continuous
 62
     7
100
AcDbLine
 10
13908.20143184748
 20
-110.6766918006809
 30
0.0
 11
13908.2521993378
 21
-110.7053644166185
 31
0.0
  0
LINE
  5
486E
330
231
100
AcDbEntity
  8
0
  6
Continuous
 62
     7
100
AcDbLine
 10
13908.24933102248
 20
-110.7037364268985
 30
0.0
 11
13908.30162048925
 21
-110.7335662105977
 31
0.0
  0
LINE
  5
486F
330
231
100
AcDbEntity
  8
0
  6
Continuous
 62
     7
100
AcDbLine
 10
13908.29963365045
 20
-110.7324268976576
 30
0.0
 11
13908.34956493847
 21
-110.7612003875865
 31
0.0
  0
LINE
  5
4870
330
231
100
AcDbEntity
  8
0
  6
Continuous
 62
     7
100
AcDbLine
 10
13908.34743505543
 20
-110.759966990254
 30
0.0
 11
13908.36397288438
 21
-110.7695580616756
 31
0.0
  0
LINE
  5
4871
330
231
100
AcDbEntity
  8
0
  6
Continuous
 62
     7
100
AcDbLine
 10
14193.77175891865
 20
-312.0300695087682
 30
0.0
 11
14193.7978367782
 21
-311.9546158456458
 31
0.0
  0
LINE
  5
4872
330
231
100
AcDbEntity
  8
0
  6
Continuous
 62
     7
100
AcDbLine
 10
13904.68945859856
 20
-109.1024192515638
 30
0.0
 11
13906.9073428875
 21
-110.0413236004264
 31
0.0
  0
LINE
  5
4873
330
231
100
AcDbEntity
  8
0
  6
Continuous
 62
     7
100
AcDbLine
 10
13906.9099429375
 20
-110.0424275947197
 30
0.0
 11
13906.99248992302
 21
-110.0777760068987
 31
0.0
  0
LINE
  5
4874
330
231
100
AcDbEntity
  8
0
  6
Continuous
 62
     7
100
AcDbLine
 10
13906.99152889596
 20
-110.0773605867196
 30
0.0
 11
13907.04466489793
 21
-110.1004676696464
 31
0.0
  0
LINE
  5
4875
330
231
100
AcDbEntity
  8
0
  6
Continuous
 62
     7
100
AcDbLine
 10
13907.0428414695
 20
-110.0996700506227
 30
0.0
 11
13907.0966470601
 21
-110.1233462911913
 31
0.0
  0
LINE
  5
4876
330
231
100
AcDbEntity
  8
0
  6
Continuous
 62
     7
100
AcDbLine
 10
13907.09517781213
 20
-110.1226959130285
 30
0.0
 11
13907.14802489299
 21
-110.1462260843911
 31
0.0
  0
LINE
  5
4877
330
231
100
AcDbEntity
  8
0
  6
Continuous
 62
     7
100
AcDbLine
 10
13907.14671654274
 20
-110.1456401362506
 30
0.0
 11
13907.20008817602
 21
-110.1696836371465
 31
0.0
  0
LINE
  5
4878
330
231
100
AcDbEntity
  8
0
  6
Continuous
 62
     7
100
AcDbLine
 10
13907.19804998373
 20
-110.1687601330483
 30
0.0
 11
13907.25178233473
 21
-110.1932478905016
 31
0.0
  0
LINE
  5
4879
330
231
100
AcDbEntity
  8
0
  6
Continuous
 62
     7
100
AcDbLine
 10
13907.25008104275
 20
-110.1924680276337
 30
0.0
 11
13907.30291732471
 21
-110.2168264980466
 31
0.0
  0
LINE
  5
487A
330
231
100
AcDbEntity
  8
0
  6
Continuous
 62
     7
100
AcDbLine
 10
13907.30134240746
 20
-110.2160962833488
 30
0.0
 11
13907.35509529026
 21
-110.2411637336717
 31
0.0
  0
LINE
  5
487B
330
231
100
AcDbEntity
  8
0
  6
Continuous
 62
     7
100
AcDbLine
 10
13907.35252558263
 20
-110.239958558057
 30
0.0
 11
13907.4057105061
 21
-110.2650417318894
 31
0.0
  0
LINE
  5
487C
330
231
100
AcDbEntity
  8
0
  6
Continuous
 62
     7
100
AcDbLine
 10
13907.4041143114
 20
-110.2642846467936
 30
0.0
 11
13907.4572972599
 21
-110.289653023774
 31
0.0
  0
LINE
  5
487D
330
231
100
AcDbEntity
  8
0
  6
Continuous
 62
     7
100
AcDbLine
 10
13907.4554271666
 20
-110.2887559607447
 30
0.0
 11
13907.50578929231
 21
-110.3130425248766
 31
0.0
  0
LINE
  5
487E
330
231
100
AcDbEntity
  8
0
  6
Continuous
 62
     7
100
AcDbLine
 10
14286.18607476392
 20
-306.9432692162798
 30
0.0
 11
14286.18971882247
 21
-306.9835280610207
 31
0.0
  0
LWPOLYLINE
  5
487F
330
231
100
AcDbEntity
  8
0
  6
Continuous
 62
     7
100
AcDbPolyline
 90
      151
 70
     0
 43
0.0
 10
14414.4793367858
 20
-302.1937195735846
 10
14414.50365222631
 20
-302.207911819994
 10
14414.52992377293
 20
-302.2234065593784
 10
14414.55654795001
 20
-302.2392756983521
 10
14414.58351405335
 20
-302.2555207692331
 10
14414.61081817397
 20
-302.272147412965
 10
14414.63845564959
 20
-302.2891609304948
 10
14414.66641458867
 20
-302.3065622058136
 10
14414.6946916709
 20
-302.3243574561927
 10
14414.72328110933
 20
-302.3425514649175
 10
14414.75216730213
 20
-302.3611427433361
 10
14414.78135103929
 20
-302.3801403213584
 10
14414.81082193791
 20
-302.3995461042987
 10
14414.84054784932
 20
-302.4193473522843
 10
14414.8705262862
 20
-302.4395506822489
 10
14414.90075007929
 20
-302.4601596618238
 10
14414.93118054865
 20
-302.4811560068581
 10
14414.96181320665
 20
-302.5025444153053
 10
14414.99264306469
 20
-302.5243293097875
 10
14415.02363132947
 20
-302.5464908551699
 10
14415.05477325771
 20
-302.5690328950805
 10
14415.0860644188
 20
-302.5919595508117
 10
14415.11746719277
 20
-302.6152502395691
 10
14415.14897702533
 20
-302.6389081983205
 10
14415.1805897002
 20
-302.6629369540305
 10
14415.21226885541
 20
-302.6873151905791
 10
14415.24401043632
 20
-302.7120457259379
 10
14415.27581022699
 20
-302.7371312787465
 10
14415.30763242876
 20
-302.762549207898
 10
14415.33947189203
 20
-302.7883005613819
 10
14415.37132612548
 20
-302.8143885398329
 10
14415.40316412577
 20
-302.8407926167894
 10
14415.43498014827
 20
-302.8675124802548
 10
14415.46677290501
 20
-302.8945515425281
 10
14415.49851876588
 20
-302.921893950768
 10
14415.53021425725
 20
-302.949540665298
 10
14415.5618562695
 20
-302.9774929611057
 10
14415.59342232683
 20
-303.0057346840189
 10
14415.6249089173
 20
-303.0342660880354
 10
14415.65631348658
 20
-303.0630882848105
 10
14415.68761560189
 20
-303.0921856765004
 10
14415.71881146926
 20
-303.1215575891117
 10
14415.74989934471
 20
-303.151205255632
 10
14415.78086241975
 20
-303.1811153048618
 10
14415.81169757139
 20
-303.2112871271406
 10
14415.84240283834
 20
-303.2417212294632
 10
14415.87296364006
 20
-303.2724053836186
 10
14415.90337647159
 20
-303.3033380546222
 10
14415.93364019429
 20
-303.3345200827988
 10
14415.96374417424
 20
-303.3659423819059
 10
14415.99368588482
 20
-303.3976040226197
 10
14416.02346352238
 20
-303.4295048192752
 10
14416.053067855
 20
-303.4616364742888
 10
14416.08249637138
 20
-303.4939977060066
 10
14416.11174755586
 20
-303.5265883024306
 10
14416.1408139462
 20
-303.5594013056307
 10
14416.1696934464
 20
-303.5924355909513
 10
14416.19838437682
 20
-303.6256904867322
 10
14416.22688013419
 20
-303.6591594950388
 10
14416.25517858154
 20
-303.6928411505522
 10
14416.2832783252
 20
-303.7267348486119
 10
14416.31117408291
 20
-303.7608352019383
 10
14416.33886404268
 20
-303.7951408985446
 10
14416.36634668485
 20
-303.8296509644404
 10
14416.3936173348
 20
-303.8643603740095
 10
14416.42067418857
 20
-303.8992675966005
 10
14416.44751591081
 20
-303.9343716825561
 10
14416.47413867825
 20
-303.9696683552524
 10
14416.50054090722
 20
-304.0051561803708
 10
14416.52672120375
 20
-304.040833955256
 10
14416.5526761532
 20
-304.0766976519488
 10
14416.57840419758
 20
-304.1127456861315
 10
14416.60390407358
 20
-304.1489768638161
 10
14416.62917292122
 20
-304.1853876597046
 10
14416.65420933353
 20
-304.2219765461454
 10
14416.67901203116
 20
-304.2587421554856
 10
14416.70357843516
 20
-304.2956811344254
 10
14416.72790717221
 20
-304.3327918479813
 10
14416.75199706097
 20
-304.3700729288334
 10
14416.77584589415
 20
-304.4075213696786
 10
14416.79945241108
 20
-304.4451355705328
 10
14416.82281543411
 20
-304.4829140387444
 10
14416.84593295127
 20
-304.5208538790088
 10
14416.86880374422
 20
-304.5589534233429
 10
14416.89142670766
 20
-304.5972111637617
 10
14416.91380006159
 20
-304.6356244062921
 10
14416.93592266803
 20
-304.674191488284
 10
14416.95779344665
 20
-304.7129108237535
 10
14416.97941076481
 20
-304.7517797983932
 10
14417.00077351518
 20
-304.7907966775538
 10
14417.02188069044
 20
-304.8299598799179
 10
14417.0427308586
 20
-304.8692669941762
 10
14417.06332298968
 20
-304.9087163093457
 10
14417.08365609435
 20
-304.9483061617766
 10
14417.10372884428
 20
-304.9880341874924
 10
14417.12354025417
 20
-305.0278986398438
 10
14417.14308938401
 20
-305.0678978368479
 10
14417.16237501782
 20
-305.1080294865274
 10
14417.18139621594
 20
-305.1482918199
 10
14417.20015208304
 20
-305.1886831276496
 10
14417.21864150648
 20
-305.2292011921315
 10
14417.23686360226
 20
-305.2698442433636
 10
14417.25481750738
 20
-305.3106105280301
 10
14417.27250217787
 20
-305.3514978351528
 10
14417.28991676705
 20
-305.3925043584168
 10
14417.30706046295
 20
-305.4336283391729
 10
14417.32393230789
 20
-305.4748676244427
 10
14417.34053150423
 20
-305.5162204025774
 10
14417.35685727631
 20
-305.5576848819284
 10
14417.37290873179
 20
-305.5992589255172
 10
14417.38868511203
 20
-305.640940694362
 10
14417.40418568802
 20
-305.6827283881475
 10
14417.41940963944
 20
-305.7246199172281
 10
14417.43435625498
 20
-305.766613437622
 10
14417.44902484229
 20
-305.8087071206809
 10
14417.46341463772
 20
-305.850898887759
 10
14417.47752496962
 20
-305.8931868735417
 10
14417.49135518898
 20
-305.9355692397137
 10
14417.50490459282
 20
-305.9780439369625
 10
14417.51817255414
 20
-306.0206090973066
 10
14417.53115846061
 20
-306.0632628567648
 10
14417.54386165891
 20
-306.1060031660241
 10
14417.55628156271
 20
-306.1488281444367
 10
14417.56841760035
 20
-306.191735914688
 10
14417.58026916583
 20
-306.234724423132
 10
14417.59183571317
 20
-306.2777917747875
 10
14417.60311671236
 20
-306.3209360826735
 10
14417.61411160674
 20
-306.3641552998102
 10
14417.62481988799
 20
-306.4074475065506
 10
14417.63524107011
 20
-306.4508108179131
 10
14417.64537465277
 20
-306.4942432319179
 10
14417.65522017198
 20
-306.5377428332509
 10
14417.66477717774
 20
-306.5813077132644
 10
14417.67404521506
 20
-306.6249358739785
 10
14417.68302385994
 20
-306.6686253950789
 10
14417.69171270139
 20
-306.7123743552516
 10
14417.70011132673
 20
-306.7561807485166
 10
14417.70821935132
 20
-306.8000426472266
 10
14417.71603640481
 20
-306.8439581204007
 10
14417.72356211589
 20
-306.8879251573926
 10
14417.73079614022
 20
-306.9319418212216
 10
14417.73773814779
 20
-306.9760061752404
 10
14417.74438780896
 20
-307.0201162028023
 10
14417.75074482006
 20
-307.0642699612603
 10
14417.75680889075
 20
-307.1084655066337
 10
14417.76257973338
 20
-307.1527008176096
 10
14417.76805708527
 20
-307.1969739455405
 10
14417.77324069543
 20
-307.2412829411129
 10
14417.77813031887
 20
-307.2856257780133
 10
14417.78272573025
 20
-307.3300004789286
 10
14417.78702672257
 20
-307.3744051135444
  0
LINE
  5
4880
330
231
100
AcDbEntity
  8
0
  6
Continuous
 62
     7
100
AcDbLine
 10
14300.29609483797
 20
-270.7204605356557
 30
0.0
 11
14308.17231736029
 21
-180.6948253873431
 31
0.0
  0
LWPOLYLINE
  5
4881
330
231
100
AcDbEntity
  8
0
  6
Continuous
 62
     7
100
AcDbPolyline
 90
      149
 70
     0
 43
0.0
 10
14303.80368608204
 20
-305.5870139599681
 10
14303.80800953347
 20
-305.542396376815
 10
14303.81263007493
 20
-305.4978085816974
 10
14303.81754750176
 20
-305.4532525525955
 10
14303.82276159595
 20
-305.4087302661562
 10
14303.82827212585
 20
-305.3642436980263
 10
14303.83407884711
 20
-305.3197948215195
 10
14303.84018150208
 20
-305.2753856089494
 10
14303.84657981977
 20
-305.2310180306296
 10
14303.8532735165
 20
-305.1866940548738
 10
14303.86026229527
 20
-305.1424156479956
 10
14303.86754584577
 20
-305.0981847753087
 10
14303.87512384532
 20
-305.054003398127
 10
14303.88299595727
 20
-305.0098734770973
 10
14303.89116183228
 20
-304.9657969705334
 10
14303.89962110868
 20
-304.9217758334159
 10
14303.90837341016
 20
-304.8778120190584
 10
14303.91741834937
 20
-304.8339074777749
 10
14303.92675552433
 20
-304.7900641578791
 10
14303.93638452071
 20
-304.7462840043516
 10
14303.94630491184
 20
-304.7025689595064
 10
14303.95651625706
 20
-304.6589209629908
 10
14303.9670181037
 20
-304.6153419511187
 10
14303.97780998512
 20
-304.5718338578706
 10
14303.9888914233
 20
-304.5283986132274
 10
14304.00026192593
 20
-304.485038144503
 10
14304.01192098901
 20
-304.4417543750118
 10
14304.02386809487
 20
-304.3985492254009
 10
14304.03610271319
 20
-304.3554246126514
 10
14304.04862430164
 20
-304.3123824504105
 10
14304.06143230455
 20
-304.2694246473263
 10
14304.07452615361
 20
-304.2265531103792
 10
14304.08790526715
 20
-304.1837697412173
 10
14304.10156905251
 20
-304.1410764384878
 10
14304.1155169027
 20
-304.0984750965056
 10
14304.12974819905
 20
-304.0559676049181
 10
14304.14426230991
 20
-304.0135558503731
 10
14304.15905859128
 20
-303.9712417141854
 10
14304.17413638684
 20
-303.9290270736694
 10
14304.18949502758
 20
-303.8869138021397
 10
14304.20513383186
 20
-303.8449037672442
 10
14304.22105210601
 20
-303.8029988332977
 10
14304.2372491437
 20
-303.7612008589483
 10
14304.25372422628
 20
-303.7195116988441
 10
14304.27047662275
 20
-303.6779332026333
 10
14304.2875055898
 20
-303.6364672146306
 10
14304.30481037175
 20
-303.5951155748178
 10
14304.32239020028
 20
-303.5538801198431
 10
14304.34024429541
 20
-303.5127626780217
 10
14304.3583718648
 20
-303.4717650746685
 10
14304.37677210279
 20
-303.430889130432
 10
14304.39544419307
 20
-303.3901366592941
 10
14304.4143873073
 20
-303.3495094685701
 10
14304.43360060417
 20
-303.3090093625751
 10
14304.45308322967
 20
-303.2686381399581
 10
14304.47283432083
 20
-303.228397589701
 10
14304.49285300164
 20
-303.1882894951193
 10
14304.51313838411
 20
-303.1483156365285
 10
14304.53368956793
 20
-303.1084777862444
 10
14304.55450564377
 20
-303.0687777069157
 10
14304.57558568863
 20
-303.0292171595251
 10
14304.59692876687
 20
-302.9897978997218
 10
14304.61853393315
 20
-302.9505216734879
 10
14304.64040023348
 20
-302.9113902148064
 10
14304.66252669355
 20
-302.8724052686598
 10
14304.68491231936
 20
-302.8335685850306
 10
14304.70755611958
 20
-302.7948818829014
 10
14304.73045708724
 20
-302.7563468825885
 10
14304.75361418567
 20
-302.7179653267413
 10
14304.77702636554
 20
-302.6797389510089
 10
14304.80069260754
 20
-302.6416694170414
 10
14304.82461190135
 20
-302.6037583481558
 10
14304.84878317463
 20
-302.5660074453353
 10
14304.87320536674
 20
-302.5284183645632
 10
14304.89787747468
 20
-302.4909926534907
 10
14304.92279848814
 20
-302.4537318527691
 10
14304.94796722378
 20
-302.416637739714
 10
14304.97338240163
 20
-302.3797122016397
 10
14304.99904294369
 20
-302.3429568018641
 10
14305.0249476583
 20
-302.30637324337
 10
14305.05109506516
 20
-302.26996360347
 10
14305.07748367694
 20
-302.2337299204771
 10
14305.10411262165
 20
-302.1976733580463
 10
14305.13098133462
 20
-302.1617946755034
 10
14305.15808841655
 20
-302.1260957471629
 10
14305.18543287943
 20
-302.0905778800119
 10
14305.21301480895
 20
-302.0552410083841
 10
14305.24083424375
 20
-302.0200851939458
 10
14305.2688887842
 20
-301.9851135793321
 10
14305.297174815
 20
-301.9503306884977
 10
14305.32569193416
 20
-301.9157369944381
 10
14305.35443799503
 20
-301.8813350804608
 10
14305.38340656901
 20
-301.8471324734903
 10
14305.41259153183
 20
-301.8131360067916
 10
14305.44199607478
 20
-301.7793415694061
 10
14305.47162781412
 20
-301.7457403327551
 10
14305.50148154792
 20
-301.7123382391128
 10
14305.5315599138
 20
-301.6791323791747
 10
14305.56188294223
 20
-301.6461012371561
 10
14305.59245986513
 20
-301.6132360318114
 10
14305.62327993825
 20
-301.5805495763459
 10
14305.65433348638
 20
-301.548052990315
 10
14305.68562938875
 20
-301.5157378561362
 10
14305.71715678448
 20
-301.4836162573554
 10
14305.74887538929
 20
-301.4517291035635
 10
14305.7807837282
 20
-301.4200769654213
 10
14305.81287952424
 20
-301.3886611955822
 10
14305.84511969217
 20
-301.3575222609747
 10
14305.87750336333
 20
-301.3266585489483
 10
14305.9100260951
 20
-301.2960718638181
 10
14305.94263777398
 20
-301.265806010813
 10
14305.97534995352
 20
-301.235846374079
 10
14306.00814428057
 20
-301.2062059064867
 10
14306.04092328645
 20
-301.1769669492125
 10
14306.07368943111
 20
-301.1481201006839
 10
14306.10643032437
 20
-301.1196691481962
 10
14306.13902269378
 20
-301.0917120677699
 10
14306.17145830508
 20
-301.0642449244441
 10
14306.20373200434
 20
-301.0372612539502
 10
14306.23572156078
 20
-301.0108508007239
 10
14306.26738881743
 20
-300.985030582262
 10
14306.29875563043
 20
-300.9597685742179
 10
14306.32978789844
 20
-300.9350783751224
 10
14306.36045021281
 20
-300.9109737941707
 10
14306.39076216702
 20
-300.887425359324
 10
14306.42077283491
 20
-300.8643823084235
 10
14306.45047464322
 20
-300.8418388031941
 10
14306.47986217235
 20
-300.8197875220425
 10
14306.50898944607
 20
-300.7981774794784
 10
14306.53785218811
 20
-300.7770023505652
 10
14306.56644400985
 20
-300.7562574863492
 10
14306.59481733778
 20
-300.7358963389627
 10
14306.62297557453
 20
-300.7159088601728
 10
14306.65090664422
 20
-300.6962961299688
 10
14306.67864091454
 20
-300.6770297453012
 10
14306.70617792383
 20
-300.6581034705658
 10
14306.73351065584
 20
-300.6395156647791
 10
14306.76066037467
 20
-300.621245723147
 10
14306.78762376503
 20
-300.6032900803719
 10
14306.81439755129
 20
-300.5856451971558
 10
14306.84100363656
 20
-300.5682912500304
 10
14306.86743934353
 20
-300.551224919362
 10
14306.89370158024
 20
-300.5344431988476
 10
14306.91981216247
 20
-300.5179274443402
 10
14306.94577286786
 20
-300.5016721612279
 10
14306.97157690081
 20
-300.4856772861783
 10
14306.99723359758
 20
-300.4699328309577
 10
14307.02274445313
 20
-300.4544338696155
 10
14307.04810340021
 20
-300.4391801234879
  0
LINE
  5
4882
330
231
100
AcDbEntity
  8
0
  6
Continuous
 62
     7
100
AcDbLine
 10
14332.85078317816
 20
-274.3713103671256
 30
0.0
 11
14341.04641364204
 21
-180.6948255126752
 31
0.0
  0
LWPOLYLINE
  5
4883
330
231
100
AcDbEntity
  8
0
  6
Continuous
 62
     7
100
AcDbPolyline
 90
      163
 70
     0
 43
0.0
 10
14612.37569244245
 20
-303.082876005598
 10
14612.39523194039
 20
-303.0918122359015
 10
14612.42747887725
 20
-303.1067676520125
 10
14612.46002118316
 20
-303.1220729442914
 10
14612.49282862308
 20
-303.1377209974759
 10
14612.52589867404
 20
-303.1537175551755
 10
14612.55922617143
 20
-303.1700671553445
 10
14612.59277722192
 20
-303.1867599704146
 10
14612.62654981552
 20
-303.2038015869968
 10
14612.6605382583
 20
-303.2211957967196
 10
14612.69470355331
 20
-303.2389289820526
 10
14612.72904141793
 20
-303.2570049399579
 10
14612.76354861085
 20
-303.2754280483916
 10
14612.79818820846
 20
-303.2941843731599
 10
14612.83295503212
 20
-303.3132765502362
 10
14612.86784697952
 20
-303.3327089192439
 10
14612.902832242
 20
-303.3524689973078
 10
14612.93790715825
 20
-303.3725596623991
 10
14612.9730683363
 20
-303.3929839611541
 10
14613.00828486613
 20
-303.4137286400385
 10
14613.04355302045
 20
-303.4347959020305
 10
14613.07886978228
 20
-303.4561883814369
 10
14613.11420582958
 20
-303.4778924637273
 10
14613.14955778172
 20
-303.4999099185506
 10
14613.18492263407
 20
-303.5222427502199
 10
14613.22027217024
 20
-303.5448767175447
 10
14613.25560216227
 20
-303.5678123701859
 10
14613.29091088151
 20
-303.5910518644552
 10
14613.32617438321
 20
-303.6145824744802
 10
14613.36138736141
 20
-303.6384033909353
 10
14613.39654957211
 20
-303.6625171994614
 10
14613.43164507982
 20
-303.6869155894751
 10
14613.46667093056
 20
-303.7115989523057
 10
14613.50162476002
 20
-303.7365680822786
 10
14613.53649184068
 20
-303.7618147634759
 10
14613.5712696099
 20
-303.7873392825614
 10
14613.60595557103
 20
-303.8131419621987
 10
14613.64053542023
 20
-303.8392141538076
 10
14613.67500600419
 20
-303.8655552930602
 10
14613.70936571492
 20
-303.8921659756174
 10
14613.74360287121
 20
-303.9190388568859
 10
14613.77771450143
 20
-303.9461731592068
 10
14613.81169906658
 20
-303.9735692232434
 10
14613.84554728876
 20
-304.0012210410558
 10
14613.87925697966
 20
-304.0291281913149
 10
14613.91282601763
 20
-304.057290290691
 10
14613.94624544577
 20
-304.0857010939135
 10
14613.97951299676
 20
-304.1143598306566
 10
14614.01262685395
 20
-304.1432661002577
 10
14614.04557895709
 20
-304.1724139377764
 10
14614.07836683687
 20
-304.2018021198916
 10
14614.11098910098
 20
-304.2314303666062
 10
14614.14343949281
 20
-304.2612939003012
 10
14614.17571597237
 20
-304.2913916719871
 10
14614.20781689002
 20
-304.3217229756711
 10
14614.23973673149
 20
-304.352283374064
 10
14614.27147342545
 20
-304.3830715865122
 10
14614.30302552093
 20
-304.4140869106891
 10
14614.3343885623
 20
-304.4453256312989
 10
14614.36556074791
 20
-304.476786566353
 10
14614.39654049477
 20
-304.5084687345282
 10
14614.4273237886
 20
-304.5403686055263
 10
14614.45790884575
 20
-304.5724848593605
 10
14614.48829419956
 20
-304.6048164867077
 10
14614.51847641007
 20
-304.6373603262661
 10
14614.54845384229
 20
-304.6701150770485
 10
14614.57822500124
 20
-304.7030795704004
 10
14614.60778674162
 20
-304.7362507580185
 10
14614.63713744111
 20
-304.7696272182506
 10
14614.66627571106
 20
-304.8032077731083
 10
14614.69519883416
 20
-304.836989670286
 10
14614.72390530909
 20
-304.8709715071308
 10
14614.75239373187
 20
-304.905151975656
 10
14614.78066160152
 20
-304.9395284072216
 10
14614.80870744173
 20
-304.9740993118425
 10
14614.8365299285
 20
-305.0088633661985
 10
14614.86412685053
 20
-305.0438180986477
 10
14614.89149682216
 20
-305.0789620255383
 10
14614.91863852474
 20
-305.114293727551
 10
14614.94554990296
 20
-305.1498107853769
 10
14614.97222960182
 20
-305.1855116493646
 10
14614.99867636702
 20
-305.2213948811954
 10
14615.02488834289
 20
-305.2574581905588
 10
14615.05086424547
 20
-305.2937000224702
 10
14615.07660284008
 20
-305.330118868278
 10
14615.10210239041
 20
-305.3667124733382
 10
14615.12736164349
 20
-305.4034792260004
 10
14615.15237942298
 20
-305.4404176029462
 10
14615.17715415022
 20
-305.4775254525308
 10
14615.20168463558
 20
-305.5148011611032
 10
14615.22596972439
 20
-305.5522431436797
 10
14615.25000792835
 20
-305.5898492662814
 10
14615.27379809711
 20
-305.6276178789248
 10
14615.29733912203
 20
-305.6655473726261
 10
14615.32062961179
 20
-305.7036356497395
 10
14615.34366846406
 20
-305.7418810409484
 10
14615.36645460587
 20
-305.7802819002694
 10
14615.38898672488
 20
-305.8188361450564
 10
14615.4112637481
 20
-305.85754205666
 10
14615.43328465656
 20
-305.8963979854302
 10
14615.45504825159
 20
-305.9354019313868
 10
14615.47655351553
 20
-305.9745521788804
 10
14615.49779945307
 20
-306.0138470272613
 10
14615.51878492988
 20
-306.0532844828828
 10
14615.53950896964
 20
-306.092862811429
 10
14615.55997061569
 20
-306.1325802849169
 10
14615.58016878737
 20
-306.1724349033668
 10
14615.60010254336
 20
-306.2124248981295
 10
14615.61977097234
 20
-306.2525485318891
 10
14615.63917306699
 20
-306.2928038379987
 10
14615.65830793197
 20
-306.3331890411427
 10
14615.67717468764
 20
-306.3737023700052
 10
14615.69577237766
 20
-306.4143418509397
 10
14615.71410014604
 20
-306.4551056906306
 10
14615.7321571528
 20
-306.4959920974291
 10
14615.74994248962
 20
-306.5369990886884
 10
14615.76745533782
 20
-306.5781248467601
 10
14615.78469489976
 20
-306.6193675683288
 10
14615.80166032143
 20
-306.6607252784142
 10
14615.81835082653
 20
-306.702196147368
 10
14615.83476565337
 20
-306.7437783498751
 10
14615.85090399832
 20
-306.7854699086221
 10
14615.86676512138
 20
-306.8272689736272
 10
14615.88234830388
 20
-306.8691737075757
 10
14615.89765279316
 20
-306.9111821458204
 10
14615.91267789225
 20
-306.9532924280467
 10
14615.92742291846
 20
-306.9955026969398
 10
14615.94188716548
 20
-307.0378109828528
 10
14615.95606997465
 20
-307.0802154108042
 10
14615.96997070298
 20
-307.1227141094797
 10
14615.98358869046
 20
-307.1653051098987
 10
14615.99692331845
 20
-307.2079865250803
 10
14616.00997398294
 20
-307.2507564690432
 10
14616.02274006661
 20
-307.2936129661406
 10
14616.03522099047
 20
-307.3365541157249
 10
14616.04741619052
 20
-307.3795780211482
 10
14616.05932509376
 20
-307.4226827067637
 10
14616.07094716187
 20
-307.4658662625905
 10
14616.08228186886
 20
-307.5091267786477
 10
14616.09332868505
 20
-307.5524622732884
 10
14616.10408711113
 20
-307.5958708251985
 10
14616.11455666111
 20
-307.6393505143973
 10
14616.1247368483
 20
-307.6828993579045
 10
14616.13462721306
 20
-307.7265154257394
 10
14616.14422730906
 20
-307.7701967872548
 10
14616.1535366913
 20
-307.8139414538037
 10
14616.16255493978
 20
-307.857747485739
 10
14616.17128164818
 20
-307.90161294408
 10
14616.17971641317
 20
-307.94553583818
 10
14616.18785885541
 20
-307.9895142207252
 10
14616.19570860757
 20
-308.0335461444016
 10
14616.20326530801
 20
-308.0776296135625
 10
14616.21052861704
 20
-308.1217626732275
 10
14616.21749820734
 20
-308.1659433690827
 10
14616.22417375926
 20
-308.2101697041483
 10
14616.23055497244
 20
-308.2544397181104
 10
14616.23664155991
 20
-308.2987514489886
 10
14616.24243324266
 20
-308.3431028954697
 10
14616.24792976069
 20
-308.3874920915733
 10
14616.25313086702
 20
-308.4319170703191
 10
14616.25803632329
 20
-308.4763758250605
 10
14616.26264590853
 20
-308.5208663724839
 10
14616.26695941706
 20
-308.5653867539423
  0
LINE
  5
4884
330
231
100
AcDbEntity
  8
0
  6
Continuous
 62
     7
100
AcDbLine
 10
14380.25737813814
 20
-180.6948255126752
 30
0.0
 11
14388.65771743457
 21
-276.7111430322316
 31
0.0
  0
LINE
  5
4885
330
231
100
AcDbEntity
  8
0
  6
Continuous
 62
     7
100
AcDbLine
 10
14307.04810340021
 20
-300.4391801234879
 30
0.0
 11
14307.09835797199
 21
-300.4093970816545
 31
0.0
  0
LINE
  5
4886
330
231
100
AcDbEntity
  8
0
  6
Continuous
 62
     7
100
AcDbLine
 10
14307.09835797199
 20
-300.4093970816545
 30
0.0
 11
14307.14798030576
 21
-300.3805627376676
 31
0.0
  0
LINE
  5
4887
330
231
100
AcDbEntity
  8
0
  6
Continuous
 62
     7
100
AcDbLine
 10
14307.14798030576
 20
-300.3805627376676
 30
0.0
 11
14307.19695349936
 21
-300.3526565693988
 31
0.0
  0
LINE
  5
4888
330
231
100
AcDbEntity
  8
0
  6
Continuous
 62
     7
100
AcDbLine
 10
14307.19695349936
 20
-300.3526565693988
 30
0.0
 11
14307.24526137995
 21
-300.3256581343857
 31
0.0
  0
LINE
  5
4889
330
231
100
AcDbEntity
  8
0
  6
Continuous
 62
     7
100
AcDbLine
 10
14307.24526137995
 20
-300.3256581343857
 30
0.0
 11
14307.292888353
 21
-300.2995471671648
 31
0.0
  0
LINE
  5
488A
330
231
100
AcDbEntity
  8
0
  6
Continuous
 62
     7
100
AcDbLine
 10
14307.292888353
 20
-300.2995471671648
 30
0.0
 11
14307.33981954302
 21
-300.2743035079372
 31
0.0
  0
LINE
  5
488B
330
231
100
AcDbEntity
  8
0
  6
Continuous
 62
     7
100
AcDbLine
 10
14307.33981954302
 20
-300.2743035079372
 30
0.0
 11
14307.38604091647
 21
-300.2499070565708
 31
0.0
  0
LINE
  5
488C
330
231
100
AcDbEntity
  8
0
  6
Continuous
 62
     7
100
AcDbLine
 10
14307.38604091647
 20
-300.2499070565708
 30
0.0
 11
14307.43153451053
 21
-300.2263402362414
 31
0.0
  0
LINE
  5
488D
330
231
100
AcDbEntity
  8
0
  6
Continuous
 62
     7
100
AcDbLine
 10
14307.43153451053
 20
-300.2263402362414
 30
0.0
 11
14307.47627617077
 21
-300.2035889307567
 31
0.0
  0
LINE
  5
488E
330
231
100
AcDbEntity
  8
0
  6
Continuous
 62
     7
100
AcDbLine
 10
14683.56816491828
 20
-110.4279674892822
 30
0.0
 11
14683.62008416341
 21
-110.4016526207668
 31
0.0
  0
LINE
  5
488F
330
231
100
AcDbEntity
  8
0
  6
Continuous
 62
     7
100
AcDbLine
 10
14683.62008416341
 20
-110.4016526207668
 30
0.0
 11
14683.67272217569
 21
-110.3752707175885
 31
0.0
  0
LINE
  5
4890
330
231
100
AcDbEntity
  8
0
  6
Continuous
 62
     7
100
AcDbLine
 10
14307.47627617077
 20
-300.2035889307567
 30
0.0
 11
14307.52023017823
 21
-300.181644851533
 31
0.0
  0
LINE
  5
4891
330
231
100
AcDbEntity
  8
0
  6
Continuous
 62
     7
100
AcDbLine
 10
14683.67272217569
 20
-110.3752707175885
 30
0.0
 11
14683.72399565662
 21
-110.3498585563793
 31
0.0
  0
LINE
  5
4892
330
231
100
AcDbEntity
  8
0
  6
Continuous
 62
     7
100
AcDbLine
 10
14307.52023017823
 20
-300.181644851533
 30
0.0
 11
14307.56336984916
 21
-300.1604950250333
 31
0.0
  0
LINE
  5
4893
330
231
100
AcDbEntity
  8
0
  6
Continuous
 62
     7
100
AcDbLine
 10
14683.72399565662
 20
-110.3498585563793
 30
0.0
 11
14683.77565497002
 21
-110.3245385702484
 31
0.0
  0
LINE
  5
4894
330
231
100
AcDbEntity
  8
0
  6
Continuous
 62
     7
100
AcDbLine
 10
14683.77565497002
 20
-110.3245385702484
 30
0.0
 11
14683.82745690466
 21
-110.2994324733119
 31
0.0
  0
LINE
  5
4895
330
231
100
AcDbEntity
  8
0
  6
Continuous
 62
     7
100
AcDbLine
 10
14307.56336984916
 20
-300.1604950250333
 30
0.0
 11
14307.60565693795
 21
-300.1401320559984
 31
0.0
  0
LINE
  5
4896
330
231
100
AcDbEntity
  8
0
  6
Continuous
 62
     7
100
AcDbLine
 10
14683.82745690466
 20
-110.2994324733119
 30
0.0
 11
14683.87917102352
 21
-110.2746505827999
 31
0.0
  0
LINE
  5
4897
330
231
100
AcDbEntity
  8
0
  6
Continuous
 62
     7
100
AcDbLine
 10
14683.87917102352
 20
-110.2746505827999
 30
0.0
 11
14683.93059698692
 21
-110.2502840758007
 31
0.0
  0
LINE
  5
4898
330
231
100
AcDbEntity
  8
0
  6
Continuous
 62
     7
100
AcDbLine
 10
14307.60565693795
 20
-300.1401320559984
 30
0.0
 11
14307.64707812207
 21
-300.1205365512888
 31
0.0
  0
LINE
  5
4899
330
231
100
AcDbEntity
  8
0
  6
Continuous
 62
     7
100
AcDbLine
 10
14683.93059698692
 20
-110.2502840758007
 30
0.0
 11
14683.98308648269
 21
-110.2256970240071
 31
0.0
  0
LINE
  5
489A
330
231
100
AcDbEntity
  8
0
  6
Continuous
 62
     7
100
AcDbLine
 10
14307.64707812207
 20
-300.1205365512888
 30
0.0
 11
14307.68764132343
 21
-300.1016798745241
 31
0.0
  0
LINE
  5
489B
330
231
100
AcDbEntity
  8
0
  6
Continuous
 62
     7
100
AcDbLine
 10
14683.98308648269
 20
-110.2256970240071
 30
0.0
 11
14684.03472102133
 21
-110.2017880454326
 31
0.0
  0
LINE
  5
489C
330
231
100
AcDbEntity
  8
0
  6
Continuous
 62
     7
100
AcDbLine
 10
14684.03472102133
 20
-110.2017880454326
 30
0.0
 11
14684.0865440481
 21
-110.1780669253128
 31
0.0
  0
LINE
  5
489D
330
231
100
AcDbEntity
  8
0
  6
Continuous
 62
     7
100
AcDbLine
 10
14307.68764132343
 20
-300.1016798745241
 30
0.0
 11
14307.72739830019
 21
-300.0835147301774
 31
0.0
  0
LINE
  5
489E
330
231
100
AcDbEntity
  8
0
  6
Continuous
 62
     7
100
AcDbLine
 10
14684.0865440481
 20
-110.1780669253128
 30
0.0
 11
14684.14039535925
 21
-110.1537076492413
 31
0.0
  0
LINE
  5
489F
330
231
100
AcDbEntity
  8
0
  6
Continuous
 62
     7
100
AcDbLine
 10
14307.72739830019
 20
-300.0835147301774
 30
0.0
 11
14307.76640944375
 21
-300.0659924520686
 31
0.0
  0
LINE
  5
48A0
330
231
100
AcDbEntity
  8
0
  6
Continuous
 62
     7
100
AcDbLine
 10
14684.14039535925
 20
-110.1537076492413
 30
0.0
 11
14684.19377179214
 21
-110.1298533401201
 31
0.0
  0
LINE
  5
48A1
330
231
100
AcDbEntity
  8
0
  6
Continuous
 62
     7
100
AcDbLine
 10
14307.76640944375
 20
-300.0659924520686
 30
0.0
 11
14307.80471139239
 21
-300.0490773542212
 31
0.0
  0
LINE
  5
48A2
330
231
100
AcDbEntity
  8
0
  6
Continuous
 62
     7
100
AcDbLine
 10
14684.19377179214
 20
-110.1298533401201
 30
0.0
 11
14684.24775179334
 21
-110.1060213067762
 31
0.0
  0
LWPOLYLINE
  5
48A3
330
231
100
AcDbEntity
  8
0
  6
Continuous
 62
     7
100
AcDbPolyline
 90
        3
 70
     0
 43
0.0
 10
14684.24775179334
 20
-110.1060213067762
 10
14684.24986395988
 20
-110.1050947363753
 10
14684.3963412391
 20
-110.0419219207765
  0
LINE
  5
48A4
330
231
100
AcDbEntity
  8
0
  6
Continuous
 62
     7
100
AcDbLine
 10
14686.61563318162
 20
-109.1024192515638
 30
0.0
 11
14684.3963412391
 21
-110.0419219207765
 31
0.0
  0
LINE
  5
48A5
330
231
100
AcDbEntity
  8
0
  6
Continuous
 62
     7
100
AcDbLine
 10
14353.69795980198
 20
-138.9782600008353
 30
0.0
 11
14367.6058319782
 21
-138.9782600008353
 31
0.0
  0
LINE
  5
48A6
330
231
100
AcDbEntity
  8
0
  6
Continuous
 62
     7
100
AcDbLine
 10
14413.13147441989
 20
-180.6948253873431
 30
0.0
 11
14421.3271051261
 21
-274.371312784768
 31
0.0
  0
LINE
  5
48A7
330
231
100
AcDbEntity
  8
0
  6
Continuous
 62
     7
100
AcDbLine
 10
14682.71350595295
 20
-110.9049046478629
 30
0.0
 11
14682.76261639851
 21
-110.875169034222
 31
0.0
  0
LINE
  5
48A8
330
231
100
AcDbEntity
  8
0
  6
Continuous
 62
     7
100
AcDbLine
 10
14682.76261639851
 20
-110.875169034222
 30
0.0
 11
14682.81379637037
 21
-110.8444944613041
 31
0.0
  0
LINE
  5
48A9
330
231
100
AcDbEntity
  8
0
  6
Continuous
 62
     7
100
AcDbLine
 10
14682.81379637037
 20
-110.8444944613041
 30
0.0
 11
14682.8644297447
 21
-110.8144604133143
 31
0.0
  0
LINE
  5
48AA
330
231
100
AcDbEntity
  8
0
  6
Continuous
 62
     7
100
AcDbLine
 10
14682.8644297447
 20
-110.8144604133143
 30
0.0
 11
14682.91450098532
 21
-110.7850634266204
 31
0.0
  0
LINE
  5
48AB
330
231
100
AcDbEntity
  8
0
  6
Continuous
 62
     7
100
AcDbLine
 10
14682.91450098532
 20
-110.7850634266204
 30
0.0
 11
14682.96399718768
 21
-110.7562984672729
 31
0.0
  0
LINE
  5
48AC
330
231
100
AcDbEntity
  8
0
  6
Continuous
 62
     7
100
AcDbLine
 10
14682.96399718768
 20
-110.7562984672729
 30
0.0
 11
14683.01533539563
 21
-110.7267698775618
 31
0.0
  0
LINE
  5
48AD
330
231
100
AcDbEntity
  8
0
  6
Continuous
 62
     7
100
AcDbLine
 10
14683.01533539563
 20
-110.7267698775618
 30
0.0
 11
14683.06601097853
 21
-110.6979264966651
 31
0.0
  0
LINE
  5
48AE
330
231
100
AcDbEntity
  8
0
  6
Continuous
 62
     7
100
AcDbLine
 10
14683.06601097853
 20
-110.6979264966651
 30
0.0
 11
14683.11600943254
 21
-110.6697623413095
 31
0.0
  0
LINE
  5
48AF
330
231
100
AcDbEntity
  8
0
  6
Continuous
 62
     7
100
AcDbLine
 10
14683.11600943254
 20
-110.6697623413095
 30
0.0
 11
14683.16764682616
 21
-110.6409790078124
 31
0.0
  0
LINE
  5
48B0
330
231
100
AcDbEntity
  8
0
  6
Continuous
 62
     7
100
AcDbLine
 10
14683.16764682616
 20
-110.6409790078124
 30
0.0
 11
14683.21850886987
 21
-110.6129276293289
 31
0.0
  0
LINE
  5
48B1
330
231
100
AcDbEntity
  8
0
  6
Continuous
 62
     7
100
AcDbLine
 10
14683.21850886987
 20
-110.6129276293289
 30
0.0
 11
14683.26858060082
 21
-110.5856005819355
 31
0.0
  0
LINE
  5
48B2
330
231
100
AcDbEntity
  8
0
  6
Continuous
 62
     7
100
AcDbLine
 10
14683.26858060082
 20
-110.5856005819355
 30
0.0
 11
14683.32007312622
 21
-110.5577944533329
 31
0.0
  0
LINE
  5
48B3
330
231
100
AcDbEntity
  8
0
  6
Continuous
 62
     7
100
AcDbLine
 10
14683.32007312622
 20
-110.5577944533329
 30
0.0
 11
14683.37068268512
 21
-110.5307558233886
 31
0.0
  0
LINE
  5
48B4
330
231
100
AcDbEntity
  8
0
  6
Continuous
 62
     7
100
AcDbLine
 10
14683.37068268512
 20
-110.5307558233886
 30
0.0
 11
14683.42254192552
 21
-110.5033463441527
 31
0.0
  0
LINE
  5
48B5
330
231
100
AcDbEntity
  8
0
  6
Continuous
 62
     7
100
AcDbLine
 10
14683.42254192552
 20
-110.5033463441527
 30
0.0
 11
14683.47342080539
 21
-110.4767449285029
 31
0.0
  0
LINE
  5
48B6
330
231
100
AcDbEntity
  8
0
  6
Continuous
 62
     7
100
AcDbLine
 10
14683.47342080539
 20
-110.4767449285029
 30
0.0
 11
14683.52536719126
 21
-110.4498795491594
 31
0.0
  0
LINE
  5
48B7
330
231
100
AcDbEntity
  8
0
  6
Continuous
 62
     7
100
AcDbLine
 10
14683.52536719126
 20
-110.4498795491594
 30
0.0
 11
14683.56816491828
 21
-110.4279674892822
 31
0.0
  0
LINE
  5
48B8
330
231
100
AcDbEntity
  8
0
  6
Continuous
 62
     7
100
AcDbLine
 10
14307.80471139239
 20
-300.0490773542212
 30
0.0
 11
14307.84236452585
 21
-300.0327252647438
 31
0.0
  0
LINE
  5
48B9
330
231
100
AcDbEntity
  8
0
  6
Continuous
 62
     7
100
AcDbLine
 10
14307.84236452585
 20
-300.0327252647438
 30
0.0
 11
14307.87943204051
 21
-300.0168931307333
 31
0.0
  0
LINE
  5
48BA
330
231
100
AcDbEntity
  8
0
  6
Continuous
 62
     7
100
AcDbLine
 10
14307.87943204051
 20
-300.0168931307333
 30
0.0
 11
14307.91594715369
 21
-300.0015526541397
 31
0.0
  0
LINE
  5
48BB
330
231
100
AcDbEntity
  8
0
  6
Continuous
 62
     7
100
AcDbLine
 10
14307.91594715369
 20
-300.0015526541397
 30
0.0
 11
14307.95196035755
 21
-299.9866697879698
 31
0.0
  0
LINE
  5
48BC
330
231
100
AcDbEntity
  8
0
  6
Continuous
 62
     7
100
AcDbLine
 10
14307.95196035755
 20
-299.9866697879698
 30
0.0
 11
14307.98747434341
 21
-299.9722314866876
 31
0.0
  0
LINE
  5
48BD
330
231
100
AcDbEntity
  8
0
  6
Continuous
 62
     7
100
AcDbLine
 10
14307.98747434341
 20
-299.9722314866876
 30
0.0
 11
14308.02249293589
 21
-299.9582246520907
 31
0.0
  0
LINE
  5
48BE
330
231
100
AcDbEntity
  8
0
  6
Continuous
 62
     7
100
AcDbLine
 10
14308.02249293589
 20
-299.9582246520907
 30
0.0
 11
14308.05702227092
 21
-299.9446356959816
 31
0.0
  0
LINE
  5
48BF
330
231
100
AcDbEntity
  8
0
  6
Continuous
 62
     7
100
AcDbLine
 10
14308.05702227092
 20
-299.9446356959816
 30
0.0
 11
14308.09106921812
 21
-299.9314512011612
 31
0.0
  0
LINE
  5
48C0
330
231
100
AcDbEntity
  8
0
  6
Continuous
 62
     7
100
AcDbLine
 10
14308.09106921812
 20
-299.9314512011612
 30
0.0
 11
14308.12463702277
 21
-299.9186595730788
 31
0.0
  0
LINE
  5
48C1
330
231
100
AcDbEntity
  8
0
  6
Continuous
 62
     7
100
AcDbLine
 10
14308.12463702277
 20
-299.9186595730788
 30
0.0
 11
14308.15773335147
 21
-299.9062479205298
 31
0.0
  0
LINE
  5
48C2
330
231
100
AcDbEntity
  8
0
  6
Continuous
 62
     7
100
AcDbLine
 10
14308.15773335147
 20
-299.9062479205298
 30
0.0
 11
14308.1903661448
 21
-299.89420369064
 31
0.0
  0
LINE
  5
48C3
330
231
100
AcDbEntity
  8
0
  6
Continuous
 62
     7
100
AcDbLine
 10
14308.1903661448
 20
-299.89420369064
 30
0.0
 11
14308.22253208314
 21
-299.88251881549
 31
0.0
  0
LINE
  5
48C4
330
231
100
AcDbEntity
  8
0
  6
Continuous
 62
     7
100
AcDbLine
 10
14308.22253208314
 20
-299.88251881549
 30
0.0
 11
14308.25421970159
 21
-299.8711882744631
 31
0.0
  0
LINE
  5
48C5
330
231
100
AcDbEntity
  8
0
  6
Continuous
 62
     7
100
AcDbLine
 10
14308.25421970159
 20
-299.8711882744631
 30
0.0
 11
14308.28540049078
 21
-299.8602129722172
 31
0.0
  0
LINE
  5
48C6
330
231
100
AcDbEntity
  8
0
  6
Continuous
 62
     7
100
AcDbLine
 10
14308.28540049078
 20
-299.8602129722172
 30
0.0
 11
14308.31605608189
 21
-299.849589937782
 31
0.0
  0
LINE
  5
48C7
330
231
100
AcDbEntity
  8
0
  6
Continuous
 62
     7
100
AcDbLine
 10
14308.31605608189
 20
-299.849589937782
 30
0.0
 11
14308.34616064684
 21
-299.8393185781633
 31
0.0
  0
LINE
  5
48C8
330
231
100
AcDbEntity
  8
0
  6
Continuous
 62
     7
100
AcDbLine
 10
14308.34616064684
 20
-299.8393185781633
 30
0.0
 11
14308.3756884459
 21
-299.8293979827036
 31
0.0
  0
LINE
  5
48C9
330
231
100
AcDbEntity
  8
0
  6
Continuous
 62
     7
100
AcDbLine
 10
14308.3756884459
 20
-299.8293979827036
 30
0.0
 11
14308.40462123289
 21
-299.8198245207725
 31
0.0
  0
LINE
  5
48CA
330
231
100
AcDbEntity
  8
0
  6
Continuous
 62
     7
100
AcDbLine
 10
14308.40462123289
 20
-299.8198245207725
 30
0.0
 11
14308.43293189079
 21
-299.8105973420452
 31
0.0
  0
LINE
  5
48CB
330
231
100
AcDbEntity
  8
0
  6
Continuous
 62
     7
100
AcDbLine
 10
14308.43293189079
 20
-299.8105973420452
 30
0.0
 11
14308.4741967038
 21
-299.7973956110639
 31
0.0
  0
LINE
  5
48CC
330
231
100
AcDbEntity
  8
0
  6
Continuous
 62
     7
100
AcDbLine
 10
14308.4741967038
 20
-299.7973956110639
 30
0.0
 11
14308.51399458415
 21
-299.784939848956
 31
0.0
  0
LINE
  5
48CD
330
231
100
AcDbEntity
  8
0
  6
Continuous
 62
     7
100
AcDbLine
 10
14308.55230144608
 20
-299.7732058342974
 30
0.0
 11
14308.58914060235
 21
-299.7621561507953
 31
0.0
  0
LINE
  5
48CE
330
231
100
AcDbEntity
  8
0
  6
Continuous
 62
     7
100
AcDbLine
 10
14308.58914060235
 20
-299.7621561507953
 30
0.0
 11
14308.62462453484
 21
-299.7517294693965
 31
0.0
  0
LINE
  5
48CF
330
231
100
AcDbEntity
  8
0
  6
Continuous
 62
     7
100
AcDbLine
 10
14308.62462453484
 20
-299.7517294693965
 30
0.0
 11
14308.65889749811
 21
-299.7418593577653
 31
0.0
  0
LINE
  5
48D0
330
231
100
AcDbEntity
  8
0
  6
Continuous
 62
     7
100
AcDbLine
 10
14715.91080925593
 20
-109.1024192515638
 30
0.0
 11
13875.39428252425
 21
-109.1024192515638
 31
0.0
  0
LINE
  5
48D1
330
231
100
AcDbEntity
  8
0
  6
Continuous
 62
     7
100
AcDbLine
 10
14700.94115005436
 20
-97.10253925156379
 30
0.0
 11
13890.36394172583
 21
-97.10253925156379
 31
0.0
  0
LINE
  5
48D2
330
231
100
AcDbEntity
  8
0
  6
Continuous
 62
     7
100
AcDbLine
 10
13890.36566659858
 20
-97.10253925156379
 30
0.0
 11
13890.36311070314
 21
-97.10253926723032
 31
0.0
  0
LINE
  5
48D3
330
231
100
AcDbEntity
  8
0
  6
Continuous
 62
     7
100
AcDbLine
 10
14700.94299142527
 20
-97.10253930256328
 30
0.0
 11
14700.9394257026
 21
-97.10253925156379
 31
0.0
  0
LINE
  5
48D4
330
231
100
AcDbEntity
  8
0
  6
Continuous
 62
     7
100
AcDbLine
 10
13890.36566665158
 20
-97.10253925156379
 30
0.0
 11
13890.36210035458
 21
-97.10253930256328
 31
0.0
  0
LINE
  5
48D5
330
231
100
AcDbEntity
  8
0
  6
Continuous
 62
     7
100
AcDbLine
 10
14700.94299142561
 20
-97.10253930256328
 30
0.0
 11
14700.94079201594
 21
-97.10253925389711
 31
0.0
  0
LINE
  5
48D6
330
231
100
AcDbEntity
  8
0
  6
Continuous
 62
     7
100
AcDbLine
 10
13890.36394172583
 20
-97.10253925156379
 30
0.0
 11
13890.36210030924
 21
-97.10253930256328
 31
0.0
  0
LINE
  5
48D7
330
231
100
AcDbEntity
  8
0
  6
Continuous
 62
     7
100
AcDbLine
 10
14700.94115005436
 20
-97.10253925156379
 30
0.0
 11
14700.94299147094
 21
-97.10253930256328
 31
0.0
  0
LINE
  5
48D8
330
231
100
AcDbEntity
  8
0
  6
Continuous
 62
     7
100
AcDbLine
 10
13890.36311070314
 20
-97.10253926723032
 30
0.0
 11
13890.36210035491
 21
-97.10253930256328
 31
0.0
  0
LWPOLYLINE
  5
48D9
330
231
100
AcDbEntity
  8
0
  6
Continuous
 62
     7
100
AcDbPolyline
 90
      164
 70
     0
 43
0.0
 10
14435.10351031067
 20
-308.5963773553665
 10
14435.107143831
 20
-308.5562324621528
 10
14435.11145841419
 20
-308.5117020121284
 10
14435.11606920675
 20
-308.4672014091389
 10
14435.12097600301
 20
-308.4227326141646
 10
14435.12617858165
 20
-308.3782976108524
 10
14435.131676704
 20
-308.3338984075155
 10
14435.1374701234
 20
-308.2895369721344
 10
14435.14355857885
 20
-308.2452152716891
 10
14435.14994179202
 20
-308.2009353098265
 10
14435.15661947524
 20
-308.1566990488602
 10
14435.16359132852
 20
-308.1125084504372
 10
14435.17085703119
 20
-308.068365512871
 10
14435.1784162566
 20
-308.0242721918086
 10
14435.18626866408
 20
-307.9802304432306
 10
14435.19441389196
 20
-307.9362422644501
 10
14435.20285157325
 20
-307.8923096034478
 10
14435.21158132728
 20
-307.8484344092041
 10
14435.2206027514
 20
-307.8046186733658
 10
14435.22991543894
 20
-307.7608643359136
 10
14435.2395189689
 20
-307.7171733381612
 10
14435.24941289663
 20
-307.6735476697556
 10
14435.25959677546
 20
-307.6299892623441
 10
14435.27007014505
 20
-307.5865000472406
 10
14435.28083251843
 20
-307.543082009092
 10
14435.29188341025
 20
-307.4997370682124
 10
14435.30322231953
 20
-307.4564671475826
 10
14435.31484871693
 20
-307.4132742298494
 10
14435.32676207646
 20
-307.3701602259938
 10
14435.33896185846
 20
-307.3271270476632
 10
14435.35144749027
 20
-307.2841766715046
 10
14435.36421840756
 20
-307.2413109951656
 10
14435.37727403067
 20
-307.198531920294
 10
14435.39061374194
 20
-307.1558414238698
 10
14435.40423693704
 20
-307.1132413932078
 10
14435.41814299698
 20
-307.0707337159555
 10
14435.43233126109
 20
-307.0283203624266
 10
14435.44680108639
 20
-306.9860032046024
 10
14435.46155181355
 20
-306.9437841194641
 10
14435.47658273591
 20
-306.9016650769921
 10
14435.49189317047
 20
-306.8596479358344
 10
14435.50748241924
 20
-306.817734557639
 10
14435.5233497299
 20
-306.7759269077197
 10
14435.53949438278
 20
-306.734226824058
 10
14435.5559156379
 20
-306.6926361589688
 10
14435.5726126906
 20
-306.6511568897657
 10
14435.58958477921
 20
-306.6097908427636
 10
14435.60683112674
 20
-306.5685398492777
 10
14435.62435087921
 20
-306.5274058842881
 10
14435.64214323795
 20
-306.4863907531102
 10
14435.66020738398
 20
-306.4454962737257
 10
14435.67854240862
 20
-306.4047244297816
 10
14435.69714747157
 20
-306.3640770142598
 10
14435.71602171583
 20
-306.3235558208091
 10
14435.73516418507
 20
-306.2831628244098
 10
14435.7545739993
 20
-306.2428997970441
 10
14435.77425026254
 20
-306.2027685150277
 10
14435.79419196712
 20
-306.162770945674
 10
14435.81439820139
 20
-306.1229088276325
 10
14435.83486802235
 20
-306.0831839305521
 10
14435.85560035103
 20
-306.0435982544128
 10
14435.87659422842
 20
-306.004153528864
 10
14435.89784867854
 20
-305.9648514892216
 10
14435.91936256706
 20
-305.9256941284658
 10
14435.94113489767
 20
-305.8866831492462
 10
14435.96316465237
 20
-305.8478202678789
 10
14435.98545063251
 20
-305.809107484344
 10
14436.0079918181
 20
-305.7705464502915
 10
14436.03078713548
 20
-305.7321388850377
 10
14436.05383527266
 20
-305.6938868708949
 10
14436.07713515632
 20
-305.6557920548469
 10
14436.10068568315
 20
-305.6178561075435
 10
14436.12448546248
 20
-305.5800811256304
 10
14436.14853338467
 20
-305.5424687197582
 10
14436.17282829938
 20
-305.5050205405771
 10
14436.19736871831
 20
-305.4677387220657
 10
14436.22215348613
 20
-305.4306248495415
 10
14436.24718141318
 20
-305.3936805383216
 10
14436.27245092014
 20
-305.3569079393846
 10
14436.29796083071
 20
-305.3203085783819
 10
14436.32370989089
 20
-305.2838840662973
 10
14436.34969636702
 20
-305.247636655775
 10
14436.37591902379
 20
-305.2115678568
 10
14436.40237657588
 20
-305.1756792256899
 10
14436.42906716997
 20
-305.1399730500885
 10
14436.45598955174
 20
-305.1044507693149
 10
14436.48314236521
 20
-305.0691139350201
 10
14436.5105235554
 20
-305.0339649655133
 10
14436.53813180331
 20
-304.9990052814469
 10
14436.56596572164
 20
-304.9642363684729
 10
14436.59402310106
 20
-304.9296606972331
 10
14436.62230261559
 20
-304.8952795940476
 10
14436.65080278859
 20
-304.8610945482348
 10
14436.67952112307
 20
-304.8271082244348
 10
14436.70845621538
 20
-304.7933219319677
 10
14436.73760656288
 20
-304.7597370748197
 10
14436.76696945291
 20
-304.726356400963
 10
14436.7965434975
 20
-304.6931810883862
 10
14436.826327072
 20
-304.660212561408
 10
14436.85631703442
 20
-304.6274538659982
 10
14436.88651188881
 20
-304.5949061731452
 10
14436.91690999982
 20
-304.5625707838356
 10
14436.94750793151
 20
-304.5304508573714
 10
14436.97830421354
 20
-304.4985474060758
 10
14437.00929706494
 20
-304.4668617496022
 10
14437.04048248409
 20
-304.4353974055821
 10
14437.07185888832
 20
-304.4041553560057
 10
14437.10342447466
 20
-304.3731367861945
 10
14437.13517479882
 20
-304.3423454014448
 10
14437.16710841748
 20
-304.3117818980829
 10
14437.19922325166
 20
-304.2814475664292
 10
14437.23151376875
 20
-304.251346862106
 10
14437.26397831511
 20
-304.2214804947726
 10
14437.29661485407
 20
-304.1918495124187
 10
14437.32941712038
 20
-304.1624586999964
 10
14437.36238368071
 20
-304.1333083745026
 10
14437.39551210476
 20
-304.1043997239254
 10
14437.42879444493
 20
-304.0757386168726
 10
14437.46222886391
 20
-304.0473254756735
 10
14437.49581311707
 20
-304.0191610553206
 10
14437.52953842914
 20
-303.991251455086
 10
14437.5634027075
 20
-303.9635970432996
 10
14437.59740374349
 20
-303.93619827029
 10
14437.6315323662
 20
-303.9090610666648
 10
14437.66578719265
 20
-303.8821849844283
 10
14437.70016510719
 20
-303.8555709285715
 10
14437.73465408597
 20
-303.8292265150183
 10
14437.76925245165
 20
-303.8031512014407
 10
14437.80395711893
 20
-303.7773455025003
 10
14437.83875363663
 20
-303.7518181724428
 10
14437.87363948877
 20
-303.7265689009381
 10
14437.90861212737
 20
-303.7015973873224
 10
14437.94365672725
 20
-303.6769119108462
 10
14437.97877113744
 20
-303.6525115245192
 10
14438.01395218596
 20
-303.628395986677
 10
14438.04918318265
 20
-303.6045741055649
 10
14438.0844639575
 20
-303.5810432222094
 10
14438.11978910591
 20
-303.5578041859354
 10
14438.15513365146
 20
-303.534870356276
 10
14438.19049538918
 20
-303.5122398279169
 10
14438.22587051642
 20
-303.4899117212002
 10
14438.26123112881
 20
-303.4679000253194
 10
14438.29657405805
 20
-303.4462027939605
 10
14438.33189605049
 20
-303.4248181374758
 10
14438.36716854543
 20
-303.4037591687343
 10
14438.40238870255
 20
-303.3830231310968
 10
14438.43755260391
 20
-303.3626079145843
 10
14438.47262956381
 20
-303.3425266173993
 10
14438.50761618094
 20
-303.3227761829055
 10
14438.54250879534
 20
-303.3033537197988
 10
14438.57727584167
 20
-303.2842715549557
 10
14438.61191375128
 20
-303.2655261304118
 10
14438.64641880123
 20
-303.2471139972017
 10
14438.68075873883
 20
-303.2290466332105
 10
14438.71493161076
 20
-303.211319092821
 10
14438.74893193242
 20
-303.1939283110639
 10
14438.78272169385
 20
-303.1768874931405
 10
14438.81629766976
 20
-303.160191737433
 10
14438.84965547784
 20
-303.1438367716509
 10
14438.88275490318
 20
-303.1278355543313
 10
14438.9155889255
 20
-303.1121843988445
 10
14438.94815684682
 20
-303.0968766492569
 10
14438.98042757578
 20
-303.081919781827
 10
14439.0029279461
 20
-303.0716361486644
  0
LINE
  5
48DA
330
231
100
AcDbEntity
  8
0
  6
Continuous
 62
     7
100
AcDbLine
 10
14681.87835176325
 20
-111.4582917782696
 30
0.0
 11
14681.92455671152
 21
-111.4251973738836
 31
0.0
  0
LINE
  5
48DB
330
231
100
AcDbEntity
  8
0
  6
Continuous
 62
     7
100
AcDbLine
 10
14681.92455671152
 20
-111.4251973738836
 30
0.0
 11
14681.9733648421
 21
-111.3905687798397
 31
0.0
  0
LINE
  5
48DC
330
231
100
AcDbEntity
  8
0
  6
Continuous
 62
     7
100
AcDbLine
 10
14681.9733648421
 20
-111.3905687798397
 30
0.0
 11
14682.02190090374
 21
-111.3564665618653
 31
0.0
  0
LINE
  5
48DD
330
231
100
AcDbEntity
  8
0
  6
Continuous
 62
     7
100
AcDbLine
 10
14682.02190090374
 20
-111.3564665618653
 30
0.0
 11
14682.07018695221
 21
-111.3228667002006
 31
0.0
  0
LINE
  5
48DE
330
231
100
AcDbEntity
  8
0
  6
Continuous
 62
     7
100
AcDbLine
 10
14682.07018695221
 20
-111.3228667002006
 30
0.0
 11
14682.11824483829
 21
-111.2897461064098
 31
0.0
  0
LINE
  5
48DF
330
231
100
AcDbEntity
  8
0
  6
Continuous
 62
     7
100
AcDbLine
 10
14682.11824483829
 20
-111.2897461064098
 30
0.0
 11
14682.16608077559
 21
-111.2570930722768
 31
0.0
  0
LINE
  5
48E0
330
231
100
AcDbEntity
  8
0
  6
Continuous
 62
     7
100
AcDbLine
 10
14682.16608077559
 20
-111.2570930722768
 30
0.0
 11
14682.21368416322
 21
-111.2249075308021
 31
0.0
  0
LINE
  5
48E1
330
231
100
AcDbEntity
  8
0
  6
Continuous
 62
     7
100
AcDbLine
 10
14682.21368416322
 20
-111.2249075308021
 30
0.0
 11
14682.26104357129
 21
-111.1931898576486
 31
0.0
  0
LINE
  5
48E2
330
231
100
AcDbEntity
  8
0
  6
Continuous
 62
     7
100
AcDbLine
 10
14682.26104357129
 20
-111.1931898576486
 30
0.0
 11
14682.31091018428
 21
-111.1601166797171
 31
0.0
  0
LINE
  5
48E3
330
231
100
AcDbEntity
  8
0
  6
Continuous
 62
     7
100
AcDbLine
 10
14682.31091018428
 20
-111.1601166797171
 30
0.0
 11
14682.36047684628
 21
-111.1275684802023
 31
0.0
  0
LINE
  5
48E4
330
231
100
AcDbEntity
  8
0
  6
Continuous
 62
     7
100
AcDbLine
 10
14682.36047684628
 20
-111.1275684802023
 30
0.0
 11
14682.40972994774
 21
-111.0955452811042
 31
0.0
  0
LINE
  5
48E5
330
231
100
AcDbEntity
  8
0
  6
Continuous
 62
     7
100
AcDbLine
 10
14682.40972994774
 20
-111.0955452811042
 30
0.0
 11
14682.45865587081
 21
-111.0640469660905
 31
0.0
  0
LINE
  5
48E6
330
231
100
AcDbEntity
  8
0
  6
Continuous
 62
     7
100
AcDbLine
 10
14682.45865587081
 20
-111.0640469660905
 30
0.0
 11
14682.50724099095
 21
-111.033073285497
 31
0.0
  0
LINE
  5
48E7
330
231
100
AcDbEntity
  8
0
  6
Continuous
 62
     7
100
AcDbLine
 10
14682.50724099095
 20
-111.033073285497
 30
0.0
 11
14682.55547168198
 21
-111.0026238593277
 31
0.0
  0
LINE
  5
48E8
330
231
100
AcDbEntity
  8
0
  6
Continuous
 62
     7
100
AcDbLine
 10
14682.55547168198
 20
-111.0026238593277
 30
0.0
 11
14682.60598228753
 21
-110.9710509873929
 31
0.0
  0
LINE
  5
48E9
330
231
100
AcDbEntity
  8
0
  6
Continuous
 62
     7
100
AcDbLine
 10
14682.60598228753
 20
-110.9710509873929
 30
0.0
 11
14682.65606678201
 21
-110.9400609312966
 31
0.0
  0
LINE
  5
48EA
330
231
100
AcDbEntity
  8
0
  6
Continuous
 62
     7
100
AcDbLine
 10
14682.65606678201
 20
-110.9400609312966
 30
0.0
 11
14682.70570915225
 21
-110.9096528017142
 31
0.0
  0
LINE
  5
48EB
330
231
100
AcDbEntity
  8
0
  6
Continuous
 62
     7
100
AcDbLine
 10
14682.70570915225
 20
-110.9096528017142
 30
0.0
 11
14682.71350595295
 21
-110.9049046478629
 31
0.0
  0
LINE
  5
48EC
330
231
100
AcDbEntity
  8
0
  6
Continuous
 62
     7
100
AcDbLine
 10
14460.73270086153
 20
-312.0300695087682
 30
0.0
 11
14460.70662300198
 21
-311.9546158456458
 31
0.0
  0
LINE
  5
48ED
330
231
100
AcDbEntity
  8
0
  6
Continuous
 62
     7
100
AcDbLine
 10
14681.05954292508
 20
-112.098678728336
 30
0.0
 11
14681.10396312721
 21
-112.0611513616135
 31
0.0
  0
LINE
  5
48EE
330
231
100
AcDbEntity
  8
0
  6
Continuous
 62
     7
100
AcDbLine
 10
14681.10396312721
 20
-112.0611513616135
 30
0.0
 11
14681.14766655917
 21
-112.024560011864
 31
0.0
  0
LINE
  5
48EF
330
231
100
AcDbEntity
  8
0
  6
Continuous
 62
     7
100
AcDbLine
 10
14681.14766655917
 20
-112.024560011864
 30
0.0
 11
14681.19399942783
 21
-111.9861210652572
 31
0.0
  0
LINE
  5
48F0
330
231
100
AcDbEntity
  8
0
  6
Continuous
 62
     7
100
AcDbLine
 10
14681.19399942783
 20
-111.9861210652572
 30
0.0
 11
14681.23964812801
 21
-111.9486019831185
 31
0.0
  0
LINE
  5
48F1
330
231
100
AcDbEntity
  8
0
  6
Continuous
 62
     7
100
AcDbLine
 10
14681.23964812801
 20
-111.9486019831185
 30
0.0
 11
14681.28469129791
 21
-111.9119194839472
 31
0.0
  0
LINE
  5
48F2
330
231
100
AcDbEntity
  8
0
  6
Continuous
 62
     7
100
AcDbLine
 10
14681.28469129791
 20
-111.9119194839472
 30
0.0
 11
14681.32920922106
 21
-111.8759919078932
 31
0.0
  0
LINE
  5
48F3
330
231
100
AcDbEntity
  8
0
  6
Continuous
 62
     7
100
AcDbLine
 10
14681.32920922106
 20
-111.8759919078932
 30
0.0
 11
14681.37641702631
 21
-111.8382449683664
 31
0.0
  0
LINE
  5
48F4
330
231
100
AcDbEntity
  8
0
  6
Continuous
 62
     7
100
AcDbLine
 10
14681.37641702631
 20
-111.8382449683664
 30
0.0
 11
14681.42321119869
 21
-111.8011819270005
 31
0.0
  0
LINE
  5
48F5
330
231
100
AcDbEntity
  8
0
  6
Continuous
 62
     7
100
AcDbLine
 10
14681.42321119869
 20
-111.8011819270005
 30
0.0
 11
14681.46963125549
 21
-111.7647588325684
 31
0.0
  0
LINE
  5
48F6
330
231
100
AcDbEntity
  8
0
  6
Continuous
 62
     7
100
AcDbLine
 10
14681.46963125549
 20
-111.7647588325684
 30
0.0
 11
14681.51568863824
 21
-111.7289549626107
 31
0.0
  0
LINE
  5
48F7
330
231
100
AcDbEntity
  8
0
  6
Continuous
 62
     7
100
AcDbLine
 10
14681.51568863824
 20
-111.7289549626107
 30
0.0
 11
14681.56139494584
 21
-111.6937501199959
 31
0.0
  0
LINE
  5
48F8
330
231
100
AcDbEntity
  8
0
  6
Continuous
 62
     7
100
AcDbLine
 10
14681.56139494584
 20
-111.6937501199959
 30
0.0
 11
14681.60676213983
 21
-111.6591244539227
 31
0.0
  0
LINE
  5
48F9
330
231
100
AcDbEntity
  8
0
  6
Continuous
 62
     7
100
AcDbLine
 10
14681.60676213983
 20
-111.6591244539227
 30
0.0
 11
14681.65479392051
 21
-111.6228068134361
 31
0.0
  0
LINE
  5
48FA
330
231
100
AcDbEntity
  8
0
  6
Continuous
 62
     7
100
AcDbLine
 10
14681.65479392051
 20
-111.6228068134361
 30
0.0
 11
14681.70246925809
 21
-111.5871026968142
 31
0.0
  0
LINE
  5
48FB
330
231
100
AcDbEntity
  8
0
  6
Continuous
 62
     7
100
AcDbLine
 10
14681.70246925809
 20
-111.5871026968142
 30
0.0
 11
14681.7498039504
 21
-111.5519892822852
 31
0.0
  0
LINE
  5
48FC
330
231
100
AcDbEntity
  8
0
  6
Continuous
 62
     7
100
AcDbLine
 10
14681.7498039504
 20
-111.5519892822852
 30
0.0
 11
14681.79681422529
 21
-111.5174441604065
 31
0.0
  0
LINE
  5
48FD
330
231
100
AcDbEntity
  8
0
  6
Continuous
 62
     7
100
AcDbLine
 10
14681.79681422529
 20
-111.5174441604065
 30
0.0
 11
14681.8435166946
 21
-111.483445353398
 31
0.0
  0
LINE
  5
48FE
330
231
100
AcDbEntity
  8
0
  6
Continuous
 62
     7
100
AcDbLine
 10
14681.8435166946
 20
-111.483445353398
 30
0.0
 11
14681.87835176325
 21
-111.4582917782696
 31
0.0
  0
LINE
  5
48FF
330
231
100
AcDbEntity
  8
0
  6
Continuous
 62
     7
100
AcDbLine
 10
14680.26139275033
 20
-112.83557096734
 30
0.0
 11
14680.30218084044
 21
-112.7948081286391
 31
0.0
  0
LINE
  5
4900
330
231
100
AcDbEntity
  8
0
  6
Continuous
 62
     7
100
AcDbLine
 10
14680.30218084044
 20
-112.7948081286391
 30
0.0
 11
14680.34278450373
 21
-112.7545864298601
 31
0.0
  0
LINE
  5
4901
330
231
100
AcDbEntity
  8
0
  6
Continuous
 62
     7
100
AcDbLine
 10
14680.34278450373
 20
-112.7545864298601
 30
0.0
 11
14680.38722187502
 21
-112.7109696463656
 31
0.0
  0
LINE
  5
4902
330
231
100
AcDbEntity
  8
0
  6
Continuous
 62
     7
100
AcDbLine
 10
14680.38722187502
 20
-112.7109696463656
 30
0.0
 11
14680.43140700684
 21
-112.6680119142806
 31
0.0
  0
LINE
  5
4903
330
231
100
AcDbEntity
  8
0
  6
Continuous
 62
     7
100
AcDbLine
 10
14680.43140700684
 20
-112.6680119142806
 30
0.0
 11
14680.47532462466
 21
-112.625715261918
 31
0.0
  0
LINE
  5
4904
330
231
100
AcDbEntity
  8
0
  6
Continuous
 62
     7
100
AcDbLine
 10
14680.47532462466
 20
-112.625715261918
 30
0.0
 11
14680.51895945497
 21
-112.5840815565926
 31
0.0
  0
LINE
  5
4905
330
231
100
AcDbEntity
  8
0
  6
Continuous
 62
     7
100
AcDbLine
 10
14680.51895945497
 20
-112.5840815565926
 30
0.0
 11
14680.56229619293
 21
-112.5431125439535
 31
0.0
  0
LINE
  5
4906
330
231
100
AcDbEntity
  8
0
  6
Continuous
 62
     7
100
AcDbLine
 10
14680.56229619293
 20
-112.5431125439535
 30
0.0
 11
14680.60531952469
 21
-112.5028098359846
 31
0.0
  0
LINE
  5
4907
330
231
100
AcDbEntity
  8
0
  6
Continuous
 62
     7
100
AcDbLine
 10
14680.60531952469
 20
-112.5028098359846
 30
0.0
 11
14680.64801414974
 21
-112.4631748970046
 31
0.0
  0
LINE
  5
4908
330
231
100
AcDbEntity
  8
0
  6
Continuous
 62
     7
100
AcDbLine
 10
14680.64801414974
 20
-112.4631748970046
 30
0.0
 11
14680.69036474957
 21
-112.4242090843333
 31
0.0
  0
LINE
  5
4909
330
231
100
AcDbEntity
  8
0
  6
Continuous
 62
     7
100
AcDbLine
 10
14680.69036474957
 20
-112.4242090843333
 30
0.0
 11
14680.73235589398
 21
-112.3859137399572
 31
0.0
  0
LINE
  5
490A
330
231
100
AcDbEntity
  8
0
  6
Continuous
 62
     7
100
AcDbLine
 10
14680.73235589398
 20
-112.3859137399572
 30
0.0
 11
14680.77773183888
 21
-112.3449071456939
 31
0.0
  0
LINE
  5
490B
330
231
100
AcDbEntity
  8
0
  6
Continuous
 62
     7
100
AcDbLine
 10
14680.77773183888
 20
-112.3449071456939
 30
0.0
 11
14680.82262648927
 21
-112.3047147816216
 31
0.0
  0
LINE
  5
490C
330
231
100
AcDbEntity
  8
0
  6
Continuous
 62
     7
100
AcDbLine
 10
14680.82262648927
 20
-112.3047147816216
 30
0.0
 11
14680.86700862878
 21
-112.2653474832985
 31
0.0
  0
LINE
  5
490D
330
231
100
AcDbEntity
  8
0
  6
Continuous
 62
     7
100
AcDbLine
 10
14680.86700862878
 20
-112.2653474832985
 30
0.0
 11
14680.91084690072
 21
-112.226815751953
 31
0.0
  0
LINE
  5
490E
330
231
100
AcDbEntity
  8
0
  6
Continuous
 62
     7
100
AcDbLine
 10
14680.91084690072
 20
-112.226815751953
 30
0.0
 11
14680.95410982576
 21
-112.1891297701499
 31
0.0
  0
LINE
  5
490F
330
231
100
AcDbEntity
  8
0
  6
Continuous
 62
     7
100
AcDbLine
 10
14680.95410982576
 20
-112.1891297701499
 30
0.0
 11
14681.0002921006
 21
-112.1492691397602
 31
0.0
  0
LINE
  5
4910
330
231
100
AcDbEntity
  8
0
  6
Continuous
 62
     7
100
AcDbLine
 10
14681.0002921006
 20
-112.1492691397602
 30
0.0
 11
14681.04572177163
 21
-112.1104248778734
 31
0.0
  0
LINE
  5
4911
330
231
100
AcDbEntity
  8
0
  6
Continuous
 62
     7
100
AcDbLine
 10
14681.04572177163
 20
-112.1104248778734
 30
0.0
 11
14681.05954292508
 21
-112.098678728336
 31
0.0
  0
LINE
  5
4912
330
231
100
AcDbEntity
  8
0
  6
Continuous
 62
     7
100
AcDbLine
 10
14680.20614757179
 20
-112.8913633627438
 30
0.0
 11
14680.24502842764
 21
-112.8520272171092
 31
0.0
  0
LINE
  5
4913
330
231
100
AcDbEntity
  8
0
  6
Continuous
 62
     7
100
AcDbLine
 10
14680.24502842764
 20
-112.8520272171092
 30
0.0
 11
14680.26139275033
 21
-112.83557096734
 31
0.0
  0
LINE
  5
4914
330
231
100
AcDbEntity
  8
0
  6
Continuous
 62
     7
100
AcDbLine
 10
14590.96778691865
 20
-312.0300695087682
 30
0.0
 11
14590.9938647782
 21
-311.9546158456458
 31
0.0
  0
LWPOLYLINE
  5
4915
330
231
100
AcDbEntity
  8
0
  6
Continuous
 62
     7
100
AcDbPolyline
 90
      153
 70
     0
 43
0.0
 10
14633.57987679549
 20
-307.4461661972598
 10
14633.58349950226
 20
-307.4061365318937
 10
14633.58780179057
 20
-307.3617197787324
 10
14633.5923986606
 20
-307.317332965605
 10
14633.59728990502
 20
-307.2729780251588
 10
14633.60247529817
 20
-307.2286569360408
 10
14633.60795459538
 20
-307.1843717238973
 10
14633.61372754631
 20
-307.1401243400423
 10
14633.61979388765
 20
-307.0959167344561
 10
14633.62615333239
 20
-307.0517509277853
 10
14633.63280558986
 20
-307.0076288663436
 10
14633.63975035641
 20
-306.9635524941117
 10
14633.64698730305
 20
-306.9195238270694
 10
14633.65451609942
 20
-306.8755448038641
 10
14633.66233640155
 20
-306.8316173624762
 10
14633.67044783844
 20
-306.7877435142191
 10
14633.67885003908
 20
-306.7439251907401
 10
14633.68754261949
 20
-306.7001643216865
 10
14633.69652516733
 20
-306.6564629123716
 10
14633.70579727127
 20
-306.6128228864429
 10
14633.71535850766
 20
-306.5692461652144
 10
14633.72520842183
 20
-306.525734746333
 10
14633.73534656411
 20
-306.4822905401127
 10
14633.74577246985
 20
-306.4389154635345
 10
14633.75648563939
 20
-306.3956115175783
 10
14633.76748558705
 20
-306.3523805898919
 10
14633.77877180452
 20
-306.3092246004561
 10
14633.7903437358
 20
-306.2661455942505
 10
14633.80220085156
 20
-306.2231454599228
 10
14633.81434260581
 20
-306.1802260937874
 10
14633.82676839322
 20
-306.1373895464905
 10
14633.83947764279
 20
-306.0946376973466
 10
14633.85246976853
 20
-306.0519724283369
 10
14633.86574411845
 20
-306.0093957854409
 10
14633.87930008056
 20
-305.9669096343067
 10
14633.89313702752
 20
-305.9245158445821
 10
14633.90725425902
 20
-305.8822164615802
 10
14633.92165112604
 20
-305.8400133266157
 10
14633.93632695662
 20
-305.7979083053369
 10
14633.95128099074
 20
-305.7559034713894
 10
14633.96651253543
 20
-305.7140006560884
 10
14633.98202088034
 20
-305.6722017047488
 10
14633.99780520816
 20
-305.6305087000163
 10
14634.01386479023
 20
-305.588923445873
 10
14634.03019886856
 20
-305.5474477826337
 10
14634.04680655514
 20
-305.506083837944
 10
14634.06368707501
 20
-305.4648334061191
 10
14634.08083963148
 20
-305.4236983004744
 10
14634.09826327157
 20
-305.3826806646548
 10
14634.1159571843
 20
-305.3417822596429
 10
14634.13392052433
 20
-305.3010048934207
 10
14634.15215225401
 20
-305.2603507646326
 10
14634.17065151235
 20
-305.219821628928
 10
14634.18941741602
 20
-305.1794192576224
 10
14634.20844886037
 20
-305.1391458566939
 10
14634.22774495074
 20
-305.0990031371251
 10
14634.24730474981
 20
-305.0589928705651
 10
14634.26712705158
 20
-305.0191173326577
 10
14634.28721091641
 20
-304.9793782103864
 10
14634.3075553613
 20
-304.9397772503999
 10
14634.3281590726
 20
-304.900316796675
 10
14634.3490210623
 20
-304.8609985145284
 10
14634.37014030244
 20
-304.8218241186096
 10
14634.39151537602
 20
-304.7827959998948
 10
14634.41314527506
 20
-304.7439157467011
 10
14634.43502889722
 20
-304.705185093345
 10
14634.45716463253
 20
-304.6666066211335
 10
14634.47955140265
 20
-304.6281819220511
 10
14634.50218807295
 20
-304.5899126607474
 10
14634.52507289077
 20
-304.5518014951962
 10
14634.54820475145
 20
-304.5138499420489
 10
14634.57158244233
 20
-304.4760596692887
 10
14634.59520398745
 20
-304.4384335252206
 10
14634.61906821281
 20
-304.4009730094962
 10
14634.64317386274
 20
-304.3636797254328
 10
14634.66751876996
 20
-304.326556631334
 10
14634.69210175413
 20
-304.289605106853
 10
14634.71692145159
 20
-304.2528267863066
 10
14634.74197533805
 20
-304.2162249566618
 10
14634.76726213818
 20
-304.1798009955717
 10
14634.792780455
 20
-304.1435564346877
 10
14634.81852749052
 20
-304.1074947263084
 10
14634.84450198211
 20
-304.071617083755
 10
14634.87070238744
 20
-304.0359250886786
 10
14634.89712538354
 20
-304.000422664373
 10
14634.92376958443
 20
-303.9651110271595
 10
14634.95063341812
 20
-303.9299916176906
 10
14634.97771316332
 20
-303.8950686042575
 10
14635.00500749071
 20
-303.8603429568507
 10
14635.03251461397
 20
-303.825816209455
 10
14635.06022998448
 20
-303.7914932590212
 10
14635.08815208925
 20
-303.7573751035396
 10
14635.11627913798
 20
-303.7234630603301
 10
14635.14460600371
 20
-303.6897623623404
 10
14635.17313127512
 20
-303.656273673564
 10
14635.2018528659
 20
-303.6229984359863
 10
14635.23076444278
 20
-303.5899428762119
 10
14635.25986434678
 20
-303.5571076899004
 10
14635.28915050425
 20
-303.5244940253737
 10
14635.31861573326
 20
-303.492108577898
 10
14635.34825859483
 20
-303.4599515351384
 10
14635.37807655365
 20
-303.4280242627476
 10
14635.4080605168
 20
-303.3963349646437
 10
14635.43820867465
 20
-303.3648838934909
 10
14635.46851856088
 20
-303.3336719752799
 10
14635.4989797836
 20
-303.3027081059217
 10
14635.52959093049
 20
-303.2719917850879
 10
14635.56034882657
 20
-303.2415242764328
 10
14635.59124006632
 20
-303.2113167251779
 10
14635.62226262343
 20
-303.1813687933269
 10
14635.65341353758
 20
-303.1516810385408
 10
14635.68467756327
 20
-303.1222654663661
 10
14635.71605308985
 20
-303.0931208774816
 10
14635.74753633635
 20
-303.0642480912123
 10
14635.77910829729
 20
-303.0356615624138
 10
14635.8107666037
 20
-303.0073602130968
 10
14635.84250774129
 20
-302.9793439875952
 10
14635.87431041893
 20
-302.9516281920893
 10
14635.90617323496
 20
-302.9242103159374
 10
14635.93809122844
 20
-302.8970909278007
 10
14635.97003711398
 20
-302.8702891281548
 10
14636.0020087556
 20
-302.8438023006923
 10
14636.03400132133
 20
-302.8176300810837
 10
14636.06598271452
 20
-302.7917939391145
 10
14636.09794917451
 20
-302.7662917374723
 10
14636.12989684137
 20
-302.7411214321779
 10
14636.16179268274
 20
-302.7163035450259
 10
14636.19363299167
 20
-302.6918350953796
 10
14636.22541330819
 20
-302.6677137085958
 10
14636.25709871434
 20
-302.6439597098049
 10
14636.2886848928
 20
-302.6205697997063
 10
14636.32016751064
 20
-302.597540726666
 10
14636.35151090854
 20
-302.5748917698245
 10
14636.38271040887
 20
-302.5526191712194
 10
14636.41376166103
 20
-302.5307189868901
 10
14636.44462884102
 20
-302.5092091266575
 10
14636.47530714823
 20
-302.4880852792315
 10
14636.50579209538
 20
-302.4673429809899
 10
14636.53604774115
 20
-302.4469988607664
 10
14636.56606909093
 20
-302.4270481852751
 10
14636.59585170577
 20
-302.4074859295664
 10
14636.62535996235
 20
-302.3883272851547
 10
14636.65458704941
 20
-302.3695682224139
 10
14636.68353030798
 20
-302.3512021277433
 10
14636.71215995534
 20
-302.3332394663718
 10
14636.74046598361
 20
-302.3156778979891
 10
14636.76844909578
 20
-302.2985085146847
 10
14636.79609543298
 20
-302.2817314521237
 10
14636.82339932761
 20
-302.2653418216882
 10
14636.85035768269
 20
-302.2493333017751
 10
14636.87696054632
 20
-302.233703723739
 10
14636.90320246323
 20
-302.2184482959616
 10
14636.91845419838
 20
-302.2096740960378
  0
LINE
  5
4916
330
231
100
AcDbEntity
  8
0
  6
Continuous
 62
     7
100
AcDbLine
 10
14663.09590206381
 20
-274.3247198345259
 30
0.0
 11
14676.52081212384
 21
-120.8772956876219
 31
0.0
  0
LINE
  5
4917
330
231
100
AcDbEntity
  8
0
  6
Continuous
 62
     7
100
AcDbLine
 10
14715.91080925593
 20
-109.1024192515638
 30
0.0
 11
14715.88392109649
 21
-108.7950861835919
 31
0.0
  0
ARC
  5
4BCC
330
231
100
AcDbEntity
  8
0
  6
Continuous
 62
     7
100
AcDbCircle
 10
14033.51564788545
 20
-322.3635296374669
 30
0.0
 40
31.7496825
100
AcDbArc
 50
18.99384412629313
 51
19.13791158078351
  0
ARC
  5
4BCD
330
231
100
AcDbEntity
  8
0
  6
Continuous
 62
     7
100
AcDbCircle
 10
14205.79581562488
 20
-316.1181813622409
 30
0.0
 40
12.699873
100
AcDbArc
 50
92.00000000000365
 51
160.8620884192164
  0
ARC
  5
4BCE
330
231
100
AcDbEntity
  8
0
  6
Continuous
 62
     7
100
AcDbCircle
 10
14051.5126161553
 20
-316.1181813622409
 30
0.0
 40
12.699873
100
AcDbArc
 50
19.13791158078351
 51
87.99999999999636
  0
ARC
  5
4BCF
330
231
100
AcDbEntity
  8
0
  6
Continuous
 62
     7
100
AcDbCircle
 10
14065.21785025993
 20
-311.4513957415638
 30
0.0
 40
1.777982219999999
100
AcDbArc
 50
198.9938441262931
 51
270.0
  0
ARC
  5
4BD0
330
231
100
AcDbEntity
  8
0
  6
Continuous
 62
     7
100
AcDbCircle
 10
14192.09058151992
 20
-311.4513957415638
 30
0.0
 40
1.777982219999999
100
AcDbArc
 50
270.0
 51
341.0061558737067
  0
ARC
  5
4BD1
330
231
100
AcDbEntity
  8
0
  6
Continuous
 62
     7
100
AcDbCircle
 10
13959.5603631257
 20
-314.0093701615638
 30
0.0
 40
1.499984999999999
100
AcDbArc
 50
184.9999999999965
 51
270.0
  0
ARC
  5
4BD2
330
231
100
AcDbEntity
  8
0
  6
Continuous
 62
     7
100
AcDbCircle
 10
13972.81123709363
 20
-314.0093701615638
 30
0.0
 40
1.499984999999999
100
AcDbArc
 50
270.0
 51
355.0000000000034
  0
ARC
  5
4BD3
330
231
100
AcDbEntity
  8
0
  6
Continuous
 62
     7
100
AcDbCircle
 10
14288.31011505663
 20
-314.0093701615638
 30
0.0
 40
1.499984999999999
100
AcDbArc
 50
184.9999999999965
 51
270.0
  0
ARC
  5
4BD4
330
231
100
AcDbEntity
  8
0
  6
Continuous
 62
     7
100
AcDbCircle
 10
13956.11794768919
 20
-272.0625249292108
 30
0.0
 40
27.99972
100
AcDbArc
 50
184.9999999999965
 51
265.014913152837
  0
ARC
  5
4BD5
330
231
100
AcDbEntity
  8
0
  6
Continuous
 62
     7
100
AcDbCircle
 10
14360.6545584083
 20
-485.0947847053095
 30
0.0
 40
316.0743712200134
100
AcDbArc
 50
89.86649946227888
 51
89.9964495327851
  0
ARC
  5
4BD6
330
231
100
AcDbEntity
  8
0
  6
Continuous
 62
     7
100
AcDbCircle
 10
14360.65422832293
 20
-485.0700745547469
 30
0.0
 40
316.0496610601175
100
AcDbArc
 50
90.00629944520403
 51
90.26926263281326
  0
ARC
  5
4BD7
330
231
100
AcDbEntity
  8
0
  6
Continuous
 62
     7
100
AcDbCircle
 10
14360.65987936809
 20
-483.4134615087097
 30
0.0
 40
314.3930397844958
100
AcDbArc
 50
89.64460917580963
 51
89.84799316999403
  0
ARC
  5
4BD8
330
231
100
AcDbEntity
  8
0
  6
Continuous
 62
     7
100
AcDbCircle
 10
14360.64371550873
 20
-482.7839907924798
 30
0.0
 40
313.7635529554271
100
AcDbArc
 50
90.29260636828789
 51
90.44615266649634
  0
ARC
  5
4BD9
330
231
100
AcDbEntity
  8
0
  6
Continuous
 62
     7
100
AcDbCircle
 10
14360.70230681881
 20
-477.7801678498764
 30
0.0
 40
308.7595843716134
100
AcDbArc
 50
89.33087616221234
 51
89.56860384169669
  0
ARC
  5
4BDA
330
231
100
AcDbEntity
  8
0
  6
Continuous
 62
     7
100
AcDbCircle
 10
14360.57899147664
 20
-475.5760454083211
 30
0.0
 40
306.5553140368705
100
AcDbArc
 50
90.5248470526075
 51
90.89092144340744
  0
ARC
  5
4BDB
330
231
100
AcDbEntity
  8
0
  6
Continuous
 62
     7
100
AcDbCircle
 10
14360.65182763194
 20
-472.2779104276675
 30
0.0
 40
303.2593164695091
100
AcDbArc
 50
89.63003847771101
 51
91.31394863880517
  0
ARC
  5
4BDC
330
231
100
AcDbEntity
  8
0
  6
Continuous
 62
     7
100
AcDbCircle
 10
14360.65297343448
 20
-472.2128714510636
 30
0.0
 40
303.1942714509658
100
AcDbArc
 50
88.68595469729102
 51
89.63017563901376
  0
ARC
  5
4BDD
330
231
100
AcDbEntity
  8
0
  6
Continuous
 62
     7
100
AcDbCircle
 10
14360.79061836469
 20
-470.617539538209
 30
0.0
 40
301.596409235081
100
AcDbArc
 50
89.12038407320059
 51
89.26432185869298
  0
ARC
  5
4BDE
330
231
100
AcDbEntity
  8
0
  6
Continuous
 62
     7
100
AcDbCircle
 10
14360.88455097102
 20
-464.6727692011736
 30
0.0
 40
295.6508964348036
100
AcDbArc
 50
88.95164016541151
 51
89.09679952582028
  0
ARC
  5
4BDF
330
231
100
AcDbEntity
  8
0
  6
Continuous
 62
     7
100
AcDbCircle
 10
14360.39392781396
 20
-463.2954370999656
 30
0.0
 40
294.273312871777
100
AcDbArc
 50
90.89207184218059
 51
91.20828408919225
  0
ARC
  5
4BE0
330
231
100
AcDbEntity
  8
0
  6
Continuous
 62
     7
100
AcDbCircle
 10
14360.98892652158
 20
-459.0342417296788
 30
0.0
 40
290.011403119634
100
AcDbArc
 50
88.81014337162126
 51
88.95187602478308
  0
ARC
  5
4BE1
330
231
100
AcDbEntity
  8
0
  6
Continuous
 62
     7
100
AcDbCircle
 10
14602.99184362488
 20
-316.1181813622409
 30
0.0
 40
12.699873
100
AcDbArc
 50
92.00000000000365
 51
160.8620884192164
  0
ARC
  5
4BE2
330
231
100
AcDbEntity
  8
0
  6
Continuous
 62
     7
100
AcDbCircle
 10
14448.7086441553
 20
-316.1181813622409
 30
0.0
 40
12.699873
100
AcDbArc
 50
19.13791158078351
 51
87.99999999999636
  0
ARC
  5
4BE3
330
231
100
AcDbEntity
  8
0
  6
Continuous
 62
     7
100
AcDbCircle
 10
14589.28660951993
 20
-311.4513957415638
 30
0.0
 40
1.777982219999999
100
AcDbArc
 50
270.0
 51
341.0061558737067
  0
ARC
  5
4BE4
330
231
100
AcDbEntity
  8
0
  6
Continuous
 62
     7
100
AcDbCircle
 10
14462.41387825993
 20
-311.4513957415638
 30
0.0
 40
1.777982219999999
100
AcDbArc
 50
198.9938441262931
 51
270.0
  0
ARC
  5
4BE5
330
231
100
AcDbEntity
  8
0
  6
Continuous
 62
     7
100
AcDbCircle
 10
14419.87334613783
 20
-314.0093701615638
 30
0.0
 40
1.499984999999999
100
AcDbArc
 50
184.9999999999965
 51
270.0
  0
ARC
  5
4BE6
330
231
100
AcDbEntity
  8
0
  6
Continuous
 62
     7
100
AcDbCircle
 10
14433.12422010543
 20
-314.0093701615638
 30
0.0
 40
1.499984999999999
100
AcDbArc
 50
270.0
 51
355.0000000000034
  0
ARC
  5
4BE7
330
231
100
AcDbEntity
  8
0
  6
Continuous
 62
     7
100
AcDbCircle
 10
14301.56098902457
 20
-314.0093701615638
 30
0.0
 40
1.499984999999999
100
AcDbArc
 50
270.0
 51
355.0000000000034
  0
ARC
  5
4BE8
330
231
100
AcDbEntity
  8
0
  6
Continuous
 62
     7
100
AcDbCircle
 10
14618.2490821853
 20
-314.0093701615638
 30
0.0
 40
1.499984999999999
100
AcDbArc
 50
184.9999999999965
 51
270.0
  0
ARC
  5
4BE9
330
231
100
AcDbEntity
  8
0
  6
Continuous
 62
     7
100
AcDbCircle
 10
14631.49995615324
 20
-314.0093701615638
 30
0.0
 40
1.499984999999999
100
AcDbArc
 50
270.0
 51
355.0000000000034
  0
ARC
  5
4BEA
330
231
100
AcDbEntity
  8
0
  6
Continuous
 62
     7
100
AcDbCircle
 10
14367.60583197254
 20
-184.6778030068353
 30
0.0
 40
45.69954300599994
100
AcDbArc
 50
5.000000006999553
 51
89.99999999301723
  0
ARC
  5
4BEB
330
231
100
AcDbEntity
  8
0
  6
Continuous
 62
     7
100
AcDbCircle
 10
14353.69795980765
 20
-184.6778030068353
 30
0.0
 40
45.69954300599994
100
AcDbArc
 50
90.00000000698276
 51
174.9999999930003
  0
ARC
  5
4BEC
330
231
100
AcDbEntity
  8
0
  6
Continuous
 62
     7
100
AcDbCircle
 10
14304.95761056601
 20
-271.9309739740669
 30
0.0
 40
27.99972
100
AcDbArc
 50
278.6080167956235
 51
355.0000000000034
  0
ARC
  5
4BED
330
231
100
AcDbEntity
  8
0
  6
Continuous
 62
     7
100
AcDbCircle
 10
14304.95799709248
 20
-271.9265559589142
 30
0.0
 40
27.99972
100
AcDbArc
 50
354.9909249064019
 51
354.9999999996991
  0
ARC
  5
4BEE
330
231
100
AcDbEntity
  8
0
  6
Continuous
 62
     7
100
AcDbCircle
 10
14416.55089004673
 20
-274.2708066388396
 30
0.0
 40
27.99972
100
AcDbArc
 50
184.9999999999965
 51
265.7573900307344
  0
ARC
  5
4BEF
330
231
100
AcDbEntity
  8
0
  6
Continuous
 62
     7
100
AcDbCircle
 10
14367.6058319782
 20
-181.8016922515638
 30
0.0
 40
12.699873
100
AcDbArc
 50
4.999999431700748
 51
88.62840486679594
  0
ARC
  5
4BF0
330
231
100
AcDbEntity
  8
0
  6
Continuous
 62
     7
100
AcDbCircle
 10
14353.69795980198
 20
-181.8016922515638
 30
0.0
 40
12.699873
100
AcDbArc
 50
91.37159513320405
 51
175.0000005681997
  0
SPLINE
  5
4D7F
330
231
100
AcDbEntity
  8
0
  6
Continuous
 62
     7
100
AcDbSpline
210
0.0
220
0.0
230
1.0
 70
     8
 71
     3
 72
    22
 73
    18
 74
     0
 42
0.0000000001
 43
0.0000000001
 40
0.0
 40
0.0
 40
0.0
 40
0.0
 40
0.1250082675
 40
0.1875261944
 40
0.2500411456
 40
0.3125520017
 40
0.3750574062
 40
0.4375560294
 40
0.5000472027000001
 40
0.5625318467
 40
0.6250130404
 40
0.6874952935
 40
0.7499826551000001
 40
0.8124772185999999
 40
0.8749790667
 40
0.9374871248000001
 40
1.0
 40
1.0
 40
1.0
 40
1.0
 10
13890.36210030991
 20
-97.10253930256328
 30
0.0
 10
13889.47379870901
 20
-97.10258865173646
 30
0.0
 10
13888.13975002497
 20
-97.15577994648485
 30
0.0
 10
13886.37478047051
 20
-97.36715243773881
 30
0.0
 10
13885.06284425267
 20
-97.60701702306896
 30
0.0
 10
13883.7712708062
 20
-97.94039249994753
 30
0.0
 10
13882.51171900884
 20
-98.38062596356886
 30
0.0
 10
13881.3002656955
 20
-98.94085282291092
 30
0.0
 10
13880.15762996597
 20
-99.63166933967666
 30
0.0
 10
13879.10796048443
 20
-100.4576705929148
 30
0.0
 10
13878.17520267744
 20
-101.4140800113917
 30
0.0
 10
13877.37770429617
 20
-102.4857815866021
 30
0.0
 10
13876.72384860579
 20
-103.6502720699141
 30
0.0
 10
13876.21141999713
 20
-104.8830017181611
 30
0.0
 10
13875.83042713409
 20
-106.1619766576171
 30
0.0
 10
13875.56698844117
 20
-107.4697513724058
 30
0.0
 10
13875.45988638854
 20
-108.352563630195
 30
0.0
 10
13875.4211706817
 20
-108.7950861832585
 30
0.0
  0
SPLINE
  5
4D80
330
231
100
AcDbEntity
  8
0
  6
Continuous
 62
     7
100
AcDbSpline
210
0.0
220
0.0
230
1.0
 70
     8
 71
     3
 72
    22
 73
    18
 74
     0
 42
0.0000000001
 43
0.0000000001
 40
0.0
 40
0.0
 40
0.0
 40
0.0
 40
0.1250082675
 40
0.1875261944
 40
0.2500411456
 40
0.3125520017
 40
0.3750574062
 40
0.4375560294
 40
0.5000472027000001
 40
0.5625318467
 40
0.6250130404
 40
0.6874952935
 40
0.7499826551000001
 40
0.8124772185999999
 40
0.8749790667
 40
0.9374871248000001
 40
1.0
 40
1.0
 40
1.0
 40
1.0
 10
14700.94299147028
 20
-97.10253930256328
 30
0.0
 10
14701.83129307117
 20
-97.10258865173646
 30
0.0
 10
14703.16534175521
 20
-97.15577994648485
 30
0.0
 10
14704.93031130968
 20
-97.36715243773881
 30
0.0
 10
14706.24224752752
 20
-97.60701702306896
 30
0.0
 10
14707.53382097398
 20
-97.94039249994753
 30
0.0
 10
14708.79337277134
 20
-98.38062596356886
 30
0.0
 10
14710.00482608469
 20
-98.94085282291092
 30
0.0
 10
14711.14746181422
 20
-99.63166933967666
 30
0.0
 10
14712.19713129575
 20
-100.4576705929148
 30
0.0
 10
14713.12988910274
 20
-101.4140800113917
 30
0.0
 10
14713.92738748401
 20
-102.4857815866021
 30
0.0
 10
14714.58124317439
 20
-103.6502720699141
 30
0.0
 10
14715.09367178305
 20
-104.8830017181611
 30
0.0
 10
14715.47466464609
 20
-106.1619766576171
 30
0.0
 10
14715.73810333901
 20
-107.4697513724058
 30
0.0
 10
14715.84520539164
 20
-108.352563630195
 30
0.0
 10
14715.88392109848
 20
-108.7950861832585
 30
0.0
  0
LINE
  5
4D81
330
231
100
AcDbEntity
  8
0
  6
Continuous
 62
     7
100
AcDbLine
 10
14367.60594773671
 20
-169.0983347010763
 30
0.0
 11
14367.90982330993
 21
-169.1054580268423
 31
0.0
  0
LINE
  5
4D82
330
231
100
AcDbEntity
  8
0
  6
Continuous
 62
     7
100
AcDbLine
 10
14353.39396846992
 20
-169.1054580268423
 30
0.0
 11
14353.69787318585
 21
-169.0983340327496
 31
0.0
  0
LINE
  5
4D83
330
231
100
AcDbEntity
  8
0
  6
Continuous
 62
     7
100
AcDbLine
 10
14353.96133462821
 20
-169.0924486392708
 30
0.0
 11
14353.71380986115
 21
-169.0979833132569
 31
0.0
  0
LINE
  5
4D84
330
231
100
AcDbEntity
  8
0
  6
Continuous
 62
     7
100
AcDbLine
 10
14353.71380986115
 20
-169.0979833132569
 30
0.0
 11
14353.69786907456
 21
-169.0983471989513
 31
0.0
  0
LINE
  5
4D85
330
231
100
AcDbEntity
  8
0
  6
Continuous
 62
     7
100
AcDbLine
 10
14353.69786907456
 20
-169.0983471989513
 30
0.0
 11
14353.39396847126
 21
-169.1054580268423
 31
0.0
  0
LINE
  5
4D86
330
231
100
AcDbEntity
  8
0
  6
Continuous
 62
     7
100
AcDbLine
 10
14354.18859453259
 20
-169.0875573491842
 30
0.0
 11
14353.96133461854
 21
-169.0924486392708
 31
0.0
  0
LINE
  5
4D87
330
231
100
AcDbEntity
  8
0
  6
Continuous
 62
     7
100
AcDbLine
 10
14357.87933256184
 20
-169.0326175875873
 30
0.0
 11
14357.77088930528
 21
-169.0335930034997
 31
0.0
  0
LINE
  5
4D88
330
231
100
AcDbEntity
  8
0
  6
Continuous
 62
     7
100
AcDbLine
 10
14358.2005158123
 20
-169.0299502792607
 30
0.0
 11
14357.8793325615
 21
-169.0326175875873
 31
0.0
  0
LINE
  5
4D89
330
231
100
AcDbEntity
  8
0
  6
Continuous
 62
     7
100
AcDbLine
 10
14359.16895224684
 20
-169.023903543062
 30
0.0
 11
14359.04134941055
 21
-169.0245294434696
 31
0.0
  0
LINE
  5
4D8A
330
231
100
AcDbEntity
  8
0
  6
Continuous
 62
     7
100
AcDbLine
 10
14360.67181072411
 20
-169.0204139549582
 30
0.0
 11
14360.61947990809
 21
-169.0204154049437
 31
0.0
  0
LINE
  5
4D8B
330
231
100
AcDbEntity
  8
0
  6
Continuous
 62
     7
100
AcDbLine
 10
14360.67414469677
 20
-169.0204140919568
 30
0.0
 11
14360.67181072411
 21
-169.0204139549582
 31
0.0
  0
LINE
  5
4D8C
330
231
100
AcDbEntity
  8
0
  6
Continuous
 62
     7
100
AcDbLine
 10
14361.49396930811
 20
-169.0215281534828
 30
0.0
 11
14361.39101859263
 21
-169.021271470383
 31
0.0
  0
LINE
  5
4D8D
330
231
100
AcDbEntity
  8
0
  6
Continuous
 62
     7
100
AcDbLine
 10
14362.87850502995
 20
-169.0282509689206
 30
0.0
 11
14362.60996515137
 21
-169.026469681067
 31
0.0
  0
LINE
  5
4D8E
330
231
100
AcDbEntity
  8
0
  6
Continuous
 62
     7
100
AcDbLine
 10
14363.02702324908
 20
-169.0293352437444
 30
0.0
 11
14362.87850503028
 21
-169.0282509689206
 31
0.0
  0
LINE
  5
4D8F
330
231
100
AcDbEntity
  8
0
  6
Continuous
 62
     7
100
AcDbLine
 10
14364.66301160703
 20
-169.0459914208477
 30
0.0
 11
14364.30804713105
 21
-169.0416383813785
 31
0.0
  0
LINE
  5
4D90
330
231
100
AcDbEntity
  8
0
  6
Continuous
 62
     7
100
AcDbLine
 10
14365.5449458846
 20
-169.0586063436972
 30
0.0
 11
14365.42060289671
 21
-169.056671210382
 31
0.0
  0
LINE
  5
4D91
330
231
100
AcDbEntity
  8
0
  6
Continuous
 62
     7
100
AcDbLine
 10
14367.04826346228
 20
-169.0861458266329
 30
0.0
 11
14367.01113600522
 21
-169.0853722157025
 31
0.0
  0
LINE
  5
4D92
330
231
100
AcDbEntity
  8
0
  6
Continuous
 62
     7
100
AcDbLine
 10
14367.60743854514
 20
-169.0983810519461
 30
0.0
 11
14367.60594745638
 21
-169.098346960287
 31
0.0
  0
LINE
  5
4D93
330
231
100
AcDbEntity
  8
0
  6
Continuous
 62
     7
100
AcDbLine
 10
14367.60594745638
 20
-169.098346960287
 30
0.0
 11
14367.58787819307
 21
-169.0979344604121
 31
0.0
  0
LINE
  5
4D94
330
231
100
AcDbEntity
  8
0
  6
Continuous
 62
     7
100
AcDbLine
 10
14367.58787819307
 20
-169.0979344604121
 30
0.0
 11
14367.14339166265
 21
-169.0881499052586
 31
0.0
  0
LINE
  5
4D95
330
231
100
AcDbEntity
  8
0
  6
Continuous
 62
     7
100
AcDbLine
 10
14367.14339166265
 20
-169.0881499052586
 30
0.0
 11
14367.04826350094
 21
-169.0861458276329
 31
0.0
  0
LINE
  5
4D96
330
231
100
AcDbEntity
  8
0
  6
Continuous
 62
     7
100
AcDbLine
 10
14367.60743854347
 20
-169.0983810519461
 30
0.0
 11
14367.90982331026
 21
-169.1054580268423
 31
0.0
  0
SPLINE
  5
4D97
330
231
100
AcDbEntity
  8
0
  6
Continuous
 62
     7
100
AcDbSpline
210
0.0
220
0.0
230
1.0
 70
     8
 71
     3
 72
     9
 73
     5
 74
     0
 42
0.0000000001
 43
0.0000000001
 40
0.0
 40
0.0
 40
0.0
 40
0.0
 40
0.2317763837
 40
1.0
 40
1.0
 40
1.0
 40
1.0
 10
14676.51838955007
 20
-120.8620432214814
 30
0.0
 10
14676.51892916034
 20
-120.8631177477361
 30
0.0
 10
14676.5208734629
 20
-120.8679517913952
 30
0.0
 10
14676.52115947303
 20
-120.8733254669912
 30
0.0
 10
14676.52081212384
 20
-120.8772956882886
 30
0.0
  0
SPLINE
  5
4D98
330
231
100
AcDbEntity
  8
0
  6
Continuous
 62
     7
100
AcDbSpline
210
0.0
220
0.0
230
1.0
 70
     8
 71
     3
 72
     9
 73
     5
 74
     0
 42
0.0000000001
 43
0.0000000001
 40
0.0
 40
0.0
 40
0.0
 40
0.0
 40
0.2754809804
 40
1.0
 40
1.0
 40
1.0
 40
1.0
 10
13914.78427965634
 20
-120.8772956872886
 30
0.0
 10
13914.78415520525
 20
-120.8758732055135
 30
0.0
 10
13914.78395240328
 20
-120.8707023622225
 30
0.0
 10
13914.78501688397
 20
-120.8653992499208
 30
0.0
 10
13914.78670223012
 20
-120.8620432214814
 30
0.0
  0
SPLINE
  5
4D99
330
231
100
AcDbEntity
  8
0
  6
Continuous
 62
     7
100
AcDbSpline
210
0.0
220
0.0
230
1.0
 70
     8
 71
     3
 72
    23
 73
    19
 74
     0
 42
0.0000000001
 43
0.0000000001
 40
0.0
 40
0.0
 40
0.0
 40
0.0
 40
0.0625123173
 40
0.1250236562
 40
0.1875337001
 40
0.2500421729
 40
0.3125488479
 40
0.3750535548
 40
0.4375561852000001
 40
0.5000566958000001
 40
0.56255511
 40
0.6250515169
 40
0.6875460690000001
 40
0.7500389766
 40
0.8125305019999998
 40
0.8750209507999999
 40
0.9375106626
 40
1.0
 40
1.0
 40
1.0
 40
1.0
 10
14636.87696054632
 20
-302.233703723739
 30
0.0
 10
14637.81536503452
 20
-299.7638135602211
 30
0.0
 10
14639.46399579571
 20
-299.5849083386245
 30
0.0
 10
14641.90267613533
 20
-299.09864299266
 30
0.0
 10
14644.2888422171
 20
-298.3982366331269
 30
0.0
 10
14646.60346355399
 20
-297.4892162527549
 30
0.0
 10
14648.82839669843
 20
-296.3787295590663
 30
0.0
 10
14650.94611694135
 20
-295.0755149763424
 30
0.0
 10
14652.93996632232
 20
-293.5898258833819
 30
0.0
 10
14654.79425521825
 20
-291.9333518306214
 30
0.0
 10
14656.4943936957
 20
-290.1191262233922
 30
0.0
 10
14658.0270042401
 20
-288.1614233399501
 30
0.0
 10
14659.3800274334
 20
-286.0756481315775
 30
0.0
 10
14660.54281741272
 20
-283.8782071245406
 30
0.0
 10
14661.50622309423
 20
-281.5864088064197
 30
0.0
 10
14662.26266982936
 20
-279.2182173642376
 30
0.0
 10
14662.80618311117
 20
-276.7925221370991
 30
0.0
 10
14663.02377438657
 20
-275.1491429587219
 30
0.0
 10
14663.09590206396
 20
-274.3247198333689
 30
0.0
  0
SPLINE
  5
4D9A
330
231
100
AcDbEntity
  8
0
  6
Continuous
 62
     7
100
AcDbSpline
210
0.0
220
0.0
230
1.0
 70
     8
 71
     3
 72
    15
 73
    11
 74
     0
 42
0.0000000001
 43
0.0000000001
 40
0.0
 40
0.0
 40
0.0
 40
0.0
 40
0.1250082058
 40
0.2500138718
 40
0.3750168639
 40
0.5000172420000001
 40
0.6250152562000001
 40
0.7500113284000001
 40
0.8750060218999999
 40
1.0
 40
1.0
 40
1.0
 40
1.0
 10
14676.51838955007
 20
-120.8620432214814
 30
0.0
 10
14676.57014046589
 20
-120.2788564134078
 30
0.0
 10
14676.75280822586
 20
-119.117971638705
 30
0.0
 10
14677.25879887924
 20
-117.4307056562002
 30
0.0
 10
14677.98767524773
 20
-115.8267613831367
 30
0.0
 10
14678.92610119971
 20
-114.3358370088629
 30
0.0
 10
14680.05692658335
 20
-112.9850522035127
 30
0.0
 10
14681.35960724541
 20
-111.7990546749399
 30
0.0
 10
14682.80997426059
 20
-110.7996531747215
 30
0.0
 10
14683.85865340303
 20
-110.2695406908993
 30
0.0
 10
14684.39774889269
 20
-110.0413236004264
 30
0.0
  0
SPLINE
  5
4D9B
330
231
100
AcDbEntity
  8
0
  6
Continuous
 62
     7
100
AcDbSpline
210
0.0
220
0.0
230
1.0
 70
     8
 71
     3
 72
    15
 73
    11
 74
     0
 42
0.0000000001
 43
0.0000000001
 40
0.0
 40
0.0
 40
0.0
 40
0.0
 40
0.1250082058
 40
0.2500138718
 40
0.3750168639
 40
0.5000172420000001
 40
0.6250152562000001
 40
0.7500113284000001
 40
0.8750060218999999
 40
1.0
 40
1.0
 40
1.0
 40
1.0
 10
13914.78670223045
 20
-120.8620432214814
 30
0.0
 10
13914.7349513143
 20
-120.2788564134078
 30
0.0
 10
13914.55228355432
 20
-119.117971638705
 30
0.0
 10
13914.04629290095
 20
-117.4307056562002
 30
0.0
 10
13913.31741653245
 20
-115.8267613831367
 30
0.0
 10
13912.37899058047
 20
-114.3358370088629
 30
0.0
 10
13911.24816519684
 20
-112.9850522035127
 30
0.0
 10
13909.94548453478
 20
-111.7990546749399
 30
0.0
 10
13908.49511751959
 20
-110.7996531747215
 30
0.0
 10
13907.44643837715
 20
-110.2695406908993
 30
0.0
 10
13906.9073428875
 20
-110.0413236004264
 30
0.0
  0
LINE
  5
4DA0
330
231
100
AcDbEntity
  8
0
100
AcDbLine
 10
14303.05526612879
 20
-314.1401024683491
 30
0.0
 11
14303.80368608204
 21
-305.5870139599681
 31
0.0
  0
LINE
  5
4DA1
330
231
100
AcDbEntity
  8
0
100
AcDbLine
 10
14286.81583795255
 20
-314.1401024682277
 30
0.0
 11
14286.18971882247
 21
-306.9835280610207
 31
0.0
  0
LINE
  5
4DA2
330
231
100
AcDbEntity
  8
0
100
AcDbLine
 10
13974.30551419804
 20
-314.1401024682277
 30
0.0
 11
13974.96305963119
 21
-306.6243237710996
 31
0.0
  0
LINE
  5
4DA3
330
231
100
AcDbEntity
  8
0
100
AcDbLine
 10
13958.06608602162
 20
-314.1401024682277
 30
0.0
 11
13957.29290169387
 21
-305.3039430317056
 31
0.0
  0
LINE
  5
4DA4
330
231
100
AcDbEntity
  8
0
100
AcDbLine
 10
14632.99423325746
 20
-314.1401024683491
 30
0.0
 11
14633.57987679549
 21
-307.4461661972598
 31
0.0
  0
LINE
  5
4DA5
330
231
100
AcDbEntity
  8
0
100
AcDbLine
 10
14616.75480508109
 20
-314.1401024683491
 30
0.0
 11
14616.24792976069
 21
-308.3874920915733
 31
0.0
  0
LINE
  5
4DA6
330
231
100
AcDbEntity
  8
0
100
AcDbLine
 10
14434.61849720965
 20
-314.1401024683491
 30
0.0
 11
14435.10351031067
 21
-308.5963773553665
 31
0.0
  0
LINE
  5
4DA7
330
231
100
AcDbEntity
  8
0
100
AcDbLine
 10
14418.37906903362
 20
-314.1401024683491
 30
0.0
 11
14417.78702672257
 21
-307.3744051135444
 31
0.0
  0
ENDSEC
  0
SECTION
  2
OBJECTS
  0
DICTIONARY
  5
C
330
0
100
AcDbDictionary
281
     1
  3
ACAD_2007HEADERVARS_RT
350
5B57
  3
ACAD_COLOR
350
1AF0
  3
ACAD_GROUP
350
D
  3
ACAD_LAYOUT
350
1A
  3
ACAD_MATERIAL
350
1AC6
  3
ACAD_MLEADERSTYLE
350
1B13
  3
ACAD_MLINESTYLE
350
17
  3
ACAD_PLOTSETTINGS
350
19
  3
ACAD_PLOTSTYLENAME
350
E
  3
ACAD_SCALELIST
350
1AF1
  3
ACAD_TABLESTYLE
350
1ABF
  3
ACAD_VISUALSTYLE
350
1ADF
  3
ACDB_RECOMPOSE_DATA
350
1B1A
  3
AcDbVariableDictionary
350
1B1B
  3
AcmDictionary
350
1B7E
  3
AcmSystemVariableManager
350
5B69
  3
AMG
350
1B25
  3
AMGSNAPSETTINGS
350
1BBF
  3
DWGPROPS
350
5B56
  0
DICTIONARY
  5
460E
330
10
100
AcDbDictionary
280
     1
281
     1
  3
ADSK_XREC_LAYER_RECONCILED
360
460F
  0
DICTIONARY
  5
4610
330
1FA
100
AcDbDictionary
280
     1
281
     1
  3
ADSK_XREC_LAYER_RECONCILED
360
4611
  0
DICTIONARY
  5
4612
330
1FB
100
AcDbDictionary
280
     1
281
     1
  3
ADSK_XREC_LAYER_RECONCILED
360
4613
  0
DICTIONARY
  5
4614
330
1FC
100
AcDbDictionary
280
     1
281
     1
  3
ADSK_XREC_LAYER_RECONCILED
360
4615
  0
DICTIONARY
  5
4616
330
1FD
100
AcDbDictionary
280
     1
281
     1
  3
ADSK_XREC_LAYER_RECONCILED
360
4617
  0
DICTIONARY
  5
4618
330
1FE
100
AcDbDictionary
280
     1
281
     1
  3
ADSK_XREC_LAYER_RECONCILED
360
4619
  0
DICTIONARY
  5
461A
330
1FF
100
AcDbDictionary
280
     1
281
     1
  3
ADSK_XREC_LAYER_RECONCILED
360
461B
  0
DICTIONARY
  5
461C
330
200
100
AcDbDictionary
280
     1
281
     1
  3
ADSK_XREC_LAYER_RECONCILED
360
461D
  0
DICTIONARY
  5
461E
330
201
100
AcDbDictionary
280
     1
281
     1
  3
ADSK_XREC_LAYER_RECONCILED
360
461F
  0
DICTIONARY
  5
4620
330
202
100
AcDbDictionary
280
     1
281
     1
  3
ADSK_XREC_LAYER_RECONCILED
360
4621
  0
DICTIONARY
  5
4622
330
203
100
AcDbDictionary
280
     1
281
     1
  3
ADSK_XREC_LAYER_RECONCILED
360
4623
  0
DICTIONARY
  5
4624
330
204
100
AcDbDictionary
280
     1
281
     1
  3
ADSK_XREC_LAYER_RECONCILED
360
4625
  0
DICTIONARY
  5
4626
330
205
100
AcDbDictionary
280
     1
281
     1
  3
ADSK_XREC_LAYER_RECONCILED
360
4627
  0
DICTIONARY
  5
4628
330
206
100
AcDbDictionary
280
     1
281
     1
  3
ADSK_XREC_LAYER_RECONCILED
360
4629
  0
DICTIONARY
  5
462A
330
207
100
AcDbDictionary
280
     1
281
     1
  3
ADSK_XREC_LAYER_RECONCILED
360
462B
  0
DICTIONARY
  5
462C
330
208
100
AcDbDictionary
280
     1
281
     1
  3
ADSK_XREC_LAYER_RECONCILED
360
462D
  0
DICTIONARY
  5
462E
330
209
100
AcDbDictionary
280
     1
281
     1
  3
ADSK_XREC_LAYER_RECONCILED
360
462F
  0
DICTIONARY
  5
4630
330
20A
100
AcDbDictionary
280
     1
281
     1
  3
ADSK_XREC_LAYER_RECONCILED
360
4631
  0
DICTIONARY
  5
4632
330
20B
100
AcDbDictionary
280
     1
281
     1
  3
ADSK_XREC_LAYER_RECONCILED
360
4633
  0
DICTIONARY
  5
4634
330
20C
100
AcDbDictionary
280
     1
281
     1
  3
ADSK_XREC_LAYER_RECONCILED
360
4635
  0
DICTIONARY
  5
4636
330
20D
100
AcDbDictionary
280
     1
281
     1
  3
ADSK_XREC_LAYER_RECONCILED
360
4637
  0
DICTIONARY
  5
4638
330
20E
100
AcDbDictionary
280
     1
281
     1
  3
ADSK_XREC_LAYER_RECONCILED
360
4639
  0
DICTIONARY
  5
463A
330
20F
100
AcDbDictionary
280
     1
281
     1
  3
ADSK_XREC_LAYER_RECONCILED
360
463B
  0
DICTIONARY
  5
463C
330
210
100
AcDbDictionary
280
     1
281
     1
  3
ADSK_XREC_LAYER_RECONCILED
360
463D
  0
DICTIONARY
  5
463E
330
211
100
AcDbDictionary
280
     1
281
     1
  3
ADSK_XREC_LAYER_RECONCILED
360
463F
  0
DICTIONARY
  5
4640
330
212
100
AcDbDictionary
280
     1
281
     1
  3
ADSK_XREC_LAYER_RECONCILED
360
4641
  0
DICTIONARY
  5
4642
330
213
100
AcDbDictionary
280
     1
281
     1
  3
ADSK_XREC_LAYER_RECONCILED
360
4643
  0
DICTIONARY
  5
4644
330
214
100
AcDbDictionary
280
     1
281
     1
  3
ADSK_XREC_LAYER_RECONCILED
360
4645
  0
DICTIONARY
  5
4646
330
215
100
AcDbDictionary
280
     1
281
     1
  3
ADSK_XREC_LAYER_RECONCILED
360
4647
  0
DICTIONARY
  5
4648
330
216
100
AcDbDictionary
280
     1
281
     1
  3
ADSK_XREC_LAYER_RECONCILED
360
4649
  0
DICTIONARY
  5
464A
330
217
100
AcDbDictionary
280
     1
281
     1
  3
ADSK_XREC_LAYER_RECONCILED
360
464B
  0
DICTIONARY
  5
464C
330
218
100
AcDbDictionary
280
     1
281
     1
  3
ADSK_XREC_LAYER_RECONCILED
360
464D
  0
DICTIONARY
  5
464E
330
219
100
AcDbDictionary
280
     1
281
     1
  3
ADSK_XREC_LAYER_RECONCILED
360
464F
  0
DICTIONARY
  5
4650
330
21A
100
AcDbDictionary
280
     1
281
     1
  3
ADSK_XREC_LAYER_RECONCILED
360
4651
  0
DICTIONARY
  5
4652
330
21B
100
AcDbDictionary
280
     1
281
     1
  3
ADSK_XREC_LAYER_RECONCILED
360
4653
  0
DICTIONARY
  5
4654
330
21C
100
AcDbDictionary
280
     1
281
     1
  3
ADSK_XREC_LAYER_RECONCILED
360
4655
  0
DICTIONARY
  5
4656
330
21D
100
AcDbDictionary
280
     1
281
     1
  3
ADSK_XREC_LAYER_RECONCILED
360
4657
  0
DICTIONARY
  5
4658
330
21E
100
AcDbDictionary
280
     1
281
     1
  3
ADSK_XREC_LAYER_RECONCILED
360
4659
  0
DICTIONARY
  5
465A
330
21F
100
AcDbDictionary
280
     1
281
     1
  3
ADSK_XREC_LAYER_RECONCILED
360
465B
  0
DICTIONARY
  5
465C
330
220
100
AcDbDictionary
280
     1
281
     1
  3
ADSK_XREC_LAYER_RECONCILED
360
465D
  0
DICTIONARY
  5
467E
330
231
100
AcDbDictionary
280
     1
281
     1
  3
ACAD_SORTENTS
360
467F
  0
DICTIONARY
  5
5B57
102
{ACAD_REACTORS
330
C
102
}
330
C
100
AcDbDictionary
281
     1
  3
DIMARCSYM
350
5B58
  3
DIMLTEX1
350
5B5A
  3
DIMLTEX2
350
5B5B
  3
DIMLTYPE
350
5B59
  0
DICTIONARY
  5
1AF0
102
{ACAD_REACTORS
330
C
102
}
330
C
100
AcDbDictionary
281
     1
  0
DICTIONARY
  5
D
102
{ACAD_REACTORS
330
C
102
}
330
C
100
AcDbDictionary
281
     1
  0
DICTIONARY
  5
1A
102
{ACAD_REACTORS
330
C
102
}
330
C
100
AcDbDictionary
281
     1
  3
Layout1
350
1AC1
  3
Model
350
1AC0
  0
DICTIONARY
  5
1AC6
102
{ACAD_REACTORS
330
C
102
}
330
C
100
AcDbDictionary
281
     1
  3
ByBlock
350
1ACF
  3
ByLayer
350
1AC7
  3
Global
350
1AD7
  0
DICTIONARY
  5
1B13
102
{ACAD_REACTORS
330
C
102
}
330
C
100
AcDbDictionary
281
     1
  3
Standard
350
1B14
  0
DICTIONARY
  5
17
102
{ACAD_REACTORS
330
C
102
}
330
C
100
AcDbDictionary
281
     1
  3
Standard
350
18
  0
DICTIONARY
  5
19
102
{ACAD_REACTORS
330
C
102
}
330
C
100
AcDbDictionary
281
     1
  0
ACDBDICTIONARYWDFLT
  5
E
102
{ACAD_REACTORS
330
C
102
}
330
C
100
AcDbDictionary
281
     1
  3
Normal
350
F
100
AcDbDictionaryWithDefault
340
F
  0
DICTIONARY
  5
1AF1
102
{ACAD_REACTORS
330
C
102
}
330
C
100
AcDbDictionary
281
     1
  3
A0
350
1AF2
  3
A1
350
1AF3
  3
A2
350
1AF4
  3
A3
350
1AF5
  3
A4
350
1AF6
  3
A5
350
1AF7
  3
A6
350
1AF8
  3
A7
350
1AF9
  3
A8
350
1AFA
  3
A9
350
1AFB
  3
B0
350
1AFC
  3
B1
350
1AFD
  3
B2
350
1AFE
  3
B3
350
1AFF
  3
B4
350
1B00
  3
B5
350
1B01
  3
B6
350
1B02
  3
B7
350
1B03
  3
B8
350
1B04
  3
B9
350
1B05
  3
C0
350
1B06
  3
C1
350
1B07
  3
C2
350
1B08
  3
C3
350
1B09
  3
C4
350
1B0A
  3
C5
350
1B0B
  3
C6
350
1B0C
  3
C7
350
1B0D
  3
C8
350
1B0E
  3
C9
350
1B0F
  3
D0
350
1B10
  3
D1
350
1B11
  3
D2
350
1B12
  0
DICTIONARY
  5
1ABF
330
C
100
AcDbDictionary
281
     1
  3
Standard
350
1AC2
  3
Standard1
350
1AC3
  0
DICTIONARY
  5
1ADF
102
{ACAD_REACTORS
330
C
102
}
330
C
100
AcDbDictionary
281
     1
  3
2dWireframe
350
1AE5
  3
3D Hidden
350
1AE7
  3
3dWireframe
350
1AE6
  3
Basic
350
1AE4
  3
Brighten
350
1AEB
  3
ColorChange
350
1AEF
  3
Conceptual
350
1AE8
  3
Dim
350
1AEA
  3
Facepattern
350
1AEE
  3
Flat
350
1AE0
  3
FlatWithEdges
350
1AE1
  3
Gouraud
350
1AE2
  3
GouraudWithEdges
350
1AE3
  3
Linepattern
350
1AED
  3
Realistic
350
1AE9
  3
Thicken
350
1AEC
  0
XRECORD
  5
1B1A
102
{ACAD_REACTORS
330
C
102
}
330
C
100
AcDbXrecord
280
     1
 90
        1
330
1AC2
330
1AC3
  0
DICTIONARY
  5
1B1B
102
{ACAD_REACTORS
330
C
102
}
330
C
100
AcDbDictionary
281
     1
  3
CANNOSCALE
350
1B1E
  3
CMLEADERSTYLE
350
1B1D
  3
CTABLESTYLE
350
1B1C
  3
DIMASSOC
350
5B53
  3
HIDETEXT
350
5B52
  3
INDEXCTL
350
5B51
  3
LAYEREVAL
350
5A42
  3
LAYERNOTIFY
350
5A43
  3
LIGHTINGUNITS
350
5B4F
  3
MSLTSCALE
350
5B4E
  3
SORTENTS
350
5B50
  0
DICTIONARY
  5
1B7E
102
{ACAD_REACTORS
330
C
102
}
330
C
100
AcDbDictionary
281
     1
  3
AcmStdDictionary
350
1B8B
  0
DICTIONARY
  5
1B25
102
{ACAD_REACTORS
330
C
102
}
330
C
100
AcDbDictionary
281
     1
  0
DICTIONARY
  5
1BBF
102
{ACAD_REACTORS
330
C
102
}
330
C
100
AcDbDictionary
281
     1
  0
XRECORD
  5
5B56
102
{ACAD_REACTORS
330
C
102
}
330
C
100
AcDbXrecord
280
     1
  1
DWGPROPS COOKIE
  2

  3

  4

  6

  7

  8
ko73197
  9

300
=
301
=
302
=
303
=
304
=
305
=
306
=
307
=
308
=
309
=
 40
0.074471087962963
 41
2456125.637183033
 42
2456127.446825348
  1

 90
        0
  0
XRECORD
  5
460F
102
{ACAD_REACTORS
330
460E
102
}
330
460E
100
AcDbXrecord
280
     1
290
     1
  0
XRECORD
  5
4611
102
{ACAD_REACTORS
330
4610
102
}
330
4610
100
AcDbXrecord
280
     1
290
     1
  0
XRECORD
  5
4613
102
{ACAD_REACTORS
330
4612
102
}
330
4612
100
AcDbXrecord
280
     1
290
     1
  0
XRECORD
  5
4615
102
{ACAD_REACTORS
330
4614
102
}
330
4614
100
AcDbXrecord
280
     1
290
     1
  0
XRECORD
  5
4617
102
{ACAD_REACTORS
330
4616
102
}
330
4616
100
AcDbXrecord
280
     1
290
     1
  0
XRECORD
  5
4619
102
{ACAD_REACTORS
330
4618
102
}
330
4618
100
AcDbXrecord
280
     1
290
     1
  0
XRECORD
  5
461B
102
{ACAD_REACTORS
330
461A
102
}
330
461A
100
AcDbXrecord
280
     1
290
     1
  0
XRECORD
  5
461D
102
{ACAD_REACTORS
330
461C
102
}
330
461C
100
AcDbXrecord
280
     1
290
     1
  0
XRECORD
  5
461F
102
{ACAD_REACTORS
330
461E
102
}
330
461E
100
AcDbXrecord
280
     1
290
     1
  0
XRECORD
  5
4621
102
{ACAD_REACTORS
330
4620
102
}
330
4620
100
AcDbXrecord
280
     1
290
     1
  0
XRECORD
  5
4623
102
{ACAD_REACTORS
330
4622
102
}
330
4622
100
AcDbXrecord
280
     1
290
     1
  0
XRECORD
  5
4625
102
{ACAD_REACTORS
330
4624
102
}
330
4624
100
AcDbXrecord
280
     1
290
     1
  0
XRECORD
  5
4627
102
{ACAD_REACTORS
330
4626
102
}
330
4626
100
AcDbXrecord
280
     1
290
     1
  0
XRECORD
  5
4629
102
{ACAD_REACTORS
330
4628
102
}
330
4628
100
AcDbXrecord
280
     1
290
     1
  0
XRECORD
  5
462B
102
{ACAD_REACTORS
330
462A
102
}
330
462A
100
AcDbXrecord
280
     1
290
     1
  0
XRECORD
  5
462D
102
{ACAD_REACTORS
330
462C
102
}
330
462C
100
AcDbXrecord
280
     1
290
     1
  0
XRECORD
  5
462F
102
{ACAD_REACTORS
330
462E
102
}
330
462E
100
AcDbXrecord
280
     1
290
     1
  0
XRECORD
  5
4631
102
{ACAD_REACTORS
330
4630
102
}
330
4630
100
AcDbXrecord
280
     1
290
     1
  0
XRECORD
  5
4633
102
{ACAD_REACTORS
330
4632
102
}
330
4632
100
AcDbXrecord
280
     1
290
     1
  0
XRECORD
  5
4635
102
{ACAD_REACTORS
330
4634
102
}
330
4634
100
AcDbXrecord
280
     1
290
     1
  0
XRECORD
  5
4637
102
{ACAD_REACTORS
330
4636
102
}
330
4636
100
AcDbXrecord
280
     1
290
     1
  0
XRECORD
  5
4639
102
{ACAD_REACTORS
330
4638
102
}
330
4638
100
AcDbXrecord
280
     1
290
     1
  0
XRECORD
  5
463B
102
{ACAD_REACTORS
330
463A
102
}
330
463A
100
AcDbXrecord
280
     1
290
     1
  0
XRECORD
  5
463D
102
{ACAD_REACTORS
330
463C
102
}
330
463C
100
AcDbXrecord
280
     1
290
     1
  0
XRECORD
  5
463F
102
{ACAD_REACTORS
330
463E
102
}
330
463E
100
AcDbXrecord
280
     1
290
     1
  0
XRECORD
  5
4641
102
{ACAD_REACTORS
330
4640
102
}
330
4640
100
AcDbXrecord
280
     1
290
     1
  0
XRECORD
  5
4643
102
{ACAD_REACTORS
330
4642
102
}
330
4642
100
AcDbXrecord
280
     1
290
     1
  0
XRECORD
  5
4645
102
{ACAD_REACTORS
330
4644
102
}
330
4644
100
AcDbXrecord
280
     1
290
     1
  0
XRECORD
  5
4647
102
{ACAD_REACTORS
330
4646
102
}
330
4646
100
AcDbXrecord
280
     1
290
     1
  0
XRECORD
  5
4649
102
{ACAD_REACTORS
330
4648
102
}
330
4648
100
AcDbXrecord
280
     1
290
     1
  0
XRECORD
  5
464B
102
{ACAD_REACTORS
330
464A
102
}
330
464A
100
AcDbXrecord
280
     1
290
     1
  0
XRECORD
  5
464D
102
{ACAD_REACTORS
330
464C
102
}
330
464C
100
AcDbXrecord
280
     1
290
     1
  0
XRECORD
  5
464F
102
{ACAD_REACTORS
330
464E
102
}
330
464E
100
AcDbXrecord
280
     1
290
     1
  0
XRECORD
  5
4651
102
{ACAD_REACTORS
330
4650
102
}
330
4650
100
AcDbXrecord
280
     1
290
     1
  0
XRECORD
  5
4653
102
{ACAD_REACTORS
330
4652
102
}
330
4652
100
AcDbXrecord
280
     1
290
     1
  0
XRECORD
  5
4655
102
{ACAD_REACTORS
330
4654
102
}
330
4654
100
AcDbXrecord
280
     1
290
     1
  0
XRECORD
  5
4657
102
{ACAD_REACTORS
330
4656
102
}
330
4656
100
AcDbXrecord
280
     1
290
     1
  0
XRECORD
  5
4659
102
{ACAD_REACTORS
330
4658
102
}
330
4658
100
AcDbXrecord
280
     1
290
     1
  0
XRECORD
  5
465B
102
{ACAD_REACTORS
330
465A
102
}
330
465A
100
AcDbXrecord
280
     1
290
     1
  0
XRECORD
  5
465D
102
{ACAD_REACTORS
330
465C
102
}
330
465C
100
AcDbXrecord
280
     1
290
     1
  0
SORTENTSTABLE
  5
467F
102
{ACAD_REACTORS
330
467E
102
}
330
467E
100
AcDbSortentsTable
330
231
  0
XRECORD
  5
5B58
102
{ACAD_REACTORS
330
5B57
102
}
330
5B57
100
AcDbXrecord
280
     1
 70
     1
  0
XRECORD
  5
5B5A
102
{ACAD_REACTORS
330
5B57
102
}
330
5B57
100
AcDbXrecord
280
     1
340
14
  0
XRECORD
  5
5B5B
102
{ACAD_REACTORS
330
5B57
102
}
330
5B57
100
AcDbXrecord
280
     1
340
14
  0
XRECORD
  5
5B59
102
{ACAD_REACTORS
330
5B57
102
}
330
5B57
100
AcDbXrecord
280
     1
340
14
  0
LAYOUT
  5
1AC1
102
{ACAD_XDICTIONARY
360
5B5E
102
}
102
{ACAD_REACTORS
330
1A
102
}
330
1A
100
AcDbPlotSettings
  1

  2
none_device
  4
ANSI_D_(34.00_x_22.00_Inches)
  6

 40
0.0
 41
0.0
 42
0.0
 43
0.0
 44
863.6000000000001
 45
558.8
 46
0.0
 47
0.0
 48
0.0
 49
0.0
140
0.0
141
0.0
142
1.0
143
1.0
 70
     0
 72
     1
 73
     0
 74
     0
  7

 75
     0
147
1.0
148
0.0
149
0.0
100
AcDbLayout
  1
Layout1
 70
     1
 71
     1
 10
0.0
 20
0.0
 11
12.0
 21
9.0
 12
0.0
 22
0.0
 32
0.0
 14
1.000000000000000E+20
 24
1.000000000000000E+20
 34
1.000000000000000E+20
 15
-1.000000000000000E+20
 25
-1.000000000000000E+20
 35
-1.000000000000000E+20
146
0.0
 13
0.0
 23
0.0
 33
0.0
 16
1.0
 26
0.0
 36
0.0
 17
0.0
 27
1.0
 37
0.0
 76
     0
330
232
  0
LAYOUT
  5
1AC0
102
{ACAD_XDICTIONARY
360
5B5C
102
}
102
{ACAD_REACTORS
330
1A
102
}
330
1A
100
AcDbPlotSettings
  1

  2
none_device
  4
ANSI_D_(34.00_x_22.00_Inches)
  6

 40
0.0
 41
0.0
 42
0.0
 43
0.0
 44
863.6000000000001
 45
558.8
 46
0.0
 47
0.0
 48
0.0
 49
0.0
140
0.0
141
0.0
142
1.0
143
1.0
 70
  1024
 72
     1
 73
     0
 74
     0
  7

 75
     0
147
1.0
148
0.0
149
0.0
100
AcDbLayout
  1
Model
 70
     0
 71
     0
 10
0.0
 20
0.0
 11
863.6000000000001
 21
558.8
 12
0.0
 22
0.0
 32
0.0
 14
0.0
 24
0.0
 34
0.0
 15
0.0
 25
0.0
 35
0.0
146
0.0
 13
0.0
 23
0.0
 33
0.0
 16
1.0
 26
0.0
 36
0.0
 17
0.0
 27
1.0
 37
0.0
 76
     0
330
231
331
1F4
  0
MATERIAL
  5
1ACF
102
{ACAD_XDICTIONARY
360
1AD0
102
}
102
{ACAD_REACTORS
330
1AC6
102
}
330
1AC6
100
AcDbMaterial
  1
ByBlock
 72
     0
 43
0.0008202099737533
 43
0.0
 43
0.0
 43
0.0
 43
0.0
 43
0.0008202099737533
 43
0.0
 43
0.0
 43
0.0
 43
0.0
 43
1.0
 43
0.0
 43
0.0
 43
0.0
 43
0.0
 43
1.0
 77
     0
 47
0.0008202099737533
 47
0.0
 47
0.0
 47
0.0
 47
0.0
 47
0.0008202099737533
 47
0.0
 47
0.0
 47
0.0
 47
0.0
 47
1.0
 47
0.0
 47
0.0
 47
0.0
 47
0.0
 47
1.0
171
     0
 49
0.0008202099737533
 49
0.0
 49
0.0
 49
0.0
 49
0.0
 49
0.0008202099737533
 49
0.0
 49
0.0
 49
0.0
 49
0.0
 49
1.0
 49
0.0
 49
0.0
 49
0.0
 49
0.0
 49
1.0
175
     0
142
0.0008202099737533
142
0.0
142
0.0
142
0.0
142
0.0
142
0.0008202099737533
142
0.0
142
0.0
142
0.0
142
0.0
142
1.0
142
0.0
142
0.0
142
0.0
142
0.0
142
1.0
179
     0
144
0.0008202099737533
144
0.0
144
0.0
144
0.0
144
0.0
144
0.0008202099737533
144
0.0
144
0.0
144
0.0
144
0.0
144
1.0
144
0.0
144
0.0
144
0.0
144
0.0
144
1.0
147
0.0008202099737533
147
0.0
147
0.0
147
0.0
147
0.0
147
0.0008202099737533
147
0.0
147
0.0
147
0.0
147
0.0
147
1.0
147
0.0
147
0.0
147
0.0
147
0.0
147
1.0
  0
MATERIAL
  5
1AC7
102
{ACAD_XDICTIONARY
360
1AC8
102
}
102
{ACAD_REACTORS
330
1AC6
102
}
330
1AC6
100
AcDbMaterial
  1
ByLayer
 72
     0
 43
0.0008202099737533
 43
0.0
 43
0.0
 43
0.0
 43
0.0
 43
0.0008202099737533
 43
0.0
 43
0.0
 43
0.0
 43
0.0
 43
1.0
 43
0.0
 43
0.0
 43
0.0
 43
0.0
 43
1.0
 77
     0
 47
0.0008202099737533
 47
0.0
 47
0.0
 47
0.0
 47
0.0
 47
0.0008202099737533
 47
0.0
 47
0.0
 47
0.0
 47
0.0
 47
1.0
 47
0.0
 47
0.0
 47
0.0
 47
0.0
 47
1.0
171
     0
 49
0.0008202099737533
 49
0.0
 49
0.0
 49
0.0
 49
0.0
 49
0.0008202099737533
 49
0.0
 49
0.0
 49
0.0
 49
0.0
 49
1.0
 49
0.0
 49
0.0
 49
0.0
 49
0.0
 49
1.0
175
     0
142
0.0008202099737533
142
0.0
142
0.0
142
0.0
142
0.0
142
0.0008202099737533
142
0.0
142
0.0
142
0.0
142
0.0
142
1.0
142
0.0
142
0.0
142
0.0
142
0.0
142
1.0
179
     0
144
0.0008202099737533
144
0.0
144
0.0
144
0.0
144
0.0
144
0.0008202099737533
144
0.0
144
0.0
144
0.0
144
0.0
144
1.0
144
0.0
144
0.0
144
0.0
144
0.0
144
1.0
147
0.0008202099737533
147
0.0
147
0.0
147
0.0
147
0.0
147
0.0008202099737533
147
0.0
147
0.0
147
0.0
147
0.0
147
1.0
147
0.0
147
0.0
147
0.0
147
0.0
147
1.0
  0
MATERIAL
  5
1AD7
102
{ACAD_XDICTIONARY
360
1AD8
102
}
102
{ACAD_REACTORS
330
1AC6
102
}
330
1AC6
100
AcDbMaterial
  1
Global
 72
     0
 43
0.0008202099737533
 43
0.0
 43
0.0
 43
0.0
 43
0.0
 43
0.0008202099737533
 43
0.0
 43
0.0
 43
0.0
 43
0.0
 43
1.0
 43
0.0
 43
0.0
 43
0.0
 43
0.0
 43
1.0
 77
     0
 47
0.0008202099737533
 47
0.0
 47
0.0
 47
0.0
 47
0.0
 47
0.0008202099737533
 47
0.0
 47
0.0
 47
0.0
 47
0.0
 47
1.0
 47
0.0
 47
0.0
 47
0.0
 47
0.0
 47
1.0
171
     0
 49
0.0008202099737533
 49
0.0
 49
0.0
 49
0.0
 49
0.0
 49
0.0008202099737533
 49
0.0
 49
0.0
 49
0.0
 49
0.0
 49
1.0
 49
0.0
 49
0.0
 49
0.0
 49
0.0
 49
1.0
175
     0
142
0.0008202099737533
142
0.0
142
0.0
142
0.0
142
0.0
142
0.0008202099737533
142
0.0
142
0.0
142
0.0
142
0.0
142
1.0
142
0.0
142
0.0
142
0.0
142
0.0
142
1.0
179
     0
144
0.0008202099737533
144
0.0
144
0.0
144
0.0
144
0.0
144
0.0008202099737533
144
0.0
144
0.0
144
0.0
144
0.0
144
1.0
144
0.0
144
0.0
144
0.0
144
0.0
144
1.0
147
0.0008202099737533
147
0.0
147
0.0
147
0.0
147
0.0
147
0.0008202099737533
147
0.0
147
0.0
147
0.0
147
0.0
147
1.0
147
0.0
147
0.0
147
0.0
147
0.0
147
1.0
  0
MLEADERSTYLE
  5
1B14
102
{ACAD_REACTORS
330
1B13
102
}
330
1B13
100
AcDbMLeaderStyle
170
     2
171
     1
172
     0
 90
        2
 40
0.0
 41
0.0
173
     1
 91
-1056964608
340
14
 92
       -2
290
     1
 42
2.0
291
     1
 43
0.36
  3
Standard
 44
4.0
300

342
11
174
     1
178
     6
175
     1
176
     0
 93
-1056964608
 45
4.0
292
     0
297
     0
 46
4.0
 94
-1056964608
 47
1.0
 49
1.0
140
1.0
293
     1
141
0.0
294
     1
177
     0
142
1.0
295
     0
296
     0
143
0.125
1001
ACAD_MLEADERVER
1070
     2
  0
MLINESTYLE
  5
18
102
{ACAD_REACTORS
330
17
102
}
330
17
100
AcDbMlineStyle
  2
STANDARD
 70
     0
  3

 62
   256
 51
90.0
 52
90.0
 71
     2
 49
0.5
 62
   256
  6
BYLAYER
 49
-0.5
 62
   256
  6
BYLAYER
  0
ACDBPLACEHOLDER
  5
F
102
{ACAD_REACTORS
330
E
102
}
330
E
  0
SCALE
  5
1AF2
102
{ACAD_REACTORS
330
1AF1
102
}
330
1AF1
100
AcDbScale
 70
     0
300
1:1
140
1.0
141
1.0
290
     1
  0
SCALE
  5
1AF3
102
{ACAD_REACTORS
330
1AF1
102
}
330
1AF1
100
AcDbScale
 70
     0
300
1:2
140
1.0
141
2.0
290
     0
  0
SCALE
  5
1AF4
102
{ACAD_REACTORS
330
1AF1
102
}
330
1AF1
100
AcDbScale
 70
     0
300
1:4
140
1.0
141
4.0
290
     0
  0
SCALE
  5
1AF5
102
{ACAD_REACTORS
330
1AF1
102
}
330
1AF1
100
AcDbScale
 70
     0
300
1:5
140
1.0
141
5.0
290
     0
  0
SCALE
  5
1AF6
102
{ACAD_REACTORS
330
1AF1
102
}
330
1AF1
100
AcDbScale
 70
     0
300
1:8
140
1.0
141
8.0
290
     0
  0
SCALE
  5
1AF7
102
{ACAD_REACTORS
330
1AF1
102
}
330
1AF1
100
AcDbScale
 70
     0
300
1:10
140
1.0
141
10.0
290
     0
  0
SCALE
  5
1AF8
102
{ACAD_REACTORS
330
1AF1
102
}
330
1AF1
100
AcDbScale
 70
     0
300
1:16
140
1.0
141
16.0
290
     0
  0
SCALE
  5
1AF9
102
{ACAD_REACTORS
330
1AF1
102
}
330
1AF1
100
AcDbScale
 70
     0
300
1:20
140
1.0
141
20.0
290
     0
  0
SCALE
  5
1AFA
102
{ACAD_REACTORS
330
1AF1
102
}
330
1AF1
100
AcDbScale
 70
     0
300
1:30
140
1.0
141
30.0
290
     0
  0
SCALE
  5
1AFB
102
{ACAD_REACTORS
330
1AF1
102
}
330
1AF1
100
AcDbScale
 70
     0
300
1:40
140
1.0
141
40.0
290
     0
  0
SCALE
  5
1AFC
102
{ACAD_REACTORS
330
1AF1
102
}
330
1AF1
100
AcDbScale
 70
     0
300
1:50
140
1.0
141
50.0
290
     0
  0
SCALE
  5
1AFD
102
{ACAD_REACTORS
330
1AF1
102
}
330
1AF1
100
AcDbScale
 70
     0
300
1:100
140
1.0
141
100.0
290
     0
  0
SCALE
  5
1AFE
102
{ACAD_REACTORS
330
1AF1
102
}
330
1AF1
100
AcDbScale
 70
     0
300
2:1
140
2.0
141
1.0
290
     0
  0
SCALE
  5
1AFF
102
{ACAD_REACTORS
330
1AF1
102
}
330
1AF1
100
AcDbScale
 70
     0
300
4:1
140
4.0
141
1.0
290
     0
  0
SCALE
  5
1B00
102
{ACAD_REACTORS
330
1AF1
102
}
330
1AF1
100
AcDbScale
 70
     0
300
8:1
140
8.0
141
1.0
290
     0
  0
SCALE
  5
1B01
102
{ACAD_REACTORS
330
1AF1
102
}
330
1AF1
100
AcDbScale
 70
     0
300
10:1
140
10.0
141
1.0
290
     0
  0
SCALE
  5
1B02
102
{ACAD_REACTORS
330
1AF1
102
}
330
1AF1
100
AcDbScale
 70
     0
300
100:1
140
100.0
141
1.0
290
     0
  0
SCALE
  5
1B03
102
{ACAD_REACTORS
330
1AF1
102
}
330
1AF1
100
AcDbScale
 70
     0
300
1/128" = 1'-0"
140
0.0078125
141
12.0
290
     0
  0
SCALE
  5
1B04
102
{ACAD_REACTORS
330
1AF1
102
}
330
1AF1
100
AcDbScale
 70
     0
300
1/64" = 1'-0"
140
0.015625
141
12.0
290
     0
  0
SCALE
  5
1B05
102
{ACAD_REACTORS
330
1AF1
102
}
330
1AF1
100
AcDbScale
 70
     0
300
1/32" = 1'-0"
140
0.03125
141
12.0
290
     0
  0
SCALE
  5
1B06
102
{ACAD_REACTORS
330
1AF1
102
}
330
1AF1
100
AcDbScale
 70
     0
300
1/16" = 1'-0"
140
0.0625
141
12.0
290
     0
  0
SCALE
  5
1B07
102
{ACAD_REACTORS
330
1AF1
102
}
330
1AF1
100
AcDbScale
 70
     0
300
3/32" = 1'-0"
140
0.09375
141
12.0
290
     0
  0
SCALE
  5
1B08
102
{ACAD_REACTORS
330
1AF1
102
}
330
1AF1
100
AcDbScale
 70
     0
300
1/8" = 1'-0"
140
0.125
141
12.0
290
     0
  0
SCALE
  5
1B09
102
{ACAD_REACTORS
330
1AF1
102
}
330
1AF1
100
AcDbScale
 70
     0
300
3/16" = 1'-0"
140
0.1875
141
12.0
290
     0
  0
SCALE
  5
1B0A
102
{ACAD_REACTORS
330
1AF1
102
}
330
1AF1
100
AcDbScale
 70
     0
300
1/4" = 1'-0"
140
0.25
141
12.0
290
     0
  0
SCALE
  5
1B0B
102
{ACAD_REACTORS
330
1AF1
102
}
330
1AF1
100
AcDbScale
 70
     0
300
3/8" = 1'-0"
140
0.375
141
12.0
290
     0
  0
SCALE
  5
1B0C
102
{ACAD_REACTORS
330
1AF1
102
}
330
1AF1
100
AcDbScale
 70
     0
300
1/2" = 1'-0"
140
0.5
141
12.0
290
     0
  0
SCALE
  5
1B0D
102
{ACAD_REACTORS
330
1AF1
102
}
330
1AF1
100
AcDbScale
 70
     0
300
3/4" = 1'-0"
140
0.75
141
12.0
290
     0
  0
SCALE
  5
1B0E
102
{ACAD_REACTORS
330
1AF1
102
}
330
1AF1
100
AcDbScale
 70
     0
300
1" = 1'-0"
140
1.0
141
12.0
290
     0
  0
SCALE
  5
1B0F
102
{ACAD_REACTORS
330
1AF1
102
}
330
1AF1
100
AcDbScale
 70
     0
300
1-1/2" = 1'-0"
140
1.5
141
12.0
290
     0
  0
SCALE
  5
1B10
102
{ACAD_REACTORS
330
1AF1
102
}
330
1AF1
100
AcDbScale
 70
     0
300
3" = 1'-0"
140
3.0
141
12.0
290
     0
  0
SCALE
  5
1B11
102
{ACAD_REACTORS
330
1AF1
102
}
330
1AF1
100
AcDbScale
 70
     0
300
6" = 1'-0"
140
6.0
141
12.0
290
     0
  0
SCALE
  5
1B12
102
{ACAD_REACTORS
330
1AF1
102
}
330
1AF1
100
AcDbScale
 70
     0
300
1'-0" = 1'-0"
140
12.0
141
12.0
290
     0
  0
TABLESTYLE
  5
1AC2
102
{ACAD_XDICTIONARY
360
1B16
102
}
102
{ACAD_REACTORS
330
1ABF
102
}
330
1ABF
100
AcDbTableStyle
  3
Standard
 70
     0
 71
     0
 40
0.06
 41
0.06
280
     1
281
     1
  7
STANDARD
140
0.18
170
     1
 62
     0
 63
     7
283
     0
274
    -2
284
     1
 64
     0
275
    -2
285
     1
 65
     0
276
    -2
286
     1
 66
     0
277
    -2
287
     1
 67
     0
278
    -2
288
     1
 68
     0
279
    -2
289
     1
 69
     0
  7
STANDARD
140
0.18
170
     1
 62
     0
 63
     7
283
     0
274
    -2
284
     1
 64
     0
275
    -2
285
     1
 65
     0
276
    -2
286
     1
 66
     0
277
    -2
287
     1
 67
     0
278
    -2
288
     1
 68
     0
279
    -2
289
     1
 69
     0
  7
STANDARD
140
0.18
170
     1
 62
     0
 63
     7
283
     0
274
    -2
284
     1
 64
     0
275
    -2
285
     1
 65
     0
276
    -2
286
     1
 66
     0
277
    -2
287
     1
 67
     0
278
    -2
288
     1
 68
     0
279
    -2
289
     1
 69
     0
  0
TABLESTYLE
  5
1AC3
102
{ACAD_XDICTIONARY
360
1B18
102
}
102
{ACAD_REACTORS
330
1ABF
102
}
330
1ABF
100
AcDbTableStyle
  3
Standard1
 70
     1
 71
     0
 40
0.06
 41
0.06
280
     1
281
     1
  7
STANDARD
140
0.18
170
     1
 62
     0
 63
     7
283
     0
274
    -2
284
     1
 64
     0
275
    -2
285
     1
 65
     0
276
    -2
286
     1
 66
     0
277
    -2
287
     1
 67
     0
278
    -2
288
     1
 68
     0
279
    -2
289
     1
 69
     0
  7
STANDARD
140
0.18
170
     1
 62
     0
 63
     7
283
     0
274
    -2
284
     1
 64
     0
275
    -2
285
     1
 65
     0
276
    -2
286
     1
 66
     0
277
    -2
287
     1
 67
     0
278
    -2
288
     1
 68
     0
279
    -2
289
     1
 69
     0
  7
STANDARD
140
0.18
170
     1
 62
     0
 63
     7
283
     0
274
    -2
284
     1
 64
     0
275
    -2
285
     1
 65
     0
276
    -2
286
     1
 66
     0
277
    -2
287
     1
 67
     0
278
    -2
288
     1
 68
     0
279
    -2
289
     1
 69
     0
  0
VISUALSTYLE
  5
1AE5
102
{ACAD_REACTORS
330
1ADF
102
}
330
1ADF
100
AcDbVisualStyle
  2
2dWireframe
 70
     4
 71
     0
 72
     2
 73
     0
 90
        0
 40
-0.6
 41
-30.0
 62
     5
 63
     7
 74
     1
 91
        4
 64
     7
 65
   257
 75
     1
175
     1
 42
1.0
 92
        0
 66
   257
 43
1.0
 76
     1
 77
     6
 78
     2
 67
     7
 79
     5
170
     0
171
     0
290
     0
174
     0
 93
        1
 44
0.0
173
     0
291
     0
 45
0.0
1001
ACAD
1000
AcDbSavedByObjectVersion
1070
     0
  0
VISUALSTYLE
  5
1AE7
102
{ACAD_REACTORS
330
1ADF
102
}
330
1ADF
100
AcDbVisualStyle
  2
3D Hidden
 70
     6
 71
     1
 72
     2
 73
     2
 90
        0
 40
-0.6
 41
-30.0
 62
     5
 63
     7
 74
     2
 91
        2
 64
     7
 65
   257
 75
     2
175
     1
 42
40.0
 92
        0
 66
   257
 43
1.0
 76
     1
 77
     6
 78
     2
 67
     7
 79
     3
170
     0
171
     0
290
     0
174
     0
 93
        1
 44
0.0
173
     0
291
     0
 45
0.0
1001
ACAD
1000
AcDbSavedByObjectVersion
1070
     0
  0
VISUALSTYLE
  5
1AE6
102
{ACAD_REACTORS
330
1ADF
102
}
330
1ADF
100
AcDbVisualStyle
  2
3dWireframe
 70
     5
 71
     0
 72
     2
 73
     0
 90
        0
 40
-0.6
 41
-30.0
 62
     5
 63
     7
 74
     1
 91
        4
 64
     7
 65
   257
 75
     1
175
     1
 42
1.0
 92
        0
 66
   257
 43
1.0
 76
     1
 77
     6
 78
     2
 67
     7
 79
     5
170
     0
171
     0
290
     0
174
     0
 93
        1
 44
0.0
173
     0
291
     0
 45
0.0
1001
ACAD
1000
AcDbSavedByObjectVersion
1070
     0
  0
VISUALSTYLE
  5
1AE4
102
{ACAD_REACTORS
330
1ADF
102
}
330
1ADF
100
AcDbVisualStyle
  2
Basic
 70
     7
 71
     1
 72
     0
 73
     1
 90
        0
 40
-0.6
 41
-30.0
 62
     5
 63
     7
 74
     0
 91
        4
 64
     7
 65
   257
 75
     1
175
     1
 42
1.0
 92
        8
 66
     7
 43
1.0
 76
     1
 77
     6
 78
     2
 67
     7
 79
     5
170
     0
171
     0
290
     0
174
     0
 93
        1
 44
0.0
173
     0
291
     1
 45
0.0
1001
ACAD
1000
AcDbSavedByObjectVersion
1070
     0
  0
VISUALSTYLE
  5
1AEB
102
{ACAD_REACTORS
330
1ADF
102
}
330
1ADF
100
AcDbVisualStyle
  2
Brighten
 70
    12
 71
     2
 72
     2
 73
     0
 90
        0
 40
-0.6
 41
-30.0
 62
     5
 63
     7
 74
     1
 91
        4
 64
     7
 65
   257
 75
     1
175
     1
 42
1.0
 92
        8
 66
     7
 43
1.0
 76
     1
 77
     6
 78
     2
 67
     7
 79
     5
170
     0
171
     0
290
     0
174
     0
 93
        1
 44
50.0
173
     0
291
     1
 45
0.0
1001
ACAD
1000
AcDbSavedByObjectVersion
1070
     0
  0
VISUALSTYLE
  5
1AEF
102
{ACAD_REACTORS
330
1ADF
102
}
330
1ADF
100
AcDbVisualStyle
  2
ColorChange
 70
    16
 71
     2
 72
     2
 73
     3
 90
        0
 40
-0.6
 41
-30.0
 62
     5
 63
     8
 74
     1
 91
        4
 64
     7
 65
   257
 75
     1
175
     1
 42
1.0
 92
        8
 66
     8
 43
1.0
 76
     1
 77
     6
 78
     2
 67
     7
 79
     5
170
     0
171
     0
290
     0
174
     0
 93
        1
 44
0.0
173
     0
291
     1
 45
0.0
1001
ACAD
1000
AcDbSavedByObjectVersion
1070
     0
  0
VISUALSTYLE
  5
1AE8
102
{ACAD_REACTORS
330
1ADF
102
}
330
1ADF
100
AcDbVisualStyle
  2
Conceptual
 70
     9
 71
     3
 72
     2
 73
     0
 90
        0
 40
-0.6
 41
-30.0
 62
     5
 63
     7
 74
     2
 91
        2
 64
     7
 65
   257
 75
     1
175
     1
 42
40.0
 92
        8
 66
     7
 43
1.0
 76
     1
 77
     6
 78
     2
 67
     7
 79
     3
170
     0
171
     0
290
     0
174
     0
 93
        1
 44
0.0
173
     0
291
     0
 45
0.0
1001
ACAD
1000
AcDbSavedByObjectVersion
1070
     0
  0
VISUALSTYLE
  5
1AEA
102
{ACAD_REACTORS
330
1ADF
102
}
330
1ADF
100
AcDbVisualStyle
  2
Dim
 70
    11
 71
     2
 72
     2
 73
     0
 90
        0
 40
-0.6
 41
-30.0
 62
     5
 63
     7
 74
     1
 91
        4
 64
     7
 65
   257
 75
     1
175
     1
 42
1.0
 92
        8
 66
     7
 43
1.0
 76
     1
 77
     6
 78
     2
 67
     7
 79
     5
170
     0
171
     0
290
     0
174
     0
 93
        1
 44
-50.0
173
     0
291
     1
 45
0.0
1001
ACAD
1000
AcDbSavedByObjectVersion
1070
     0
  0
VISUALSTYLE
  5
1AEE
102
{ACAD_REACTORS
330
1ADF
102
}
330
1ADF
100
AcDbVisualStyle
  2
Facepattern
 70
    15
 71
     2
 72
     2
 73
     0
 90
        0
 40
-0.6
 41
-30.0
 62
     5
 63
     7
 74
     1
 91
        4
 64
     7
 65
   257
 75
     1
175
     1
 42
1.0
 92
        8
 66
     7
 43
1.0
 76
     1
 77
     6
 78
     2
 67
     7
 79
     5
170
     0
171
     0
290
     0
174
     0
 93
        1
 44
0.0
173
     0
291
     1
 45
0.0
1001
ACAD
1000
AcDbSavedByObjectVersion
1070
     0
  0
VISUALSTYLE
  5
1AE0
102
{ACAD_REACTORS
330
1ADF
102
}
330
1ADF
100
AcDbVisualStyle
  2
Flat
 70
     0
 71
     2
 72
     1
 73
     1
 90
        2
 40
-0.6
 41
30.0
 62
     5
 63
     7
 74
     0
 91
        4
 64
     7
 65
   257
 75
     1
175
     1
 42
1.0
 92
        8
 66
     7
 43
1.0
 76
     1
 77
     6
 78
     2
 67
     7
 79
     5
170
     0
171
     0
290
     0
174
     0
 93
       13
 44
0.0
173
     0
291
     1
 45
0.0
1001
ACAD
1000
AcDbSavedByObjectVersion
1070
     0
  0
VISUALSTYLE
  5
1AE1
102
{ACAD_REACTORS
330
1ADF
102
}
330
1ADF
100
AcDbVisualStyle
  2
FlatWithEdges
 70
     1
 71
     2
 72
     1
 73
     1
 90
        2
 40
-0.6
 41
30.0
 62
     5
 63
     7
 74
     1
 91
        4
 64
     7
 65
   257
 75
     1
175
     1
 42
1.0
 92
        0
 66
   257
 43
1.0
 76
     1
 77
     6
 78
     2
 67
     7
 79
     5
170
     0
171
     0
290
     0
174
     0
 93
       13
 44
0.0
173
     0
291
     1
 45
0.0
1001
ACAD
1000
AcDbSavedByObjectVersion
1070
     0
  0
VISUALSTYLE
  5
1AE2
102
{ACAD_REACTORS
330
1ADF
102
}
330
1ADF
100
AcDbVisualStyle
  2
Gouraud
 70
     2
 71
     2
 72
     2
 73
     1
 90
        2
 40
-0.6
 41
30.0
 62
     5
 63
     7
 74
     0
 91
        4
 64
     7
 65
   257
 75
     1
175
     1
 42
1.0
 92
        0
 66
     7
 43
1.0
 76
     1
 77
     6
 78
     2
 67
     7
 79
     5
170
     0
171
     0
290
     0
174
     0
 93
       13
 44
0.0
173
     0
291
     1
 45
0.0
1001
ACAD
1000
AcDbSavedByObjectVersion
1070
     0
  0
VISUALSTYLE
  5
1AE3
102
{ACAD_REACTORS
330
1ADF
102
}
330
1ADF
100
AcDbVisualStyle
  2
GouraudWithEdges
 70
     3
 71
     2
 72
     2
 73
     1
 90
        2
 40
-0.6
 41
30.0
 62
     5
 63
     7
 74
     1
 91
        4
 64
     7
 65
   257
 75
     1
175
     1
 42
1.0
 92
        0
 66
   257
 43
1.0
 76
     1
 77
     6
 78
     2
 67
     7
 79
     5
170
     0
171
     0
290
     0
174
     0
 93
       13
 44
0.0
173
     0
291
     1
 45
0.0
1001
ACAD
1000
AcDbSavedByObjectVersion
1070
     0
  0
VISUALSTYLE
  5
1AED
102
{ACAD_REACTORS
330
1ADF
102
}
330
1ADF
100
AcDbVisualStyle
  2
Linepattern
 70
    14
 71
     2
 72
     2
 73
     0
 90
        0
 40
-0.6
 41
-30.0
 62
     5
 63
     7
 74
     1
 91
        4
 64
     7
 65
   257
 75
     7
175
     7
 42
1.0
 92
        8
 66
     7
 43
1.0
 76
     1
 77
     6
 78
     2
 67
     7
 79
     5
170
     0
171
     0
290
     0
174
     0
 93
        1
 44
0.0
173
     0
291
     1
 45
0.0
1001
ACAD
1000
AcDbSavedByObjectVersion
1070
     0
  0
VISUALSTYLE
  5
1AE9
102
{ACAD_REACTORS
330
1ADF
102
}
330
1ADF
100
AcDbVisualStyle
  2
Realistic
 70
     8
 71
     2
 72
     2
 73
     0
 90
        0
 40
-0.6
 41
-30.0
 62
     5
 63
     7
 74
     1
 91
        0
 64
     7
 65
   257
 75
     1
175
     1
 42
1.0
 92
        8
 66
     8
 43
1.0
 76
     1
 77
     6
 78
     2
 67
     7
 79
     5
170
     0
171
     0
290
     0
174
     0
 93
       13
 44
0.0
173
     0
291
     0
 45
0.0
1001
ACAD
1000
AcDbSavedByObjectVersion
1070
     0
  0
VISUALSTYLE
  5
1AEC
102
{ACAD_REACTORS
330
1ADF
102
}
330
1ADF
100
AcDbVisualStyle
  2
Thicken
 70
    13
 71
     2
 72
     2
 73
     0
 90
        0
 40
-0.6
 41
-30.0
 62
     5
 63
     7
 74
     1
 91
        4
 64
     7
 65
   257
 75
     1
175
     1
 42
1.0
 92
       12
 66
     7
 43
1.0
 76
     1
 77
     6
 78
     2
 67
     7
 79
     5
170
     0
171
     0
290
     0
174
     0
 93
        1
 44
0.0
173
     0
291
     1
 45
0.0
1001
ACAD
1000
AcDbSavedByObjectVersion
1070
     0
  0
DICTIONARYVAR
  5
1B1E
102
{ACAD_REACTORS
330
1B1B
102
}
330
1B1B
100
DictionaryVariables
280
     0
  1
1:1
  0
DICTIONARYVAR
  5
1B1D
102
{ACAD_REACTORS
330
1B1B
102
}
330
1B1B
100
DictionaryVariables
280
     0
  1
STANDARD
  0
DICTIONARYVAR
  5
1B1C
102
{ACAD_REACTORS
330
1B1B
102
}
330
1B1B
100
DictionaryVariables
280
     0
  1
STANDARD
  0
DICTIONARYVAR
  5
5B53
102
{ACAD_REACTORS
330
1B1B
102
}
330
1B1B
100
DictionaryVariables
280
     0
  1
2
  0
DICTIONARYVAR
  5
5B52
102
{ACAD_REACTORS
330
1B1B
102
}
330
1B1B
100
DictionaryVariables
280
     0
  1
1
  0
DICTIONARYVAR
  5
5B51
102
{ACAD_REACTORS
330
1B1B
102
}
330
1B1B
100
DictionaryVariables
280
     0
  1
0
  0
DICTIONARYVAR
  5
5A42
102
{ACAD_REACTORS
330
1B1B
102
}
330
1B1B
100
DictionaryVariables
280
     0
  1
1
  0
DICTIONARYVAR
  5
5A43
102
{ACAD_REACTORS
330
1B1B
102
}
330
1B1B
100
DictionaryVariables
280
     0
  1
15
  0
DICTIONARYVAR
  5
5B4F
102
{ACAD_REACTORS
330
1B1B
102
}
330
1B1B
100
DictionaryVariables
280
     0
  1
2
  0
DICTIONARYVAR
  5
5B4E
102
{ACAD_REACTORS
330
1B1B
102
}
330
1B1B
100
DictionaryVariables
280
     0
  1
1
  0
DICTIONARYVAR
  5
5B50
102
{ACAD_REACTORS
330
1B1B
102
}
330
1B1B
100
DictionaryVariables
280
     0
  1
127
  0
DICTIONARY
  5
1B8B
102
{ACAD_REACTORS
330
1B7E
102
}
330
1B7E
100
AcDbDictionary
281
     1
  0
DICTIONARY
  5
5B5E
330
1AC1
100
AcDbDictionary
280
     1
281
     1
  3
ACAD_XREC_ROUNDTRIP
360
5B5F
  0
DICTIONARY
  5
5B5C
330
1AC0
100
AcDbDictionary
280
     1
281
     1
  3
ACAD_XREC_ROUNDTRIP
360
5B5D
  0
DICTIONARY
  5
1AD0
330
1ACF
100
AcDbDictionary
280
     1
281
     1
  3
ACAD_XREC_ROUNDTRIP
360
5B63
  3
BUMPTILE
360
1AD2
  3
DIFFUSETILE
360
1AD1
  3
OPACITYTILE
360
1AD5
  3
REFLECTIONTILE
360
1AD4
  3
REFRACTIONTILE
360
1AD6
  3
SPECULARTILE
360
1AD3
  0
DICTIONARY
  5
1AC8
330
1AC7
100
AcDbDictionary
280
     1
281
     1
  3
ACAD_XREC_ROUNDTRIP
360
5B62
  3
BUMPTILE
360
1ACA
  3
DIFFUSETILE
360
1AC9
  3
OPACITYTILE
360
1ACD
  3
REFLECTIONTILE
360
1ACC
  3
REFRACTIONTILE
360
1ACE
  3
SPECULARTILE
360
1ACB
  0
DICTIONARY
  5
1AD8
330
1AD7
100
AcDbDictionary
280
     1
281
     1
  3
ACAD_XREC_ROUNDTRIP
360
5B64
  3
BUMPTILE
360
1ADA
  3
DIFFUSETILE
360
1AD9
  3
OPACITYTILE
360
1ADD
  3
REFLECTIONTILE
360
1ADC
  3
REFRACTIONTILE
360
1ADE
  3
SPECULARTILE
360
1ADB
  0
DICTIONARY
  5
1B16
330
1AC2
100
AcDbDictionary
280
     1
281
     1
  3
ACAD_ROUNDTRIP_2008_TABLESTYLE_CELLSTYLEMAP
360
5B54
  3
ACAD_XREC_ROUNDTRIP
360
5B60
  0
DICTIONARY
  5
1B18
330
1AC3
100
AcDbDictionary
280
     1
281
     1
  3
ACAD_ROUNDTRIP_2008_TABLESTYLE_CELLSTYLEMAP
360
5B55
  3
ACAD_XREC_ROUNDTRIP
360
5B61
  0
XRECORD
  5
5B5F
102
{ACAD_REACTORS
330
5B5E
102
}
330
5B5E
100
AcDbXrecord
280
     1
102
SHADEPLOT
 70
     0
102
SHADEPLOTRESLEVEL
 70
     2
102
SHADEPLOTCUSTOMDPI
 70
   300
  0
XRECORD
  5
5B5D
102
{ACAD_REACTORS
330
5B5C
102
}
330
5B5C
100
AcDbXrecord
280
     1
102
SHADEPLOT
 70
     0
102
SHADEPLOTRESLEVEL
 70
     2
102
SHADEPLOTCUSTOMDPI
 70
   300
  0
XRECORD
  5
5B63
102
{ACAD_REACTORS
330
1AD0
102
}
330
1AD0
100
AcDbXrecord
280
     1
102
MATERIAL
148
0.0
149
0.0
149
0.0
 93
        0
 94
      127
282
     0
 72
     0
 77
     0
171
     0
175
     0
179
     0
273
     0
  0
XRECORD
  5
1AD2
102
{ACAD_REACTORS
330
1AD0
102
}
330
1AD0
100
AcDbXrecord
280
     1
270
     1
271
     1
  0
XRECORD
  5
1AD1
102
{ACAD_REACTORS
330
1AD0
102
}
330
1AD0
100
AcDbXrecord
280
     1
270
     1
271
     1
  0
XRECORD
  5
1AD5
102
{ACAD_REACTORS
330
1AD0
102
}
330
1AD0
100
AcDbXrecord
280
     1
270
     1
271
     1
  0
XRECORD
  5
1AD4
102
{ACAD_REACTORS
330
1AD0
102
}
330
1AD0
100
AcDbXrecord
280
     1
270
     1
271
     1
  0
XRECORD
  5
1AD6
102
{ACAD_REACTORS
330
1AD0
102
}
330
1AD0
100
AcDbXrecord
280
     1
270
     1
271
     1
  0
XRECORD
  5
1AD3
102
{ACAD_REACTORS
330
1AD0
102
}
330
1AD0
100
AcDbXrecord
280
     1
270
     1
271
     1
  0
XRECORD
  5
5B62
102
{ACAD_REACTORS
330
1AC8
102
}
330
1AC8
100
AcDbXrecord
280
     1
102
MATERIAL
148
0.0
149
0.0
149
0.0
 93
        0
 94
      127
282
     0
 72
     0
 77
     0
171
     0
175
     0
179
     0
273
     0
  0
XRECORD
  5
1ACA
102
{ACAD_REACTORS
330
1AC8
102
}
330
1AC8
100
AcDbXrecord
280
     1
270
     1
271
     1
  0
XRECORD
  5
1AC9
102
{ACAD_REACTORS
330
1AC8
102
}
330
1AC8
100
AcDbXrecord
280
     1
270
     1
271
     1
  0
XRECORD
  5
1ACD
102
{ACAD_REACTORS
330
1AC8
102
}
330
1AC8
100
AcDbXrecord
280
     1
270
     1
271
     1
  0
XRECORD
  5
1ACC
102
{ACAD_REACTORS
330
1AC8
102
}
330
1AC8
100
AcDbXrecord
280
     1
270
     1
271
     1
  0
XRECORD
  5
1ACE
102
{ACAD_REACTORS
330
1AC8
102
}
330
1AC8
100
AcDbXrecord
280
     1
270
     1
271
     1
  0
XRECORD
  5
1ACB
102
{ACAD_REACTORS
330
1AC8
102
}
330
1AC8
100
AcDbXrecord
280
     1
270
     1
271
     1
  0
XRECORD
  5
5B64
102
{ACAD_REACTORS
330
1AD8
102
}
330
1AD8
100
AcDbXrecord
280
     1
102
MATERIAL
148
0.0
149
0.0
149
0.0
 93
        0
 94
      127
282
     0
 72
     0
 77
     0
171
     0
175
     0
179
     0
273
     0
  0
XRECORD
  5
1ADA
102
{ACAD_REACTORS
330
1AD8
102
}
330
1AD8
100
AcDbXrecord
280
     1
270
     1
271
     1
  0
XRECORD
  5
1AD9
102
{ACAD_REACTORS
330
1AD8
102
}
330
1AD8
100
AcDbXrecord
280
     1
270
     1
271
     1
  0
XRECORD
  5
1ADD
102
{ACAD_REACTORS
330
1AD8
102
}
330
1AD8
100
AcDbXrecord
280
     1
270
     1
271
     1
  0
XRECORD
  5
1ADC
102
{ACAD_REACTORS
330
1AD8
102
}
330
1AD8
100
AcDbXrecord
280
     1
270
     1
271
     1
  0
XRECORD
  5
1ADE
102
{ACAD_REACTORS
330
1AD8
102
}
330
1AD8
100
AcDbXrecord
280
     1
270
     1
271
     1
  0
XRECORD
  5
1ADB
102
{ACAD_REACTORS
330
1AD8
102
}
330
1AD8
100
AcDbXrecord
280
     1
270
     1
271
     1
  0
CELLSTYLEMAP
  5
5B54
102
{ACAD_REACTORS
330
1B16
102
}
330
1B16
100
AcDbCellStyleMap
 90
        3
300
CELLSTYLE
  1
TABLEFORMAT_BEGIN
 90
        5
170
     1
 91
        0
 92
    32768
 62
   257
 93
        1
300
CONTENTFORMAT
  1
CONTENTFORMAT_BEGIN
 90
        0
 91
        0
 92
      512
 93
        0
300

 40
0.0
140
1.0
 94
        1
 62
     0
340
11
144
0.18
309
CONTENTFORMAT_END
171
     0
 94
        0
309
TABLEFORMAT_END
  1
CELLSTYLE_BEGIN
 90
        1
 91
        1
300
_TITLE
309
CELLSTYLE_END
300
CELLSTYLE
  1
TABLEFORMAT_BEGIN
 90
        5
170
     1
 91
        0
 92
        0
 62
   257
 93
        1
300
CONTENTFORMAT
  1
CONTENTFORMAT_BEGIN
 90
        0
 91
        0
 92
      512
 93
        0
300

 40
0.0
140
1.0
 94
        1
 62
     0
340
11
144
0.18
309
CONTENTFORMAT_END
171
     0
 94
        0
309
TABLEFORMAT_END
  1
CELLSTYLE_BEGIN
 90
        2
 91
        1
300
_HEADER
309
CELLSTYLE_END
300
CELLSTYLE
  1
TABLEFORMAT_BEGIN
 90
        5
170
     1
 91
        0
 92
        0
 62
   257
 93
        1
300
CONTENTFORMAT
  1
CONTENTFORMAT_BEGIN
 90
        0
 91
        0
 92
      512
 93
        0
300

 40
0.0
140
1.0
 94
        1
 62
     0
340
11
144
0.18
309
CONTENTFORMAT_END
171
     0
 94
        0
309
TABLEFORMAT_END
  1
CELLSTYLE_BEGIN
 90
        3
 91
        2
300
_DATA
309
CELLSTYLE_END
  0
XRECORD
  5
5B60
102
{ACAD_REACTORS
330
1B16
102
}
330
1B16
100
AcDbXrecord
280
     1
102
ACAD_ROUNDTRIP_PRE2007_TABLESTYLE
 90
      512
 91
        0
  1

 92
      512
 93
        0
  2

 94
      512
 95
        0
  3

  0
CELLSTYLEMAP
  5
5B55
102
{ACAD_REACTORS
330
1B18
102
}
330
1B18
100
AcDbCellStyleMap
 90
        3
300
CELLSTYLE
  1
TABLEFORMAT_BEGIN
 90
        5
170
     1
 91
        0
 92
    32768
 62
   257
 93
        1
300
CONTENTFORMAT
  1
CONTENTFORMAT_BEGIN
 90
        0
 91
        0
 92
      512
 93
        0
300

 40
0.0
140
1.0
 94
        1
 62
     0
340
11
144
0.18
309
CONTENTFORMAT_END
171
     0
 94
        0
309
TABLEFORMAT_END
  1
CELLSTYLE_BEGIN
 90
        1
 91
        1
300
_TITLE
309
CELLSTYLE_END
300
CELLSTYLE
  1
TABLEFORMAT_BEGIN
 90
        5
170
     1
 91
        0
 92
        0
 62
   257
 93
        1
300
CONTENTFORMAT
  1
CONTENTFORMAT_BEGIN
 90
        0
 91
        0
 92
      512
 93
        0
300

 40
0.0
140
1.0
 94
        1
 62
     0
340
11
144
0.18
309
CONTENTFORMAT_END
171
     0
 94
        0
309
TABLEFORMAT_END
  1
CELLSTYLE_BEGIN
 90
        2
 91
        1
300
_HEADER
309
CELLSTYLE_END
300
CELLSTYLE
  1
TABLEFORMAT_BEGIN
 90
        5
170
     1
 91
        0
 92
        0
 62
   257
 93
        1
300
CONTENTFORMAT
  1
CONTENTFORMAT_BEGIN
 90
        0
 91
        0
 92
      512
 93
        0
300

 40
0.0
140
1.0
 94
        1
 62
     0
340
11
144
0.18
309
CONTENTFORMAT_END
171
     0
 94
        0
309
TABLEFORMAT_END
  1
CELLSTYLE_BEGIN
 90
        3
 91
        2
300
_DATA
309
CELLSTYLE_END
  0
XRECORD
  5
5B61
102
{ACAD_REACTORS
330
1B18
102
}
330
1B18
100
AcDbXrecord
280
     1
102
ACAD_ROUNDTRIP_PRE2007_TABLESTYLE
 90
      512
 91
        0
  1

 92
      512
 93
        0
  2

 94
      512
 95
        0
  3

  0
ENDSEC
  0
EOF
