  0
SECTION
  2
HEADER
  9
$ACADVER
  1
AC1009
  9
$INSBASE
 10
0.0
 20
0.0
 30
0.0
  9
$EXTMIN
 10
-110.0583965548994
 20
34.515723997489211
 30
-0.0000000000112498
  9
$EXTMAX
 10
640.00434745355074
 20
247.5531076281718
 30
0.0000000000002956
  9
$LIMMIN
 10
0.0
 20
0.0
  9
$LIMMAX
 10
863.60000000000014
 20
558.79999999999995
  9
$ORTHOMODE
 70
     0
  9
$REGENMODE
 70
     1
  9
$FILLMODE
 70
     1
  9
$QTEXTMODE
 70
     0
  9
$MIRRTEXT
 70
     1
  9
$DRAGMODE
 70
     2
  9
$LTSCALE
 40
47.49799999999999
  9
$OSMODE
 70
    39
  9
$ATTMODE
 70
     1
  9
$TEXTSIZE
 40
0.2
  9
$TRACEWID
 40
0.05
  9
$TEXTSTYLE
  7
STANDARD
  9
$CLAYER
  8
0
  9
$CELTYPE
  6
BYLAYER
  9
$CECOLOR
 62
   256
  9
$DIMSCALE
 40
1.0
  9
$DIMASZ
 40
6.0
  9
$DIMEXO
 40
5.3974999999999991
  9
$DIMDLI
 40
32.816800000000001
  9
$DIMRND
 40
0.0
  9
$DIMDLE
 40
0.0
  9
$DIMEXE
 40
15.5448
  9
$DIMTP
 40
0.0
  9
$DIMTM
 40
0.0
  9
$DIMTXT
 40
7.0
  9
$DIMCEN
 40
7.7724000000000002
  9
$DIMTSZ
 40
0.0
  9
$DIMTOL
 70
     0
  9
$DIMLIM
 70
     0
  9
$DIMTIH
 70
     1
  9
$DIMTOH
 70
     1
  9
$DIMSE1
 70
     0
  9
$DIMSE2
 70
     0
  9
$DIMTAD
 70
     0
  9
$DIMZIN
 70
     0
  9
$DIMBLK
  1

  9
$DIMASO
 70
     1
  9
$DIMSHO
 70
     1
  9
$DIMPOST
  1

  9
$DIMAPOST
  1

  9
$DIMALT
 70
     0
  9
$DIMALTD
 70
     2
  9
$DIMALTF
 40
25.399999999999999
  9
$DIMLFAC
 40
1.0
  9
$DIMTOFL
 70
     0
  9
$DIMTVP
 40
0.0
  9
$DIMTIX
 70
     0
  9
$DIMSOXD
 70
     0
  9
$DIMSAH
 70
     0
  9
$DIMBLK1
  1

  9
$DIMBLK2
  1

  9
$DIMSTYLE
  2
STANDARD
  9
$DIMCLRD
 70
     0
  9
$DIMCLRE
 70
     0
  9
$DIMCLRT
 70
     0
  9
$DIMTFAC
 40
1.0
  9
$DIMGAP
 40
0.09
  9
$LUNITS
 70
     2
  9
$LUPREC
 70
     4
  9
$SKETCHINC
 40
0.1
  9
$FILLETRAD
 40
2.0
  9
$AUNITS
 70
     0
  9
$AUPREC
 70
     0
  9
$MENU
  1
acad
  9
$ELEVATION
 40
0.0
  9
$PELEVATION
 40
0.0
  9
$THICKNESS
 40
0.0
  9
$LIMCHECK
 70
     0
  9
$BLIPMODE
 70
     0
  9
$CHAMFERA
 40
0.0
  9
$CHAMFERB
 40
0.0
  9
$SKPOLY
 70
     0
  9
$TDCREATE
 40
2454355.4431596301
  9
$TDUPDATE
 40
2454455.5848252201
  9
$TDINDWG
 40
0.0063611458
  9
$TDUSRTIMER
 40
0.0063611458
  9
$USRTIMER
 70
     1
  9
$ANGBASE
 50
0.0
  9
$ANGDIR
 70
     0
  9
$PDMODE
 70
     3
  9
$PDSIZE
 40
0.5
  9
$PLINEWID
 40
0.0
  9
$COORDS
 70
     1
  9
$SPLFRAME
 70
     0
  9
$SPLINETYPE
 70
     6
  9
$SPLINESEGS
 70
     8
  9
$ATTDIA
 70
     0
  9
$ATTREQ
 70
     1
  9
$HANDLING
 70
     1
  9
$HANDSEED
  5
123A
  9
$SURFTAB1
 70
     6
  9
$SURFTAB2
 70
     6
  9
$SURFTYPE
 70
     6
  9
$SURFU
 70
     6
  9
$SURFV
 70
     6
  9
$UCSNAME
  2

  9
$UCSORG
 10
0.0
 20
0.0
 30
0.0
  9
$UCSXDIR
 10
1.0
 20
0.0
 30
0.0
  9
$UCSYDIR
 10
0.0
 20
1.0
 30
0.0
  9
$PUCSNAME
  2

  9
$PUCSORG
 10
0.0
 20
0.0
 30
0.0
  9
$PUCSXDIR
 10
1.0
 20
0.0
 30
0.0
  9
$PUCSYDIR
 10
0.0
 20
1.0
 30
0.0
  9
$USERI1
 70
     0
  9
$USERI2
 70
     0
  9
$USERI3
 70
     0
  9
$USERI4
 70
     0
  9
$USERI5
 70
     0
  9
$USERR1
 40
0.0
  9
$USERR2
 40
0.0
  9
$USERR3
 40
0.0
  9
$USERR4
 40
0.0
  9
$USERR5
 40
0.0
  9
$WORLDVIEW
 70
     1
  9
$SHADEDGE
 70
     3
  9
$SHADEDIF
 70
    70
  9
$TILEMODE
 70
     1
  9
$MAXACTVP
 70
    16
  9
$PLIMCHECK
 70
     0
  9
$PEXTMIN
 10
1.0000000000000000E+020
 20
1.0000000000000000E+020
 30
1.0000000000000000E+020
  9
$PEXTMAX
 10
-1.0000000000000000E+020
 20
-1.0000000000000000E+020
 30
-1.0000000000000000E+020
  9
$PLIMMIN
 10
0.0
 20
0.0
  9
$PLIMMAX
 10
12.0
 20
9.0
  9
$UNITMODE
 70
     0
  9
$VISRETAIN
 70
     0
  9
$PLINEGEN
 70
     1
  9
$PSLTSCALE
 70
     0
  0
ENDSEC
  0
SECTION
  2
TABLES
  0
TABLE
  2
VPORT
 70
     1
  0
VPORT
  2
*ACTIVE
 70
     0
 10
0.0
 20
0.0
 11
1.0
 21
1.0
 12
264.9729754493257
 22
141.0344158128305
 13
0.0
 23
0.0
 14
1.0
 24
1.0
 15
0.0
 25
0.0
 16
0.0
 26
0.0
 36
1.0
 17
0.0
 27
0.0
 37
0.0
 40
494.39424333648219
 41
1.5250965250965249
 42
50.0
 43
0.0
 44
0.0
 50
0.0
 51
0.0
 71
     0
 72
   100
 73
     1
 74
     1
 75
     0
 76
     0
 77
     0
 78
     0
  0
ENDTAB
  0
TABLE
  2
LTYPE
 70
    18
  0
LTYPE
  2
CONTINUOUS
 70
     0
  3
Solid line
 72
    65
 73
     0
 40
0.0
  0
LTYPE
  2
CENTER
 70
     0
  3
____ _ ____ _ ____ _ ____ _ ____ _ ____ _ ____
 72
    65
 73
     4
 40
0.6
 49
0.375
 49
-0.075
 49
0.075
 49
-0.075
  0
LTYPE
  2
HIDDEN
 70
     0
  3
- - - - - - - - - - - - - - - - - - - -
 72
    65
 73
     2
 40
0.2
 49
0.1
 49
-0.1
  0
LTYPE
  2
PHANTOM
 70
     0
  3
_____ _ _ _____ _ _ _____ _ _ _____
 72
    65
 73
     6
 40
0.8
 49
0.45
 49
-0.05
 49
0.1
 49
-0.05
 49
0.1
 49
-0.05
  0
LTYPE
  2
DOT
 70
     0
  3
. . . . . . . . . . . . . . . . . . . .
 72
    65
 73
     2
 40
0.2
 49
0.1
 49
-0.1
  0
LTYPE
  2
DASHED
 70
     0
  3
- - - - - - - - - - - - - - - - - - - -
 72
    65
 73
     2
 40
0.2
 49
0.1
 49
-0.1
  0
LTYPE
  2
PHANTOM2
 70
     0
  3
Phantom (.5x) ___ _ _ ___ _ _ ___ _ _ ___ _ _
 72
    65
 73
     6
 40
31.75
 49
15.875
 49
-3.1749999999999989
 49
3.1749999999999989
 49
-3.1749999999999989
 49
3.1749999999999989
 49
-3.1749999999999989
  0
LTYPE
  2
AM_ISO02W050
 70
     0
  3
__ __ __ __ __ __ __ __ __ __ __ __ __ __ __
 72
    65
 73
     2
 40
7.5
 49
6.0
 49
-1.5
  0
LTYPE
  2
AM_ISO08W050
 70
     0
  3
____ . ____ . ____ . ____ . ____ . ____ . ____
 72
    65
 73
     4
 40
18.0
 49
12.0
 49
-1.5
 49
3.0
 49
-1.5
  0
LTYPE
  2
AM_ISO09W050
 70
     0
  3
_____ . . _____ . . _____ . . ____ .. ____
 72
    65
 73
     6
 40
22.5
 49
12.0
 49
-1.5
 49
3.0
 49
-1.5
 49
3.0
 49
-1.5
  0
LTYPE
  2
AMCONSTR
 70
     0
  3
_______________________
 72
    65
 73
     2
 40
9999.0
 49
9999.0
 49
0.0
  0
LTYPE
  2
AM_ISO08W050X2
 70
     0
  3
__ . __ . __ . __ . __ . __
 72
    65
 73
     4
 40
9.0
 49
6.0
 49
-0.75
 49
1.5
 49
-0.75
  0
LTYPE
  2
AM_ISO02W050X2
 70
     0
  3
 _ _ _ _ _ _ _ _ _ _ _ _
 72
    65
 73
     2
 40
3.75
 49
3.0
 49
-0.75
  0
LTYPE
  2
AMZIGZAG
 70
     0
  3
/\/-/\/-/\/-/\/-/\/-/\/
 72
    65
 73
     2
 40
11.0001
 49
0.0001
 49
-11.0
  0
LTYPE
  2
ACISOWELD
 70
     0
  3
_ _ _ _ _
 72
    65
 73
     2
 40
2.0
 49
2.0
 49
-1.0
  0
LTYPE
  2
ACISOTGB
 70
     0
  3
__ . . __ . .
 72
    65
 73
     6
 40
9.0
 49
4.0
 49
-1.0
 49
1.0
 49
-1.0
 49
1.0
 49
-1.0
  0
LTYPE
  2
ACISOTGL
 70
     0
  3
_ _ _ _ _
 72
    65
 73
     2
 40
3.0
 49
2.0
 49
-1.0
  0
ENDTAB
  0
TABLE
  2
LAYER
 70
    21
  0
LAYER
  2
0
 70
     0
 62
     7
  6
CONTINUOUS
  0
LAYER
  2
DEFAULT_1
 70
     0
 62
     7
  6
CENTER
  0
LAYER
  2
DEFAULT_2
 70
     0
 62
     8
  6
HIDDEN
  0
LAYER
  2
DEFAULT_3
 70
     0
 62
     7
  6
PHANTOM
  0
LAYER
  2
_2D_DELETED_OBJS
 70
     0
 62
     7
  6
CONTINUOUS
  0
LAYER
  2
_BLACK_HOLE
 70
     0
 62
     7
  6
CONTINUOUS
  0
LAYER
  2
COSM_SKETCH
 70
     0
 62
     7
  6
CONTINUOUS
  0
LAYER
  2
DATUMS
 70
     0
 62
     7
  6
CONTINUOUS
  0
LAYER
  2
DATUM_AXIS
 70
     0
 62
     7
  6
CONTINUOUS
  0
LAYER
  2
DATUM_CSYS
 70
     0
 62
     7
  6
CONTINUOUS
  0
LAYER
  2
DATUM_PLANE
 70
     0
 62
     7
  6
CONTINUOUS
  0
LAYER
  2
DATUM_PLN
 70
     0
 62
     7
  6
CONTINUOUS
  0
LAYER
  2
DATUM_POINT
 70
     0
 62
     7
  6
CONTINUOUS
  0
LAYER
  2
GEO_TOL_DATUMS
 70
     0
 62
     7
  6
CONTINUOUS
  0
LAYER
  2
_CURVE
 70
     0
 62
     7
  6
CONTINUOUS
  0
LAYER
  2
_SURFACE
 70
     0
 62
     7
  6
CONTINUOUS
  0
LAYER
  2
__REF_CURVE
 70
     0
 62
     7
  6
CONTINUOUS
  0
LAYER
  2
__REF_SURFACE
 70
     0
 62
     7
  6
CONTINUOUS
  0
LAYER
  2
___COSMETIC_SKETCH
 70
     0
 62
     7
  6
CONTINUOUS
  0
LAYER
  2
___NOTE
 70
     0
 62
     7
  6
CONTINUOUS
  0
LAYER
  2
___SYMBOL
 70
     0
 62
     7
  6
CONTINUOUS
  0
ENDTAB
  0
TABLE
  2
STYLE
 70
     7
  0
STYLE
  2
STANDARD
 70
     0
 40
0.0
 41
0.75
 50
0.0
 71
     0
 42
0.2
  3
txt
  4

  0
STYLE
  2
TEXTSTYLE_1
 70
     0
 40
0.0
 41
0.925
 50
0.0
 71
     0
 42
0.2
  3
txt
  4

  0
STYLE
  2
TEXTSTYLE_2
 70
     0
 40
0.0
 41
1.2299999999999991
 50
0.0
 71
     0
 42
0.2
  3
txt
  4

  0
STYLE
  2
TEXTSTYLE_3
 70
     0
 40
0.0
 41
0.8
 50
0.0
 71
     0
 42
0.2
  3
txt
  4

  0
STYLE
  2

 70
     1
 40
0.0
 41
1.0
 50
0.0
 71
     0
 42
0.2
  3
genltshp.shx
  4

  0
STYLE
  2
ACISOTS
 70
     0
 40
1.0
 41
1.0
 50
0.0
 71
     0
 42
0.2
  3
isocp.shx
  4

  0
STYLE
  2
ACISOGDT
 70
     0
 40
0.0
 41
1.0
 50
0.0
 71
     0
 42
0.2
  3
AMGDT
  4

  0
ENDTAB
  0
TABLE
  2
VIEW
 70
     0
  0
ENDTAB
  0
TABLE
  2
UCS
 70
     0
  0
ENDTAB
  0
TABLE
  2
APPID
 70
    12
  0
APPID
  2
ACAD
 70
     0
  0
APPID
  2
DCO15
 70
     0
  0
APPID
  2
MCAD_NO_VIS
 70
     0
  0
APPID
  2
ACAD_TEMP_GRAPHIC
 70
     0
  0
APPID
  2
AD_DRAW
 70
     0
  0
APPID
  2
ACATTRIBSERVICES
 70
     0
  0
APPID
  2
DESIGNERASSEMBLIES
 70
     0
  0
APPID
  2
ACADM_DIM_EDIT
 70
     0
  0
APPID
  2
AMDT_DM_ADJ
 70
     0
  0
APPID
  2
ACAD_DSTYLE_DIMARC_LENGTH_
 70
     0
  0
APPID
  2
ACAD_DSTYLE_DIMJOGGED_JOGA
 70
     0
  0
APPID
  2
ACAD_EXEMPT_FROM_CAD_STANDARDS
 70
     0
  0
ENDTAB
  0
TABLE
  2
DIMSTYLE
 70
     9
  0
DIMSTYLE
  2
STANDARD
 70
     0
  3

  4

  5

  6

  7

 40
1.0
 41
6.0
 42
0.0625
 43
0.38
 44
0.18
 45
0.0
 46
0.0
 47
0.01
 48
0.01
140
7.0
141
0.09
142
0.0
143
25.399999999999999
144
1.0
145
0.0
146
1.0
147
0.09
 71
     0
 72
     0
 73
     0
 74
     0
 75
     0
 76
     0
 77
     1
 78
     8
170
     0
171
     2
172
     0
173
     0
174
     0
175
     0
176
     0
177
     0
178
     5
  0
DIMSTYLE
  2
AM_ISO
 70
     0
  3

  4
"
  5

  6

  7

 40
1.0
 41
2.5
 42
1.0
 43
10.0
 44
1.0
 45
0.0
 46
0.0
 47
0.1
 48
0.1
140
3.5
141
0.0
142
0.0
143
0.0393701
144
1.0
145
0.0
146
0.71
147
1.5
 71
     0
 72
     0
 73
     0
 74
     0
 75
     0
 76
     0
 77
     1
 78
     8
170
     0
171
     2
172
     1
173
     0
174
     0
175
     0
176
   256
177
   256
178
     2
  0
DIMSTYLE
  2
AM_ISO$3
 70
     0
  3

  4
"
  5

  6

  7

 40
1.0
 41
2.5
 42
1.0
 43
10.0
 44
1.0
 45
0.0
 46
0.0
 47
0.1
 48
0.1
140
3.5
141
0.0
142
0.0
143
0.0393701
144
1.0
145
0.0
146
0.71
147
1.5
 71
     0
 72
     0
 73
     0
 74
     1
 75
     0
 76
     0
 77
     1
 78
     8
170
     0
171
     2
172
     0
173
     0
174
     0
175
     0
176
   256
177
   256
178
     2
  0
DIMSTYLE
  2
AM_ISO$4
 70
     0
  3

  4
"
  5

  6

  7

 40
1.0
 41
2.5
 42
1.0
 43
10.0
 44
1.0
 45
0.0
 46
0.0
 47
0.1
 48
0.1
140
3.5
141
0.0
142
0.0
143
0.0393701
144
1.0
145
0.0
146
0.71
147
1.5
 71
     0
 72
     0
 73
     0
 74
     1
 75
     0
 76
     0
 77
     1
 78
     8
170
     0
171
     2
172
     0
173
     0
174
     0
175
     0
176
   256
177
   256
178
     2
  0
DIMSTYLE
  2
AM_ISO$6
 70
     0
  3

  4
"
  5

  6

  7

 40
1.0
 41
2.5
 42
1.0
 43
10.0
 44
1.0
 45
0.0
 46
0.0
 47
0.1
 48
0.1
140
3.5
141
0.0
142
0.0
143
0.0393701
144
1.0
145
0.0
146
0.71
147
1.5
 71
     0
 72
     0
 73
     0
 74
     0
 75
     0
 76
     0
 77
     0
 78
     8
170
     0
171
     2
172
     1
173
     0
174
     0
175
     0
176
   256
177
   256
178
     2
  0
DIMSTYLE
  2
AM_ISO$7
 70
     0
  3

  4
"
  5

  6

  7

 40
1.0
 41
2.5
 42
1.0
 43
10.0
 44
1.0
 45
0.0
 46
0.0
 47
0.1
 48
0.1
140
5.0
141
0.0
142
0.0
143
0.0393701
144
1.0
145
0.0
146
0.71
147
1.5
 71
     0
 72
     0
 73
     0
 74
     0
 75
     0
 76
     0
 77
     1
 78
     8
170
     0
171
     2
172
     1
173
     0
174
     0
175
     0
176
   256
177
   256
178
     2
  0
DIMSTYLE
  2
AM_ISO$SF
 70
     0
  3

  4
"
  5

  6

  7

 40
1.0
 41
2.5
 42
1.0
 43
10.0
 44
1.0
 45
0.0
 46
0.0
 47
0.1
 48
0.1
140
3.5
141
0.0
142
0.0
143
0.0393701
144
1.0
145
0.0
146
0.71
147
1.5
 71
     0
 72
     0
 73
     0
 74
     0
 75
     1
 76
     1
 77
     1
 78
     8
170
     0
171
     2
172
     1
173
     0
174
     0
175
     0
176
   256
177
   256
178
     2
  0
DIMSTYLE
  2
AM_ISO$SH
 70
     0
  3

  4
"
  5

  6
GENAXEH
  7

 40
1.0
 41
2.5
 42
1.0
 43
10.0
 44
1.0
 45
0.0
 46
0.0
 47
0.1
 48
0.1
140
3.5
141
0.0
142
0.0
143
0.0393701
144
2.0
145
0.0
146
0.71
147
1.5
 71
     0
 72
     0
 73
     0
 74
     0
 75
     1
 76
     1
 77
     1
 78
     8
170
     0
171
     2
172
     1
173
     1
174
     0
175
     0
176
   256
177
   256
178
     2
  0
ENDTAB
  0
ENDSEC
  0
SECTION
  2
BLOCKS
  0
BLOCK
  8
0
  2
$MODEL_SPACE
 70
     0
 10
0.0
 20
0.0
 30
0.0
  3
$MODEL_SPACE
  1

  0
ENDBLK
  5
21
  8
0
  0
BLOCK
 67
     1
  8
0
  2
$PAPER_SPACE
 70
     0
 10
0.0
 20
0.0
 30
0.0
  3
$PAPER_SPACE
  1

  0
ENDBLK
  5
1D
 67
     1
  8
0
  0
BLOCK
  8
0
  6
CONTINUOUS
 62
     2
  2
KOHLER_BL0
 70
     0
 10
766.75923609999995
 20
55.223308400000001
 30
0.0
  3
KOHLER_BL0
  1

  0
ARC
  5
219
  8
0
  6
CONTINUOUS
 62
     2
 10
781.13087359999986
 20
56.632214650000002
 30
0.0
 40
0.7786687500000001
 50
270.0
 51
90.0
  0
LINE
  5
21A
  8
0
  6
CONTINUOUS
 62
     2
 10
749.38087359999997
 20
51.651433400000002
 30
0.0
 11
749.38087359999997
 21
58.795183399999999
 31
0.0
  0
LINE
  5
21B
  8
0
  6
CONTINUOUS
 62
     2
 10
749.38087359999997
 20
58.795183399999999
 30
0.0
 11
751.08267360000002
 21
58.795183399999999
 31
0.0
  0
LINE
  5
21C
  8
0
  6
CONTINUOUS
 62
     2
 10
749.38087359999997
 20
51.651433400000002
 30
0.0
 11
751.08267360000002
 21
51.651433400000002
 31
0.0
  0
LINE
  5
21D
  8
0
  6
CONTINUOUS
 62
     2
 10
755.7308736
 20
58.795183399999999
 30
0.0
 11
752.55587360000004
 21
55.620183400000002
 31
0.0
  0
LINE
  5
21E
  8
0
  6
CONTINUOUS
 62
     2
 10
752.55587360000004
 20
55.620183400000002
 30
0.0
 11
755.7308736
 21
51.651433400000002
 31
0.0
  0
CIRCLE
  5
21F
  8
0
  6
CONTINUOUS
 62
     2
 10
758.50899860000004
 20
55.223308400000001
 30
0.0
 40
1.870074999999999
  0
LINE
  5
220
  8
0
  6
CONTINUOUS
 62
     2
 10
753.55150623409997
 20
51.651433400000002
 30
0.0
 11
755.7308736
 21
51.651433400000002
 31
0.0
  0
CIRCLE
  5
221
  8
0
  6
CONTINUOUS
 62
     2
 10
758.50899860000004
 20
55.223308400000001
 30
0.0
 40
3.571874999999999
  0
LINE
  5
222
  8
0
  6
CONTINUOUS
 62
     2
 10
751.08267360000002
 20
51.651433400000002
 30
0.0
 11
751.08267360000002
 21
54.737474192599997
 31
0.0
  0
LINE
  5
223
  8
0
  6
CONTINUOUS
 62
     2
 10
753.32416495899986
 20
58.795183399999999
 30
0.0
 11
751.08267360000002
 21
56.553692040999998
 31
0.0
  0
LINE
  5
224
  8
0
  6
CONTINUOUS
 62
     2
 10
751.08267360000002
 20
54.737474192599997
 30
0.0
 11
753.55150623409997
 21
51.651433400000002
 31
0.0
  0
LINE
  5
225
  8
0
  6
CONTINUOUS
 62
     2
 10
753.32416495899986
 20
58.795183399999999
 30
0.0
 11
755.7308736
 21
58.795183399999999
 31
0.0
  0
LINE
  5
226
  8
0
  6
CONTINUOUS
 62
     2
 10
751.08267360000002
 20
58.795183399999999
 30
0.0
 11
751.08267360000002
 21
56.553692040999998
 31
0.0
  0
LINE
  5
227
  8
0
  6
CONTINUOUS
 62
     2
 10
762.87462359999995
 20
58.795183399999999
 30
0.0
 11
762.87462359999995
 21
51.651433400000002
 31
0.0
  0
LINE
  5
228
  8
0
  6
CONTINUOUS
 62
     2
 10
764.57642359999988
 20
51.651433400000002
 30
0.0
 11
764.57642359999988
 21
54.769283399999999
 31
0.0
  0
LINE
  5
229
  8
0
  6
CONTINUOUS
 62
     2
 10
764.57642359999988
 20
56.471083399999991
 30
0.0
 11
764.57642359999988
 21
58.795183399999999
 31
0.0
  0
LINE
  5
22A
  8
0
  6
CONTINUOUS
 62
     2
 10
766.5607986
 20
51.651433400000002
 30
0.0
 11
766.5607986
 21
54.769283399999999
 31
0.0
  0
LINE
  5
22B
  8
0
  6
CONTINUOUS
 62
     2
 10
766.5607986
 20
56.471083399999991
 30
0.0
 11
766.5607986
 21
58.795183399999999
 31
0.0
  0
LINE
  5
22C
  8
0
  6
CONTINUOUS
 62
     2
 10
768.26259860000005
 20
58.795183399999999
 30
0.0
 11
768.26259860000005
 21
51.651433400000002
 31
0.0
  0
LINE
  5
22D
  8
0
  6
CONTINUOUS
 62
     2
 10
764.57642359999988
 20
56.471083399999991
 30
0.0
 11
766.5607986
 21
56.471083399999991
 31
0.0
  0
LINE
  5
22E
  8
0
  6
CONTINUOUS
 62
     2
 10
764.57642359999988
 20
54.769283399999999
 30
0.0
 11
766.5607986
 21
54.769283399999999
 31
0.0
  0
LINE
  5
22F
  8
0
  6
CONTINUOUS
 62
     2
 10
766.5607986
 20
51.651433400000002
 30
0.0
 11
768.26259860000005
 21
51.651433400000002
 31
0.0
  0
LINE
  5
230
  8
0
  6
CONTINUOUS
 62
     2
 10
762.87462359999995
 20
51.651433400000002
 30
0.0
 11
764.57642359999988
 21
51.651433400000002
 31
0.0
  0
LINE
  5
231
  8
0
  6
CONTINUOUS
 62
     2
 10
766.5607986
 20
58.795183399999999
 30
0.0
 11
768.26259860000005
 21
58.795183399999999
 31
0.0
  0
LINE
  5
232
  8
0
  6
CONTINUOUS
 62
     2
 10
762.87462359999995
 20
58.795183399999999
 30
0.0
 11
764.57642359999988
 21
58.795183399999999
 31
0.0
  0
LINE
  5
233
  8
0
  6
CONTINUOUS
 62
     2
 10
769.05634859999998
 20
58.795183399999999
 30
0.0
 11
769.05634859999998
 21
51.651433400000002
 31
0.0
  0
LINE
  5
234
  8
0
  6
CONTINUOUS
 62
     2
 10
773.02509859999986
 20
53.353233400000001
 30
0.0
 11
773.02509859999986
 21
51.651433400000002
 31
0.0
  0
LINE
  5
235
  8
0
  6
CONTINUOUS
 62
     2
 10
769.05634859999998
 20
51.651433400000002
 30
0.0
 11
773.02509859999986
 21
51.651433400000002
 31
0.0
  0
LINE
  5
236
  8
0
  6
CONTINUOUS
 62
     2
 10
770.75814860000003
 20
53.353233400000001
 30
0.0
 11
770.75814860000003
 21
58.795183399999999
 31
0.0
  0
LINE
  5
237
  8
0
  6
CONTINUOUS
 62
     2
 10
770.75814860000003
 20
53.353233400000001
 30
0.0
 11
773.02509859999986
 21
53.353233400000001
 31
0.0
  0
LINE
  5
238
  8
0
  6
CONTINUOUS
 62
     2
 10
769.05634859999998
 20
58.795183399999999
 30
0.0
 11
770.75814860000003
 21
58.795183399999999
 31
0.0
  0
LINE
  5
239
  8
0
  6
CONTINUOUS
 62
     2
 10
773.81884860000002
 20
51.651433400000002
 30
0.0
 11
777.78759860000002
 21
51.651433400000002
 31
0.0
  0
LINE
  5
23A
  8
0
  6
CONTINUOUS
 62
     2
 10
777.78759860000002
 20
53.353233400000001
 30
0.0
 11
777.78759860000002
 21
51.651433400000002
 31
0.0
  0
LINE
  5
23B
  8
0
  6
CONTINUOUS
 62
     2
 10
775.52064859999984
 20
53.353233400000001
 30
0.0
 11
777.78759860000002
 21
53.353233400000001
 31
0.0
  0
LINE
  5
23C
  8
0
  6
CONTINUOUS
 62
     2
 10
775.52064859999984
 20
54.570845900000002
 30
0.0
 11
775.52064859999984
 21
53.353233400000001
 31
0.0
  0
LINE
  5
23D
  8
0
  6
CONTINUOUS
 62
     2
 10
775.52064859999984
 20
57.0933834
 30
0.0
 11
777.78759860000002
 21
57.0933834
 31
0.0
  0
LINE
  5
23E
  8
0
  6
CONTINUOUS
 62
     2
 10
773.81884860000002
 20
58.795183399999999
 30
0.0
 11
773.81884860000002
 21
51.651433400000002
 31
0.0
  0
LINE
  5
23F
  8
0
  6
CONTINUOUS
 62
     2
 10
777.78759860000002
 20
57.0933834
 30
0.0
 11
777.78759860000002
 21
58.795183399999999
 31
0.0
  0
LINE
  5
240
  8
0
  6
CONTINUOUS
 62
     2
 10
773.81884860000002
 20
58.795183399999999
 30
0.0
 11
777.78759860000002
 21
58.795183399999999
 31
0.0
  0
LINE
  5
241
  8
0
  6
CONTINUOUS
 62
     2
 10
775.52064859999984
 20
55.875770899999992
 30
0.0
 11
777.78759860000002
 21
55.875770899999992
 31
0.0
  0
LINE
  5
242
  8
0
  6
CONTINUOUS
 62
     2
 10
777.78759860000002
 20
55.875770899999992
 30
0.0
 11
777.78759860000002
 21
54.570845900000002
 31
0.0
  0
LINE
  5
243
  8
0
  6
CONTINUOUS
 62
     2
 10
775.52064859999984
 20
54.570845900000002
 30
0.0
 11
777.78759860000002
 21
54.570845900000002
 31
0.0
  0
LINE
  5
244
  8
0
  6
CONTINUOUS
 62
     2
 10
775.52064859999984
 20
55.875770899999992
 30
0.0
 11
775.52064859999984
 21
57.0933834
 31
0.0
  0
LINE
  5
245
  8
0
  6
CONTINUOUS
 62
     2
 10
778.58134859999996
 20
51.651433400000002
 30
0.0
 11
778.58134859999996
 21
58.795183399999999
 31
0.0
  0
LINE
  5
246
  8
0
  6
CONTINUOUS
 62
     2
 10
780.2831486
 20
54.429558399999991
 30
0.0
 11
780.2831486
 21
51.651433400000002
 31
0.0
  0
ARC
  5
247
  8
0
  6
CONTINUOUS
 62
     2
 10
781.16103610000005
 20
56.612370900000002
 30
0.0
 40
2.1828124999999989
 50
304.16794025310003
 51
90.0
  0
LINE
  5
248
  8
0
  6
CONTINUOUS
 62
     2
 10
781.16103610000005
 20
58.795183399999999
 30
0.0
 11
778.58134859999996
 21
58.795183399999999
 31
0.0
  0
LINE
  5
249
  8
0
  6
CONTINUOUS
 62
     2
 10
781.13087359999986
 20
57.41088340000001
 30
0.0
 11
780.2831486
 21
57.41088340000001
 31
0.0
  0
LINE
  5
24A
  8
0
  6
CONTINUOUS
 62
     2
 10
782.38694834459989
 20
54.806322843300002
 30
0.0
 11
784.13759860000005
 21
51.651433400000002
 31
0.0
  0
LINE
  5
24B
  8
0
  6
CONTINUOUS
 62
     2
 10
782.19135033600003
 20
51.651433400000002
 30
0.0
 11
780.64976692189987
 21
54.429558399999991
 31
0.0
  0
LINE
  5
24C
  8
0
  6
CONTINUOUS
 62
     2
 10
778.58134859999996
 20
51.651433400000002
 30
0.0
 11
780.2831486
 21
51.651433400000002
 31
0.0
  0
LINE
  5
24D
  8
0
  6
CONTINUOUS
 62
     2
 10
782.19135033600003
 20
51.651433400000002
 30
0.0
 11
784.13759860000005
 21
51.651433400000002
 31
0.0
  0
LINE
  5
24E
  8
0
  6
CONTINUOUS
 62
     2
 10
781.13087359999986
 20
55.8535459
 30
0.0
 11
780.2831486
 21
55.8535459
 31
0.0
  0
LINE
  5
24F
  8
0
  6
CONTINUOUS
 62
     2
 10
780.2831486
 20
57.41088340000001
 30
0.0
 11
780.2831486
 21
55.8535459
 31
0.0
  0
LINE
  5
250
  8
0
  6
CONTINUOUS
 62
     2
 10
780.2831486
 20
54.429558399999991
 30
0.0
 11
780.64976692189987
 21
54.429558399999991
 31
0.0
  0
POLYLINE
  5
251
  8
0
  6
CONTINUOUS
 62
     2
 66
     1
 10
0.0
 20
0.0
 30
0.0
  0
VERTEX
  5
9AF
  8
0
  6
CONTINUOUS
 62
     2
 10
784.13759860000005
 20
51.651433400000002
 30
0.0
  0
VERTEX
  5
9B0
  8
0
  6
CONTINUOUS
 62
     2
 10
782.19135033600003
 20
51.651433400000002
 30
0.0
  0
VERTEX
  5
9B1
  8
0
  6
CONTINUOUS
 62
     2
 10
780.64976692189987
 20
54.429558399999991
 30
0.0
  0
VERTEX
  5
9B2
  8
0
  6
CONTINUOUS
 62
     2
 10
780.2831486
 20
54.429558399999991
 30
0.0
  0
VERTEX
  5
9B3
  8
0
  6
CONTINUOUS
 62
     2
 10
780.2831486
 20
51.651433400000002
 30
0.0
  0
VERTEX
  5
9B4
  8
0
  6
CONTINUOUS
 62
     2
 10
778.58134859999996
 20
51.651433400000002
 30
0.0
  0
VERTEX
  5
9B5
  8
0
  6
CONTINUOUS
 62
     2
 10
778.58134859999996
 20
57.41088340000001
 30
0.0
  0
VERTEX
  5
9B6
  8
0
  6
CONTINUOUS
 62
     2
 10
780.2831486
 20
57.41088340000001
 30
0.0
  0
VERTEX
  5
9B7
  8
0
  6
CONTINUOUS
 62
     2
 10
780.2831486
 20
55.8535459
 30
0.0
  0
VERTEX
  5
9B8
  8
0
  6
CONTINUOUS
 62
     2
 10
781.13087359999986
 20
55.8535459
 30
0.0
  0
VERTEX
  5
9B9
  8
0
  6
CONTINUOUS
 62
     2
 10
783.1747134023999
 20
55.8535459
 30
0.0
  0
VERTEX
  5
9BA
  8
0
  6
CONTINUOUS
 62
     2
 10
782.94911527570002
 20
55.360395152700001
 30
0.0
  0
VERTEX
  5
9BB
  8
0
  6
CONTINUOUS
 62
     2
 10
782.38694834440003
 20
54.8063228444
 30
0.0
  0
VERTEX
  5
9BC
  8
0
  6
CONTINUOUS
 62
     2
 10
784.13759860000005
 20
51.651433400000002
 30
0.0
  0
SEQEND
  5
9BD
  8
0
  6
CONTINUOUS
 62
     2
  0
INSERT
  5
252
  8
0
  6
CONTINUOUS
 62
     2
  2
*U7
 10
0.0
 20
0.0
 30
0.0
1001
ACAD
1002
{
1000
R14_HATCH_DATA
1000
252
1011
1.0
1021
1.0
1031
0.0
1021
0.0
1031
0.0
1011
0.0
1021
1.0
1031
0.0
1021
1.0
1031
0.0
1011
0.0
1021
1.0
1031
0.0
1021
0.0
1031
1.0
1040
0.0
1010
0.0
1020
0.0
1030
1.0
1000
SOLID
1070
     1
1070
     1
1071
        1
1071
        1
1071
       13
1070
     1
1040
784.13759860000005
1040
51.651433400000002
1040
782.19135033600003
1040
51.651433400000002
1070
     1
1040
782.19135033600003
1040
51.651433400000002
1040
780.64976692189987
1040
54.429558399999991
1070
     1
1040
780.64976692189987
1040
54.429558399999991
1040
780.2831486
1040
54.429558399999991
1070
     1
1040
780.2831486
1040
54.429558399999991
1040
780.2831486
1040
51.651433400000002
1070
     1
1040
780.2831486
1040
51.651433400000002
1040
778.58134859999996
1040
51.651433400000002
1070
     1
1040
778.58134859999996
1040
51.651433400000002
1040
778.58134859999996
1040
57.41088340000001
1070
     1
1040
778.58134859999996
1040
57.41088340000001
1040
780.2831486
1040
57.41088340000001
1070
     1
1040
780.2831486
1040
57.41088340000001
1040
780.2831486
1040
55.8535459
1070
     1
1040
780.2831486
1040
55.8535459
1040
781.13087359999986
1040
55.8535459
1070
     1
1040
781.13087359999986
1040
55.8535459
1040
783.1747134023999
1040
55.8535459
1070
     1
1040
783.1747134023999
1040
55.8535459
1040
782.94911527570002
1040
55.360395152700001
1070
     1
1040
782.94911527570002
1040
55.360395152700001
1040
782.38694834440003
1040
54.8063228444
1070
     1
1040
782.38694834440003
1040
54.8063228444
1040
784.13759860000005
1040
51.651433400000002
1071
        1
1005
251
1070
     0
1070
     1
1071
        1
1040
0.0
1040
0.0
1040
0.0
1002
}
  0
POLYLINE
  5
253
  8
0
  6
CONTINUOUS
 62
     2
 66
     1
 10
0.0
 20
0.0
 30
0.0
  0
VERTEX
  5
9E5
  8
0
  6
CONTINUOUS
 62
     2
 10
778.58134859999996
 20
57.41088340000001
 30
0.0
  0
VERTEX
  5
9E6
  8
0
  6
CONTINUOUS
 62
     2
 10
778.58134859999996
 20
58.795183399999999
 30
0.0
  0
VERTEX
  5
9E7
  8
0
  6
CONTINUOUS
 62
     2
 10
781.16103610000005
 20
58.795183399999999
 30
0.0
  0
VERTEX
  5
9E8
  8
0
  6
CONTINUOUS
 62
     2
 10
781.93734855030004
 20
58.6524712382
 30
0.0
  0
VERTEX
  5
9E9
  8
0
  6
CONTINUOUS
 62
     2
 10
782.61215046940004
 20
58.242995779300003
 30
0.0
  0
VERTEX
  5
9EA
  8
0
  6
CONTINUOUS
 62
     2
 10
783.09720483240005
 20
57.620299989599999
 30
0.0
  0
VERTEX
  5
9EB
  8
0
  6
CONTINUOUS
 62
     2
 10
783.32908598380004
 20
56.865807502400003
 30
0.0
  0
VERTEX
  5
9EC
  8
0
  6
CONTINUOUS
 62
     2
 10
783.27747316959994
 20
56.0781756728
 30
0.0
  0
VERTEX
  5
9ED
  8
0
  6
CONTINUOUS
 62
     2
 10
783.1747134023999
 20
55.8535459
 30
0.0
  0
VERTEX
  5
9EE
  8
0
  6
CONTINUOUS
 62
     2
 10
781.13087359999986
 20
55.8535459
 30
0.0
  0
VERTEX
  5
9EF
  8
0
  6
CONTINUOUS
 62
     2
 10
781.52020797499995
 20
55.9578677314
 30
0.0
  0
VERTEX
  5
9F0
  8
0
  6
CONTINUOUS
 62
     2
 10
781.80522051859998
 20
56.242880274999997
 30
0.0
  0
VERTEX
  5
9F1
  8
0
  6
CONTINUOUS
 62
     2
 10
781.90954235000004
 20
56.632214650000002
 30
0.0
  0
VERTEX
  5
9F2
  8
0
  6
CONTINUOUS
 62
     2
 10
781.80522051859998
 20
57.021549024999999
 30
0.0
  0
VERTEX
  5
9F3
  8
0
  6
CONTINUOUS
 62
     2
 10
781.52020797499995
 20
57.306561568600003
 30
0.0
  0
VERTEX
  5
9F4
  8
0
  6
CONTINUOUS
 62
     2
 10
781.13087359999986
 20
57.41088340000001
 30
0.0
  0
VERTEX
  5
9F5
  8
0
  6
CONTINUOUS
 62
     2
 10
780.2831486
 20
57.41088340000001
 30
0.0
  0
VERTEX
  5
9F6
  8
0
  6
CONTINUOUS
 62
     2
 10
778.58134859999996
 20
57.41088340000001
 30
0.0
  0
SEQEND
  5
9F7
  8
0
  6
CONTINUOUS
 62
     2
  0
INSERT
  5
254
  8
0
  6
CONTINUOUS
 62
     2
  2
*U8
 10
0.0
 20
0.0
 30
0.0
1001
ACAD
1002
{
1000
R14_HATCH_DATA
1000
254
1011
1.0
1021
1.0
1031
0.0
1021
0.0
1031
0.0
1011
0.0
1021
1.0
1031
0.0
1021
1.0
1031
0.0
1011
0.0
1021
1.0
1031
0.0
1021
0.0
1031
1.0
1040
0.0
1010
0.0
1020
0.0
1030
1.0
1000
SOLID
1070
     1
1070
     1
1071
        1
1071
        1
1071
       17
1070
     1
1040
778.58134859999996
1040
57.41088340000001
1040
778.58134859999996
1040
58.795183399999999
1070
     1
1040
778.58134859999996
1040
58.795183399999999
1040
781.16103610000005
1040
58.795183399999999
1070
     1
1040
781.16103610000005
1040
58.795183399999999
1040
781.93734855030004
1040
58.6524712382
1070
     1
1040
781.93734855030004
1040
58.6524712382
1040
782.61215046940004
1040
58.242995779300003
1070
     1
1040
782.61215046940004
1040
58.242995779300003
1040
783.09720483240005
1040
57.620299989599999
1070
     1
1040
783.09720483240005
1040
57.620299989599999
1040
783.32908598380004
1040
56.865807502400003
1070
     1
1040
783.32908598380004
1040
56.865807502400003
1040
783.27747316959994
1040
56.0781756728
1070
     1
1040
783.27747316959994
1040
56.0781756728
1040
783.1747134023999
1040
55.8535459
1070
     1
1040
783.1747134023999
1040
55.8535459
1040
781.13087359999986
1040
55.8535459
1070
     1
1040
781.13087359999986
1040
55.8535459
1040
781.52020797499995
1040
55.9578677314
1070
     1
1040
781.52020797499995
1040
55.9578677314
1040
781.80522051859998
1040
56.242880274999997
1070
     1
1040
781.80522051859998
1040
56.242880274999997
1040
781.90954235000004
1040
56.632214650000002
1070
     1
1040
781.90954235000004
1040
56.632214650000002
1040
781.80522051859998
1040
57.021549024999999
1070
     1
1040
781.80522051859998
1040
57.021549024999999
1040
781.52020797499995
1040
57.306561568600003
1070
     1
1040
781.52020797499995
1040
57.306561568600003
1040
781.13087359999986
1040
57.41088340000001
1070
     1
1040
781.13087359999986
1040
57.41088340000001
1040
780.2831486
1040
57.41088340000001
1070
     1
1040
780.2831486
1040
57.41088340000001
1040
778.58134859999996
1040
57.41088340000001
1071
        1
1005
253
1070
     0
1070
     1
1071
        1
1040
0.0
1040
0.0
1040
0.0
1002
}
  0
POLYLINE
  5
255
  8
0
  6
CONTINUOUS
 62
     2
 66
     1
 10
0.0
 20
0.0
 30
0.0
  0
VERTEX
  5
A33
  8
0
  6
CONTINUOUS
 62
     2
 10
751.08267360000002
 20
51.651433400000002
 30
0.0
  0
VERTEX
  5
A34
  8
0
  6
CONTINUOUS
 62
     2
 10
749.38087359999997
 20
51.651433400000002
 30
0.0
  0
VERTEX
  5
A35
  8
0
  6
CONTINUOUS
 62
     2
 10
749.38087359999997
 20
58.795183399999999
 30
0.0
  0
VERTEX
  5
A36
  8
0
  6
CONTINUOUS
 62
     2
 10
751.08267360000002
 20
58.795183399999999
 30
0.0
  0
VERTEX
  5
A37
  8
0
  6
CONTINUOUS
 62
     2
 10
751.08267360000002
 20
56.553692040999998
 30
0.0
  0
VERTEX
  5
A38
  8
0
  6
CONTINUOUS
 62
     2
 10
753.32416495899986
 20
58.795183399999999
 30
0.0
  0
VERTEX
  5
A39
  8
0
  6
CONTINUOUS
 62
     2
 10
755.7308736
 20
58.795183399999999
 30
0.0
  0
VERTEX
  5
A3A
  8
0
  6
CONTINUOUS
 62
     2
 10
752.55587360000004
 20
55.620183400000002
 30
0.0
  0
VERTEX
  5
A3B
  8
0
  6
CONTINUOUS
 62
     2
 10
755.7308736
 20
51.651433400000002
 30
0.0
  0
VERTEX
  5
A3C
  8
0
  6
CONTINUOUS
 62
     2
 10
753.55150623409997
 20
51.651433400000002
 30
0.0
  0
VERTEX
  5
A3D
  8
0
  6
CONTINUOUS
 62
     2
 10
751.08267360000002
 20
54.737474192599997
 30
0.0
  0
VERTEX
  5
A3E
  8
0
  6
CONTINUOUS
 62
     2
 10
751.08267360000002
 20
51.651433400000002
 30
0.0
  0
SEQEND
  5
A3F
  8
0
  6
CONTINUOUS
 62
     2
  0
INSERT
  5
256
  8
0
  6
CONTINUOUS
 62
     2
  2
*U9
 10
0.0
 20
0.0
 30
0.0
1001
ACAD
1002
{
1000
R14_HATCH_DATA
1000
256
1011
1.0
1021
1.0
1031
0.0
1021
0.0
1031
0.0
1011
0.0
1021
1.0
1031
0.0
1021
1.0
1031
0.0
1011
0.0
1021
1.0
1031
0.0
1021
0.0
1031
1.0
1040
0.0
1010
0.0
1020
0.0
1030
1.0
1000
SOLID
1070
     1
1070
     1
1071
        1
1071
        1
1071
       11
1070
     1
1040
751.08267360000002
1040
51.651433400000002
1040
749.38087359999997
1040
51.651433400000002
1070
     1
1040
749.38087359999997
1040
51.651433400000002
1040
749.38087359999997
1040
58.795183399999999
1070
     1
1040
749.38087359999997
1040
58.795183399999999
1040
751.08267360000002
1040
58.795183399999999
1070
     1
1040
751.08267360000002
1040
58.795183399999999
1040
751.08267360000002
1040
56.553692040999998
1070
     1
1040
751.08267360000002
1040
56.553692040999998
1040
753.32416495899986
1040
58.795183399999999
1070
     1
1040
753.32416495899986
1040
58.795183399999999
1040
755.7308736
1040
58.795183399999999
1070
     1
1040
755.7308736
1040
58.795183399999999
1040
752.55587360000004
1040
55.620183400000002
1070
     1
1040
752.55587360000004
1040
55.620183400000002
1040
755.7308736
1040
51.651433400000002
1070
     1
1040
755.7308736
1040
51.651433400000002
1040
753.55150623409997
1040
51.651433400000002
1070
     1
1040
753.55150623409997
1040
51.651433400000002
1040
751.08267360000002
1040
54.737474192599997
1070
     1
1040
751.08267360000002
1040
54.737474192599997
1040
751.08267360000002
1040
51.651433400000002
1071
        1
1005
255
1070
     0
1070
     1
1071
        1
1040
0.0
1040
0.0
1040
0.0
1002
}
  0
POLYLINE
  5
257
  8
0
  6
CONTINUOUS
 62
     2
 66
     1
 10
0.0
 20
0.0
 30
0.0
  0
VERTEX
  5
A61
  8
0
  6
CONTINUOUS
 62
     2
 10
758.50899860000004
 20
51.651433400000002
 30
0.0
  0
VERTEX
  5
A62
  8
0
  6
CONTINUOUS
 62
     2
 10
757.40522852319987
 20
51.826253405899998
 30
0.0
  0
VERTEX
  5
A63
  8
0
  6
CONTINUOUS
 62
     2
 10
756.40950315199996
 20
52.333600823200001
 30
0.0
  0
VERTEX
  5
A64
  8
0
  6
CONTINUOUS
 62
     2
 10
755.61929102320005
 20
53.123812952000002
 30
0.0
  0
VERTEX
  5
A65
  8
0
  6
CONTINUOUS
 62
     2
 10
755.11194360590002
 20
54.119538323199997
 30
0.0
  0
VERTEX
  5
A66
  8
0
  6
CONTINUOUS
 62
     2
 10
754.93712359999995
 20
55.223308400000001
 30
0.0
  0
VERTEX
  5
A67
  8
0
  6
CONTINUOUS
 62
     2
 10
755.11194360590002
 20
56.32707847679999
 30
0.0
  0
VERTEX
  5
A68
  8
0
  6
CONTINUOUS
 62
     2
 10
755.49833077280005
 20
57.085405989699993
 30
0.0
  0
VERTEX
  5
A69
  8
0
  6
CONTINUOUS
 62
     2
 10
758.68154735229996
 20
57.085405989699993
 30
0.0
  0
VERTEX
  5
A6A
  8
0
  6
CONTINUOUS
 62
     2
 10
757.99722828380004
 20
57.021994489699999
 30
0.0
  0
VERTEX
  5
A6B
  8
0
  6
CONTINUOUS
 62
     2
 10
757.38202663239986
 20
56.715660466300001
 30
0.0
  0
VERTEX
  5
A6C
  8
0
  6
CONTINUOUS
 62
     2
 10
756.91902878990004
 20
56.207776027000001
 30
0.0
  0
VERTEX
  5
A6D
  8
0
  6
CONTINUOUS
 62
     2
 10
756.67076518060003
 20
55.566933779499998
 30
0.0
  0
VERTEX
  5
A6E
  8
0
  6
CONTINUOUS
 62
     2
 10
756.67076518060003
 20
54.879683020500003
 30
0.0
  0
VERTEX
  5
A6F
  8
0
  6
CONTINUOUS
 62
     2
 10
756.91902878990004
 20
54.238840773
 30
0.0
  0
VERTEX
  5
A70
  8
0
  6
CONTINUOUS
 62
     2
 10
757.38202663239986
 20
53.7309563337
 30
0.0
  0
VERTEX
  5
A71
  8
0
  6
CONTINUOUS
 62
     2
 10
757.99722828380004
 20
53.424622310300002
 30
0.0
  0
VERTEX
  5
A72
  8
0
  6
CONTINUOUS
 62
     2
 10
758.68154735229996
 20
53.361210810300001
 30
0.0
  0
VERTEX
  5
A73
  8
0
  6
CONTINUOUS
 62
     2
 10
761.51966642720004
 20
53.361210810300001
 30
0.0
  0
VERTEX
  5
A74
  8
0
  6
CONTINUOUS
 62
     2
 10
761.39870617680003
 20
53.123812952000002
 30
0.0
  0
VERTEX
  5
A75
  8
0
  6
CONTINUOUS
 62
     2
 10
760.60849404800001
 20
52.333600823200001
 30
0.0
  0
VERTEX
  5
A76
  8
0
  6
CONTINUOUS
 62
     2
 10
759.61276867679987
 20
51.826253405899998
 30
0.0
  0
VERTEX
  5
A77
  8
0
  6
CONTINUOUS
 62
     2
 10
758.50899860000004
 20
51.651433400000002
 30
0.0
  0
SEQEND
  5
A78
  8
0
  6
CONTINUOUS
 62
     2
  0
INSERT
  5
258
  8
0
  6
CONTINUOUS
 62
     2
  2
*U10
 10
0.0
 20
0.0
 30
0.0
1001
ACAD
1002
{
1000
R14_HATCH_DATA
1000
258
1011
1.0
1021
1.0
1031
0.0
1021
0.0
1031
0.0
1011
0.0
1021
1.0
1031
0.0
1021
1.0
1031
0.0
1011
0.0
1021
1.0
1031
0.0
1021
0.0
1031
1.0
1040
0.0
1010
0.0
1020
0.0
1030
1.0
1000
SOLID
1070
     1
1070
     1
1071
        1
1071
        1
1071
       22
1070
     1
1040
758.50899860000004
1040
51.651433400000002
1040
757.40522852319987
1040
51.826253405899998
1070
     1
1040
757.40522852319987
1040
51.826253405899998
1040
756.40950315199996
1040
52.333600823200001
1070
     1
1040
756.40950315199996
1040
52.333600823200001
1040
755.61929102320005
1040
53.123812952000002
1070
     1
1040
755.61929102320005
1040
53.123812952000002
1040
755.11194360590002
1040
54.119538323199997
1070
     1
1040
755.11194360590002
1040
54.119538323199997
1040
754.93712359999995
1040
55.223308400000001
1070
     1
1040
754.93712359999995
1040
55.223308400000001
1040
755.11194360590002
1040
56.32707847679999
1070
     1
1040
755.11194360590002
1040
56.32707847679999
1040
755.49833077280005
1040
57.085405989699993
1070
     1
1040
755.49833077280005
1040
57.085405989699993
1040
758.68154735229996
1040
57.085405989699993
1070
     1
1040
758.68154735229996
1040
57.085405989699993
1040
757.99722828380004
1040
57.021994489699999
1070
     1
1040
757.99722828380004
1040
57.021994489699999
1040
757.38202663239986
1040
56.715660466300001
1070
     1
1040
757.38202663239986
1040
56.715660466300001
1040
756.91902878990004
1040
56.207776027000001
1070
     1
1040
756.91902878990004
1040
56.207776027000001
1040
756.67076518060003
1040
55.566933779499998
1070
     1
1040
756.67076518060003
1040
55.566933779499998
1040
756.67076518060003
1040
54.879683020500003
1070
     1
1040
756.67076518060003
1040
54.879683020500003
1040
756.91902878990004
1040
54.238840773
1070
     1
1040
756.91902878990004
1040
54.238840773
1040
757.38202663239986
1040
53.7309563337
1070
     1
1040
757.38202663239986
1040
53.7309563337
1040
757.99722828380004
1040
53.424622310300002
1070
     1
1040
757.99722828380004
1040
53.424622310300002
1040
758.68154735229996
1040
53.361210810300001
1070
     1
1040
758.68154735229996
1040
53.361210810300001
1040
761.51966642720004
1040
53.361210810300001
1070
     1
1040
761.51966642720004
1040
53.361210810300001
1040
761.39870617680003
1040
53.123812952000002
1070
     1
1040
761.39870617680003
1040
53.123812952000002
1040
760.60849404800001
1040
52.333600823200001
1070
     1
1040
760.60849404800001
1040
52.333600823200001
1040
759.61276867679987
1040
51.826253405899998
1070
     1
1040
759.61276867679987
1040
51.826253405899998
1040
758.50899860000004
1040
51.651433400000002
1071
        1
1005
257
1070
     0
1070
     1
1071
        1
1040
0.0
1040
0.0
1040
0.0
1002
}
  0
POLYLINE
  5
259
  8
0
  6
CONTINUOUS
 62
     2
 66
     1
 10
0.0
 20
0.0
 30
0.0
  0
VERTEX
  5
ABF
  8
0
  6
CONTINUOUS
 62
     2
 10
755.49833077280005
 20
57.085405989699993
 30
0.0
  0
VERTEX
  5
AC0
  8
0
  6
CONTINUOUS
 62
     2
 10
755.61929102320005
 20
57.322803848
 30
0.0
  0
VERTEX
  5
AC1
  8
0
  6
CONTINUOUS
 62
     2
 10
756.40950315199996
 20
58.113015976799993
 30
0.0
  0
VERTEX
  5
AC2
  8
0
  6
CONTINUOUS
 62
     2
 10
757.40522852319987
 20
58.620363394100004
 30
0.0
  0
VERTEX
  5
AC3
  8
0
  6
CONTINUOUS
 62
     2
 10
758.50899860000004
 20
58.795183399999999
 30
0.0
  0
VERTEX
  5
AC4
  8
0
  6
CONTINUOUS
 62
     2
 10
759.61276867679987
 20
58.620363394100004
 30
0.0
  0
VERTEX
  5
AC5
  8
0
  6
CONTINUOUS
 62
     2
 10
760.60849404800001
 20
58.113015976799993
 30
0.0
  0
VERTEX
  5
AC6
  8
0
  6
CONTINUOUS
 62
     2
 10
761.39870617680003
 20
57.322803848
 30
0.0
  0
VERTEX
  5
AC7
  8
0
  6
CONTINUOUS
 62
     2
 10
761.90605359409994
 20
56.32707847679999
 30
0.0
  0
VERTEX
  5
AC8
  8
0
  6
CONTINUOUS
 62
     2
 10
762.08087360000002
 20
55.223308400000001
 30
0.0
  0
VERTEX
  5
AC9
  8
0
  6
CONTINUOUS
 62
     2
 10
761.90605359409994
 20
54.119538323199997
 30
0.0
  0
VERTEX
  5
ACA
  8
0
  6
CONTINUOUS
 62
     2
 10
761.51966642720004
 20
53.361210810300001
 30
0.0
  0
VERTEX
  5
ACB
  8
0
  6
CONTINUOUS
 62
     2
 10
758.68154735229996
 20
53.361210810300001
 30
0.0
  0
VERTEX
  5
ACC
  8
0
  6
CONTINUOUS
 62
     2
 10
759.34256275569999
 20
53.5492859079
 30
0.0
  0
VERTEX
  5
ACD
  8
0
  6
CONTINUOUS
 62
     2
 10
759.89100070090001
 20
53.963447019199997
 30
0.0
  0
VERTEX
  5
ACE
  8
0
  6
CONTINUOUS
 62
     2
 10
760.25279160440004
 20
54.547759391100001
 30
0.0
  0
VERTEX
  5
ACF
  8
0
  6
CONTINUOUS
 62
     2
 10
760.37907359999986
 20
55.223308400000001
 30
0.0
  0
VERTEX
  5
AD0
  8
0
  6
CONTINUOUS
 62
     2
 10
760.25279160440004
 20
55.8988574089
 30
0.0
  0
VERTEX
  5
AD1
  8
0
  6
CONTINUOUS
 62
     2
 10
759.89100070090001
 20
56.483169780799997
 30
0.0
  0
VERTEX
  5
AD2
  8
0
  6
CONTINUOUS
 62
     2
 10
759.34256275569999
 20
56.897330892100001
 30
0.0
  0
VERTEX
  5
AD3
  8
0
  6
CONTINUOUS
 62
     2
 10
758.68154735229996
 20
57.085405989699993
 30
0.0
  0
VERTEX
  5
AD4
  8
0
  6
CONTINUOUS
 62
     2
 10
755.49833077280005
 20
57.085405989699993
 30
0.0
  0
SEQEND
  5
AD5
  8
0
  6
CONTINUOUS
 62
     2
  0
INSERT
  5
25A
  8
0
  6
CONTINUOUS
 62
     2
  2
*U11
 10
0.0
 20
0.0
 30
0.0
1001
ACAD
1002
{
1000
R14_HATCH_DATA
1000
25A
1011
1.0
1021
1.0
1031
0.0
1021
0.0
1031
0.0
1011
0.0
1021
1.0
1031
0.0
1021
1.0
1031
0.0
1011
0.0
1021
1.0
1031
0.0
1021
0.0
1031
1.0
1040
0.0
1010
0.0
1020
0.0
1030
1.0
1000
SOLID
1070
     1
1070
     1
1071
        1
1071
        1
1071
       21
1070
     1
1040
755.49833077280005
1040
57.085405989699993
1040
755.61929102320005
1040
57.322803848
1070
     1
1040
755.61929102320005
1040
57.322803848
1040
756.40950315199996
1040
58.113015976799993
1070
     1
1040
756.40950315199996
1040
58.113015976799993
1040
757.40522852319987
1040
58.620363394100004
1070
     1
1040
757.40522852319987
1040
58.620363394100004
1040
758.50899860000004
1040
58.795183399999999
1070
     1
1040
758.50899860000004
1040
58.795183399999999
1040
759.61276867679987
1040
58.620363394100004
1070
     1
1040
759.61276867679987
1040
58.620363394100004
1040
760.60849404800001
1040
58.113015976799993
1070
     1
1040
760.60849404800001
1040
58.113015976799993
1040
761.39870617680003
1040
57.322803848
1070
     1
1040
761.39870617680003
1040
57.322803848
1040
761.90605359409994
1040
56.32707847679999
1070
     1
1040
761.90605359409994
1040
56.32707847679999
1040
762.08087360000002
1040
55.223308400000001
1070
     1
1040
762.08087360000002
1040
55.223308400000001
1040
761.90605359409994
1040
54.119538323199997
1070
     1
1040
761.90605359409994
1040
54.119538323199997
1040
761.51966642720004
1040
53.361210810300001
1070
     1
1040
761.51966642720004
1040
53.361210810300001
1040
758.68154735229996
1040
53.361210810300001
1070
     1
1040
758.68154735229996
1040
53.361210810300001
1040
759.34256275569999
1040
53.5492859079
1070
     1
1040
759.34256275569999
1040
53.5492859079
1040
759.89100070090001
1040
53.963447019199997
1070
     1
1040
759.89100070090001
1040
53.963447019199997
1040
760.25279160440004
1040
54.547759391100001
1070
     1
1040
760.25279160440004
1040
54.547759391100001
1040
760.37907359999986
1040
55.223308400000001
1070
     1
1040
760.37907359999986
1040
55.223308400000001
1040
760.25279160440004
1040
55.8988574089
1070
     1
1040
760.25279160440004
1040
55.8988574089
1040
759.89100070090001
1040
56.483169780799997
1070
     1
1040
759.89100070090001
1040
56.483169780799997
1040
759.34256275569999
1040
56.897330892100001
1070
     1
1040
759.34256275569999
1040
56.897330892100001
1040
758.68154735229996
1040
57.085405989699993
1070
     1
1040
758.68154735229996
1040
57.085405989699993
1040
755.49833077280005
1040
57.085405989699993
1071
        1
1005
259
1070
     0
1070
     1
1071
        1
1040
0.0
1040
0.0
1040
0.0
1002
}
  0
POLYLINE
  5
25B
  8
0
  6
CONTINUOUS
 62
     2
 66
     1
 10
0.0
 20
0.0
 30
0.0
  0
VERTEX
  5
B14
  8
0
  6
CONTINUOUS
 62
     2
 10
764.57642359999988
 20
51.651433400000002
 30
0.0
  0
VERTEX
  5
B15
  8
0
  6
CONTINUOUS
 62
     2
 10
762.87462359999995
 20
51.651433400000002
 30
0.0
  0
VERTEX
  5
B16
  8
0
  6
CONTINUOUS
 62
     2
 10
762.87462359999995
 20
58.795183399999999
 30
0.0
  0
VERTEX
  5
B17
  8
0
  6
CONTINUOUS
 62
     2
 10
764.57642359999988
 20
58.795183399999999
 30
0.0
  0
VERTEX
  5
B18
  8
0
  6
CONTINUOUS
 62
     2
 10
764.57642359999988
 20
56.471083399999991
 30
0.0
  0
VERTEX
  5
B19
  8
0
  6
CONTINUOUS
 62
     2
 10
766.5607986
 20
56.471083399999991
 30
0.0
  0
VERTEX
  5
B1A
  8
0
  6
CONTINUOUS
 62
     2
 10
766.5607986
 20
58.795183399999999
 30
0.0
  0
VERTEX
  5
B1B
  8
0
  6
CONTINUOUS
 62
     2
 10
768.26259860000005
 20
58.795183399999999
 30
0.0
  0
VERTEX
  5
B1C
  8
0
  6
CONTINUOUS
 62
     2
 10
768.26259860000005
 20
51.651433400000002
 30
0.0
  0
VERTEX
  5
B1D
  8
0
  6
CONTINUOUS
 62
     2
 10
766.5607986
 20
51.651433400000002
 30
0.0
  0
VERTEX
  5
B1E
  8
0
  6
CONTINUOUS
 62
     2
 10
766.5607986
 20
54.769283399999999
 30
0.0
  0
VERTEX
  5
B1F
  8
0
  6
CONTINUOUS
 62
     2
 10
764.57642359999988
 20
54.769283399999999
 30
0.0
  0
VERTEX
  5
B20
  8
0
  6
CONTINUOUS
 62
     2
 10
764.57642359999988
 20
51.651433400000002
 30
0.0
  0
SEQEND
  5
B21
  8
0
  6
CONTINUOUS
 62
     2
  0
INSERT
  5
25C
  8
0
  6
CONTINUOUS
 62
     2
  2
*U12
 10
0.0
 20
0.0
 30
0.0
1001
ACAD
1002
{
1000
R14_HATCH_DATA
1000
25C
1011
1.0
1021
1.0
1031
0.0
1021
0.0
1031
0.0
1011
0.0
1021
1.0
1031
0.0
1021
1.0
1031
0.0
1011
0.0
1021
1.0
1031
0.0
1021
0.0
1031
1.0
1040
0.0
1010
0.0
1020
0.0
1030
1.0
1000
SOLID
1070
     1
1070
     1
1071
        1
1071
        1
1071
       12
1070
     1
1040
764.57642359999988
1040
51.651433400000002
1040
762.87462359999995
1040
51.651433400000002
1070
     1
1040
762.87462359999995
1040
51.651433400000002
1040
762.87462359999995
1040
58.795183399999999
1070
     1
1040
762.87462359999995
1040
58.795183399999999
1040
764.57642359999988
1040
58.795183399999999
1070
     1
1040
764.57642359999988
1040
58.795183399999999
1040
764.57642359999988
1040
56.471083399999991
1070
     1
1040
764.57642359999988
1040
56.471083399999991
1040
766.5607986
1040
56.471083399999991
1070
     1
1040
766.5607986
1040
56.471083399999991
1040
766.5607986
1040
58.795183399999999
1070
     1
1040
766.5607986
1040
58.795183399999999
1040
768.26259860000005
1040
58.795183399999999
1070
     1
1040
768.26259860000005
1040
58.795183399999999
1040
768.26259860000005
1040
51.651433400000002
1070
     1
1040
768.26259860000005
1040
51.651433400000002
1040
766.5607986
1040
51.651433400000002
1070
     1
1040
766.5607986
1040
51.651433400000002
1040
766.5607986
1040
54.769283399999999
1070
     1
1040
766.5607986
1040
54.769283399999999
1040
764.57642359999988
1040
54.769283399999999
1070
     1
1040
764.57642359999988
1040
54.769283399999999
1040
764.57642359999988
1040
51.651433400000002
1071
        1
1005
25B
1070
     0
1070
     1
1071
        1
1040
0.0
1040
0.0
1040
0.0
1002
}
  0
POLYLINE
  5
25D
  8
0
  6
CONTINUOUS
 62
     2
 66
     1
 10
0.0
 20
0.0
 30
0.0
  0
VERTEX
  5
B45
  8
0
  6
CONTINUOUS
 62
     2
 10
773.02509859999986
 20
51.651433400000002
 30
0.0
  0
VERTEX
  5
B46
  8
0
  6
CONTINUOUS
 62
     2
 10
769.05634859999998
 20
51.651433400000002
 30
0.0
  0
VERTEX
  5
B47
  8
0
  6
CONTINUOUS
 62
     2
 10
769.05634859999998
 20
58.795183399999999
 30
0.0
  0
VERTEX
  5
B48
  8
0
  6
CONTINUOUS
 62
     2
 10
770.75814860000003
 20
58.795183399999999
 30
0.0
  0
VERTEX
  5
B49
  8
0
  6
CONTINUOUS
 62
     2
 10
770.75814860000003
 20
53.353233400000001
 30
0.0
  0
VERTEX
  5
B4A
  8
0
  6
CONTINUOUS
 62
     2
 10
773.02509859999986
 20
53.353233400000001
 30
0.0
  0
VERTEX
  5
B4B
  8
0
  6
CONTINUOUS
 62
     2
 10
773.02509859999986
 20
51.651433400000002
 30
0.0
  0
SEQEND
  5
B4C
  8
0
  6
CONTINUOUS
 62
     2
  0
INSERT
  5
25E
  8
0
  6
CONTINUOUS
 62
     2
  2
*U13
 10
0.0
 20
0.0
 30
0.0
1001
ACAD
1002
{
1000
R14_HATCH_DATA
1000
25E
1011
1.0
1021
1.0
1031
0.0
1021
0.0
1031
0.0
1011
0.0
1021
1.0
1031
0.0
1021
1.0
1031
0.0
1011
0.0
1021
1.0
1031
0.0
1021
0.0
1031
1.0
1040
0.0
1010
0.0
1020
0.0
1030
1.0
1000
SOLID
1070
     1
1070
     1
1071
        1
1071
        1
1071
        6
1070
     1
1040
773.02509859999986
1040
51.651433400000002
1040
769.05634859999998
1040
51.651433400000002
1070
     1
1040
769.05634859999998
1040
51.651433400000002
1040
769.05634859999998
1040
58.795183399999999
1070
     1
1040
769.05634859999998
1040
58.795183399999999
1040
770.75814860000003
1040
58.795183399999999
1070
     1
1040
770.75814860000003
1040
58.795183399999999
1040
770.75814860000003
1040
53.353233400000001
1070
     1
1040
770.75814860000003
1040
53.353233400000001
1040
773.02509859999986
1040
53.353233400000001
1070
     1
1040
773.02509859999986
1040
53.353233400000001
1040
773.02509859999986
1040
51.651433400000002
1071
        1
1005
25D
1070
     0
1070
     1
1071
        1
1040
0.0
1040
0.0
1040
0.0
1002
}
  0
POLYLINE
  5
25F
  8
0
  6
CONTINUOUS
 62
     2
 66
     1
 10
0.0
 20
0.0
 30
0.0
  0
VERTEX
  5
B5E
  8
0
  6
CONTINUOUS
 62
     2
 10
777.78759860000002
 20
51.651433400000002
 30
0.0
  0
VERTEX
  5
B5F
  8
0
  6
CONTINUOUS
 62
     2
 10
773.81884860000002
 20
51.651433400000002
 30
0.0
  0
VERTEX
  5
B60
  8
0
  6
CONTINUOUS
 62
     2
 10
773.81884860000002
 20
58.795183399999999
 30
0.0
  0
VERTEX
  5
B61
  8
0
  6
CONTINUOUS
 62
     2
 10
777.78759860000002
 20
58.795183399999999
 30
0.0
  0
VERTEX
  5
B62
  8
0
  6
CONTINUOUS
 62
     2
 10
777.78759860000002
 20
57.0933834
 30
0.0
  0
VERTEX
  5
B63
  8
0
  6
CONTINUOUS
 62
     2
 10
775.52064859999984
 20
57.0933834
 30
0.0
  0
VERTEX
  5
B64
  8
0
  6
CONTINUOUS
 62
     2
 10
775.52064859999984
 20
55.875770899999992
 30
0.0
  0
VERTEX
  5
B65
  8
0
  6
CONTINUOUS
 62
     2
 10
777.78759860000002
 20
55.875770899999992
 30
0.0
  0
VERTEX
  5
B66
  8
0
  6
CONTINUOUS
 62
     2
 10
777.78759860000002
 20
54.570845900000002
 30
0.0
  0
VERTEX
  5
B67
  8
0
  6
CONTINUOUS
 62
     2
 10
775.52064859999984
 20
54.570845900000002
 30
0.0
  0
VERTEX
  5
B68
  8
0
  6
CONTINUOUS
 62
     2
 10
775.52064859999984
 20
53.353233400000001
 30
0.0
  0
VERTEX
  5
B69
  8
0
  6
CONTINUOUS
 62
     2
 10
777.78759860000002
 20
53.353233400000001
 30
0.0
  0
VERTEX
  5
B6A
  8
0
  6
CONTINUOUS
 62
     2
 10
777.78759860000002
 20
51.651433400000002
 30
0.0
  0
SEQEND
  5
B6B
  8
0
  6
CONTINUOUS
 62
     2
  0
INSERT
  5
260
  8
0
  6
CONTINUOUS
 62
     2
  2
*U14
 10
0.0
 20
0.0
 30
0.0
1001
ACAD
1002
{
1000
R14_HATCH_DATA
1000
260
1011
1.0
1021
1.0
1031
0.0
1021
0.0
1031
0.0
1011
0.0
1021
1.0
1031
0.0
1021
1.0
1031
0.0
1011
0.0
1021
1.0
1031
0.0
1021
0.0
1031
1.0
1040
0.0
1010
0.0
1020
0.0
1030
1.0
1000
SOLID
1070
     1
1070
     1
1071
        1
1071
        1
1071
       12
1070
     1
1040
777.78759860000002
1040
51.651433400000002
1040
773.81884860000002
1040
51.651433400000002
1070
     1
1040
773.81884860000002
1040
51.651433400000002
1040
773.81884860000002
1040
58.795183399999999
1070
     1
1040
773.81884860000002
1040
58.795183399999999
1040
777.78759860000002
1040
58.795183399999999
1070
     1
1040
777.78759860000002
1040
58.795183399999999
1040
777.78759860000002
1040
57.0933834
1070
     1
1040
777.78759860000002
1040
57.0933834
1040
775.52064859999984
1040
57.0933834
1070
     1
1040
775.52064859999984
1040
57.0933834
1040
775.52064859999984
1040
55.875770899999992
1070
     1
1040
775.52064859999984
1040
55.875770899999992
1040
777.78759860000002
1040
55.875770899999992
1070
     1
1040
777.78759860000002
1040
55.875770899999992
1040
777.78759860000002
1040
54.570845900000002
1070
     1
1040
777.78759860000002
1040
54.570845900000002
1040
775.52064859999984
1040
54.570845900000002
1070
     1
1040
775.52064859999984
1040
54.570845900000002
1040
775.52064859999984
1040
53.353233400000001
1070
     1
1040
775.52064859999984
1040
53.353233400000001
1040
777.78759860000002
1040
53.353233400000001
1070
     1
1040
777.78759860000002
1040
53.353233400000001
1040
777.78759860000002
1040
51.651433400000002
1071
        1
1005
25F
1070
     0
1070
     1
1071
        1
1040
0.0
1040
0.0
1040
0.0
1002
}
  0
ENDBLK
  5
261
  8
0
  6
BYBLOCK
 62
     0
  0
BLOCK
  8
0
  6
CONTINUOUS
 62
     2
  2
C_ARROW_BL1
 70
     0
 10
431.80000000000001
 20
7.9375
 30
0.0
  3
C_ARROW_BL1
  1

  0
LINE
  5
263
  8
0
  6
CONTINUOUS
 10
431.80000000000001
 20
12.699999999999999
 30
0.0
 11
429.41874999999987
 21
7.9375
 31
0.0
  0
LINE
  5
264
  8
0
  6
CONTINUOUS
 10
431.80000000000001
 20
12.699999999999999
 30
0.0
 11
434.18124999999992
 21
7.9375
 31
0.0
  0
LINE
  5
265
  8
0
  6
CONTINUOUS
 10
432.39531249999999
 20
7.9375
 30
0.0
 11
434.18124999999992
 21
7.9375
 31
0.0
  0
LINE
  5
266
  8
0
  6
CONTINUOUS
 10
432.39531249999999
 20
3.1749999999999989
 30
0.0
 11
432.39531249999999
 21
7.9375
 31
0.0
  0
LINE
  5
267
  8
0
  6
CONTINUOUS
 10
432.39531249999999
 20
3.1749999999999989
 30
0.0
 11
431.20468749999998
 21
3.1749999999999989
 31
0.0
  0
LINE
  5
268
  8
0
  6
CONTINUOUS
 10
431.20468749999998
 20
7.9375
 30
0.0
 11
431.20468749999998
 21
3.1749999999999989
 31
0.0
  0
LINE
  5
269
  8
0
  6
CONTINUOUS
 10
429.41874999999987
 20
7.9375
 30
0.0
 11
431.20468749999998
 21
7.9375
 31
0.0
  0
POLYLINE
  5
26A
  8
0
  6
CONTINUOUS
 62
     7
 66
     1
 10
0.0
 20
0.0
 30
0.0
  0
VERTEX
  5
B8F
  8
0
  6
CONTINUOUS
 62
     7
 10
431.80000000000001
 20
12.699999999999999
 30
0.0
  0
VERTEX
  5
B90
  8
0
  6
CONTINUOUS
 62
     7
 10
434.18124999999992
 20
7.9375
 30
0.0
  0
VERTEX
  5
B91
  8
0
  6
CONTINUOUS
 62
     7
 10
432.39531249999999
 20
7.9375
 30
0.0
  0
VERTEX
  5
B92
  8
0
  6
CONTINUOUS
 62
     7
 10
432.39531249999999
 20
3.1749999999999989
 30
0.0
  0
VERTEX
  5
B93
  8
0
  6
CONTINUOUS
 62
     7
 10
431.20468749999998
 20
3.1749999999999989
 30
0.0
  0
VERTEX
  5
B94
  8
0
  6
CONTINUOUS
 62
     7
 10
431.20468749999998
 20
7.9375
 30
0.0
  0
VERTEX
  5
B95
  8
0
  6
CONTINUOUS
 62
     7
 10
429.41874999999987
 20
7.9375
 30
0.0
  0
VERTEX
  5
B96
  8
0
  6
CONTINUOUS
 62
     7
 10
431.80000000000001
 20
12.699999999999999
 30
0.0
  0
SEQEND
  5
B97
  8
0
  6
CONTINUOUS
 62
     7
  0
INSERT
  5
26B
  8
0
  6
CONTINUOUS
 62
     7
  2
*U15
 10
0.0
 20
0.0
 30
0.0
1001
ACAD
1002
{
1000
R14_HATCH_DATA
1000
26B
1011
1.0
1021
1.0
1031
0.0
1021
0.0
1031
0.0
1011
0.0
1021
1.0
1031
0.0
1021
1.0
1031
0.0
1011
0.0
1021
1.0
1031
0.0
1021
0.0
1031
1.0
1040
0.0
1010
0.0
1020
0.0
1030
1.0
1000
SOLID
1070
     1
1070
     1
1071
        1
1071
        1
1071
        7
1070
     1
1040
431.80000000000001
1040
12.699999999999999
1040
434.18124999999992
1040
7.9375
1070
     1
1040
434.18124999999992
1040
7.9375
1040
432.39531249999999
1040
7.9375
1070
     1
1040
432.39531249999999
1040
7.9375
1040
432.39531249999999
1040
3.1749999999999989
1070
     1
1040
432.39531249999999
1040
3.1749999999999989
1040
431.20468749999998
1040
3.1749999999999989
1070
     1
1040
431.20468749999998
1040
3.1749999999999989
1040
431.20468749999998
1040
7.9375
1070
     1
1040
431.20468749999998
1040
7.9375
1040
429.41874999999987
1040
7.9375
1070
     1
1040
429.41874999999987
1040
7.9375
1040
431.80000000000001
1040
12.699999999999999
1071
        1
1005
26A
1070
     0
1070
     1
1071
        1
1040
0.0
1040
0.0
1040
0.0
1002
}
  0
ENDBLK
  5
26C
  8
0
  6
BYBLOCK
 62
     0
  0
BLOCK
  8
0
  6
CONTINUOUS
 62
     2
  2
C_ARROW_BL2
 70
     0
 10
431.80000000000001
 20
550.86249999999995
 30
0.0
  3
C_ARROW_BL2
  1

  0
LINE
  5
26E
  8
0
  6
CONTINUOUS
 10
431.80000000000001
 20
546.10000000000002
 30
0.0
 11
434.18124999999992
 21
550.86249999999995
 31
0.0
  0
LINE
  5
26F
  8
0
  6
CONTINUOUS
 10
431.80000000000001
 20
546.10000000000002
 30
0.0
 11
429.41874999999987
 21
550.86249999999995
 31
0.0
  0
LINE
  5
270
  8
0
  6
CONTINUOUS
 10
431.20468749999998
 20
550.86249999999995
 30
0.0
 11
429.41874999999987
 21
550.86249999999995
 31
0.0
  0
LINE
  5
271
  8
0
  6
CONTINUOUS
 10
431.20468749999998
 20
555.625
 30
0.0
 11
431.20468749999998
 21
550.86249999999995
 31
0.0
  0
LINE
  5
272
  8
0
  6
CONTINUOUS
 10
431.20468749999998
 20
555.625
 30
0.0
 11
432.39531249999999
 21
555.625
 31
0.0
  0
LINE
  5
273
  8
0
  6
CONTINUOUS
 10
432.39531249999999
 20
550.86249999999995
 30
0.0
 11
432.39531249999999
 21
555.625
 31
0.0
  0
LINE
  5
274
  8
0
  6
CONTINUOUS
 10
434.18124999999992
 20
550.86249999999995
 30
0.0
 11
432.39531249999999
 21
550.86249999999995
 31
0.0
  0
POLYLINE
  5
275
  8
0
  6
CONTINUOUS
 62
     7
 66
     1
 10
0.0
 20
0.0
 30
0.0
  0
VERTEX
  5
BA8
  8
0
  6
CONTINUOUS
 62
     7
 10
431.80000000000001
 20
546.10000000000002
 30
0.0
  0
VERTEX
  5
BA9
  8
0
  6
CONTINUOUS
 62
     7
 10
429.41874999999987
 20
550.86249999999995
 30
0.0
  0
VERTEX
  5
BAA
  8
0
  6
CONTINUOUS
 62
     7
 10
431.20468749999998
 20
550.86249999999995
 30
0.0
  0
VERTEX
  5
BAB
  8
0
  6
CONTINUOUS
 62
     7
 10
431.20468749999998
 20
555.625
 30
0.0
  0
VERTEX
  5
BAC
  8
0
  6
CONTINUOUS
 62
     7
 10
432.39531249999999
 20
555.625
 30
0.0
  0
VERTEX
  5
BAD
  8
0
  6
CONTINUOUS
 62
     7
 10
432.39531249999999
 20
550.86249999999995
 30
0.0
  0
VERTEX
  5
BAE
  8
0
  6
CONTINUOUS
 62
     7
 10
434.18124999999992
 20
550.86249999999995
 30
0.0
  0
VERTEX
  5
BAF
  8
0
  6
CONTINUOUS
 62
     7
 10
431.80000000000001
 20
546.10000000000002
 30
0.0
  0
SEQEND
  5
BB0
  8
0
  6
CONTINUOUS
 62
     7
  0
INSERT
  5
276
  8
0
  6
CONTINUOUS
 62
     7
  2
*U16
 10
0.0
 20
0.0
 30
0.0
1001
ACAD
1002
{
1000
R14_HATCH_DATA
1000
276
1011
1.0
1021
1.0
1031
0.0
1021
0.0
1031
0.0
1011
0.0
1021
1.0
1031
0.0
1021
1.0
1031
0.0
1011
0.0
1021
1.0
1031
0.0
1021
0.0
1031
1.0
1040
0.0
1010
0.0
1020
0.0
1030
1.0
1000
SOLID
1070
     1
1070
     1
1071
        1
1071
        1
1071
        7
1070
     1
1040
431.80000000000001
1040
546.10000000000002
1040
429.41874999999987
1040
550.86249999999995
1070
     1
1040
429.41874999999987
1040
550.86249999999995
1040
431.20468749999998
1040
550.86249999999995
1070
     1
1040
431.20468749999998
1040
550.86249999999995
1040
431.20468749999998
1040
555.625
1070
     1
1040
431.20468749999998
1040
555.625
1040
432.39531249999999
1040
555.625
1070
     1
1040
432.39531249999999
1040
555.625
1040
432.39531249999999
1040
550.86249999999995
1070
     1
1040
432.39531249999999
1040
550.86249999999995
1040
434.18124999999992
1040
550.86249999999995
1070
     1
1040
434.18124999999992
1040
550.86249999999995
1040
431.80000000000001
1040
546.10000000000002
1071
        1
1005
275
1070
     0
1070
     1
1071
        1
1040
0.0
1040
0.0
1040
0.0
1002
}
  0
ENDBLK
  5
277
  8
0
  6
BYBLOCK
 62
     0
  0
BLOCK
  8
0
  6
CONTINUOUS
 62
     2
  2
C_ARROW_BL3
 70
     0
 10
7.9375
 20
279.39999999999998
 30
0.0
  3
C_ARROW_BL3
  1

  0
LINE
  5
279
  8
0
  6
CONTINUOUS
 10
12.699999999999999
 20
279.39999999999998
 30
0.0
 11
7.9375
 21
281.78125
 31
0.0
  0
LINE
  5
27A
  8
0
  6
CONTINUOUS
 10
12.699999999999999
 20
279.39999999999998
 30
0.0
 11
7.9375
 21
277.01875000000001
 31
0.0
  0
LINE
  5
27B
  8
0
  6
CONTINUOUS
 10
7.9375
 20
278.8046875
 30
0.0
 11
7.9375
 21
277.01875000000001
 31
0.0
  0
LINE
  5
27C
  8
0
  6
CONTINUOUS
 10
3.1749999999999989
 20
278.8046875
 30
0.0
 11
7.9375
 21
278.8046875
 31
0.0
  0
LINE
  5
27D
  8
0
  6
CONTINUOUS
 10
3.1749999999999989
 20
278.8046875
 30
0.0
 11
3.1749999999999989
 21
279.99531250000001
 31
0.0
  0
LINE
  5
27E
  8
0
  6
CONTINUOUS
 10
7.9375
 20
279.99531250000001
 30
0.0
 11
3.1749999999999989
 21
279.99531250000001
 31
0.0
  0
LINE
  5
27F
  8
0
  6
CONTINUOUS
 10
7.9375
 20
281.78125
 30
0.0
 11
7.9375
 21
279.99531250000001
 31
0.0
  0
POLYLINE
  5
280
  8
0
  6
CONTINUOUS
 62
     7
 66
     1
 10
0.0
 20
0.0
 30
0.0
  0
VERTEX
  5
BC1
  8
0
  6
CONTINUOUS
 62
     7
 10
12.699999999999999
 20
279.39999999999998
 30
0.0
  0
VERTEX
  5
BC2
  8
0
  6
CONTINUOUS
 62
     7
 10
7.9375
 20
277.01875000000001
 30
0.0
  0
VERTEX
  5
BC3
  8
0
  6
CONTINUOUS
 62
     7
 10
7.9375
 20
278.8046875
 30
0.0
  0
VERTEX
  5
BC4
  8
0
  6
CONTINUOUS
 62
     7
 10
3.1749999999999989
 20
278.8046875
 30
0.0
  0
VERTEX
  5
BC5
  8
0
  6
CONTINUOUS
 62
     7
 10
3.1749999999999989
 20
279.99531250000001
 30
0.0
  0
VERTEX
  5
BC6
  8
0
  6
CONTINUOUS
 62
     7
 10
7.9375
 20
279.99531250000001
 30
0.0
  0
VERTEX
  5
BC7
  8
0
  6
CONTINUOUS
 62
     7
 10
7.9375
 20
281.78125
 30
0.0
  0
VERTEX
  5
BC8
  8
0
  6
CONTINUOUS
 62
     7
 10
12.699999999999999
 20
279.39999999999998
 30
0.0
  0
SEQEND
  5
BC9
  8
0
  6
CONTINUOUS
 62
     7
  0
INSERT
  5
281
  8
0
  6
CONTINUOUS
 62
     7
  2
*U17
 10
0.0
 20
0.0
 30
0.0
1001
ACAD
1002
{
1000
R14_HATCH_DATA
1000
281
1011
1.0
1021
1.0
1031
0.0
1021
0.0
1031
0.0
1011
0.0
1021
1.0
1031
0.0
1021
1.0
1031
0.0
1011
0.0
1021
1.0
1031
0.0
1021
0.0
1031
1.0
1040
0.0
1010
0.0
1020
0.0
1030
1.0
1000
SOLID
1070
     1
1070
     1
1071
        1
1071
        1
1071
        7
1070
     1
1040
12.699999999999999
1040
279.39999999999998
1040
7.9375
1040
277.01875000000001
1070
     1
1040
7.9375
1040
277.01875000000001
1040
7.9375
1040
278.8046875
1070
     1
1040
7.9375
1040
278.8046875
1040
3.1749999999999989
1040
278.8046875
1070
     1
1040
3.1749999999999989
1040
278.8046875
1040
3.1749999999999989
1040
279.99531250000001
1070
     1
1040
3.1749999999999989
1040
279.99531250000001
1040
7.9375
1040
279.99531250000001
1070
     1
1040
7.9375
1040
279.99531250000001
1040
7.9375
1040
281.78125
1070
     1
1040
7.9375
1040
281.78125
1040
12.699999999999999
1040
279.39999999999998
1071
        1
1005
280
1070
     0
1070
     1
1071
        1
1040
0.0
1040
0.0
1040
0.0
1002
}
  0
ENDBLK
  5
282
  8
0
  6
BYBLOCK
 62
     0
  0
BLOCK
  8
0
  6
CONTINUOUS
 62
     2
  2
C_ARROW_BL4
 70
     0
 10
855.66250000000002
 20
279.39999999999998
 30
0.0
  3
C_ARROW_BL4
  1

  0
LINE
  5
284
  8
0
  6
CONTINUOUS
 10
850.89999999999998
 20
279.39999999999998
 30
0.0
 11
855.66250000000002
 21
277.01875000000001
 31
0.0
  0
LINE
  5
285
  8
0
  6
CONTINUOUS
 10
850.89999999999998
 20
279.39999999999998
 30
0.0
 11
855.66250000000002
 21
281.78125
 31
0.0
  0
LINE
  5
286
  8
0
  6
CONTINUOUS
 10
855.66250000000002
 20
279.99531250000001
 30
0.0
 11
855.66250000000002
 21
281.78125
 31
0.0
  0
LINE
  5
287
  8
0
  6
CONTINUOUS
 10
860.42499999999995
 20
279.99531250000001
 30
0.0
 11
855.66250000000002
 21
279.99531250000001
 31
0.0
  0
LINE
  5
288
  8
0
  6
CONTINUOUS
 10
860.42499999999995
 20
279.99531250000001
 30
0.0
 11
860.42499999999995
 21
278.8046875
 31
0.0
  0
LINE
  5
289
  8
0
  6
CONTINUOUS
 10
855.66250000000002
 20
278.8046875
 30
0.0
 11
860.42499999999995
 21
278.8046875
 31
0.0
  0
LINE
  5
28A
  8
0
  6
CONTINUOUS
 10
855.66250000000002
 20
277.01875000000001
 30
0.0
 11
855.66250000000002
 21
278.8046875
 31
0.0
  0
POLYLINE
  5
28B
  8
0
  6
CONTINUOUS
 62
     7
 66
     1
 10
0.0
 20
0.0
 30
0.0
  0
VERTEX
  5
BDF
  8
0
  6
CONTINUOUS
 62
     7
 10
850.89999999999998
 20
279.39999999999998
 30
0.0
  0
VERTEX
  5
BE0
  8
0
  6
CONTINUOUS
 62
     7
 10
855.66250000000002
 20
281.78125
 30
0.0
  0
VERTEX
  5
BE1
  8
0
  6
CONTINUOUS
 62
     7
 10
855.66250000000002
 20
279.99531250000001
 30
0.0
  0
VERTEX
  5
BE2
  8
0
  6
CONTINUOUS
 62
     7
 10
860.42499999999995
 20
279.99531250000001
 30
0.0
  0
VERTEX
  5
BE3
  8
0
  6
CONTINUOUS
 62
     7
 10
860.42499999999995
 20
278.8046875
 30
0.0
  0
VERTEX
  5
BE4
  8
0
  6
CONTINUOUS
 62
     7
 10
855.66250000000002
 20
278.8046875
 30
0.0
  0
VERTEX
  5
BE5
  8
0
  6
CONTINUOUS
 62
     7
 10
855.66250000000002
 20
277.01875000000001
 30
0.0
  0
VERTEX
  5
BE6
  8
0
  6
CONTINUOUS
 62
     7
 10
850.89999999999998
 20
279.39999999999998
 30
0.0
  0
SEQEND
  5
BE7
  8
0
  6
CONTINUOUS
 62
     7
  0
INSERT
  5
28C
  8
0
  6
CONTINUOUS
 62
     7
  2
*U18
 10
0.0
 20
0.0
 30
0.0
1001
ACAD
1002
{
1000
R14_HATCH_DATA
1000
28C
1011
1.0
1021
1.0
1031
0.0
1021
0.0
1031
0.0
1011
0.0
1021
1.0
1031
0.0
1021
1.0
1031
0.0
1011
0.0
1021
1.0
1031
0.0
1021
0.0
1031
1.0
1040
0.0
1010
0.0
1020
0.0
1030
1.0
1000
SOLID
1070
     1
1070
     1
1071
        1
1071
        1
1071
        7
1070
     1
1040
850.89999999999998
1040
279.39999999999998
1040
855.66250000000002
1040
281.78125
1070
     1
1040
855.66250000000002
1040
281.78125
1040
855.66250000000002
1040
279.99531250000001
1070
     1
1040
855.66250000000002
1040
279.99531250000001
1040
860.42499999999995
1040
279.99531250000001
1070
     1
1040
860.42499999999995
1040
279.99531250000001
1040
860.42499999999995
1040
278.8046875
1070
     1
1040
860.42499999999995
1040
278.8046875
1040
855.66250000000002
1040
278.8046875
1070
     1
1040
855.66250000000002
1040
278.8046875
1040
855.66250000000002
1040
277.01875000000001
1070
     1
1040
855.66250000000002
1040
277.01875000000001
1040
850.89999999999998
1040
279.39999999999998
1071
        1
1005
28B
1070
     0
1070
     1
1071
        1
1040
0.0
1040
0.0
1040
0.0
1002
}
  0
ENDBLK
  5
28D
  8
0
  6
BYBLOCK
 62
     0
  0
BLOCK
  8
0
  2
GENAXEH
 70
     0
 10
0.0
 20
0.0
 30
0.0
  3
GENAXEH
  1

  0
LINE
  5
7A4
  8
0
 10
-1.0
 20
0.0
 30
0.0
 11
1.0
 21
0.0
 31
0.0
  0
ENDBLK
  5
7A6
  8
0
  0
BLOCK
  8
0
  2
*U7
 70
     1
 10
0.0
 20
0.0
 30
0.0
  3
*U7
  1

  0
SOLID
  5
9BF
  8
0
  6
CONTINUOUS
 62
     2
 10
778.58134859999996
 20
57.41088340000001
 30
0.0
 11
778.58134859999996
 21
57.41088340000001
 31
0.0
 12
780.2831486
 22
57.41088340000001
 32
0.0
 13
780.2831486
 23
57.41088340000001
 33
0.0
210
0.0
220
0.0
230
1.0
  0
SOLID
  5
9C0
  8
0
  6
CONTINUOUS
 62
     2
 10
778.58134859999996
 20
57.41088340000001
 30
0.0
 11
778.58134859999996
 21
55.8535459
 31
0.0
 12
780.2831486
 22
55.8535459
 32
0.0
 13
780.2831486
 23
55.8535459
 33
0.0
  0
SOLID
  5
9C1
  8
0
  6
CONTINUOUS
 62
     2
 10
-778.58134859999996
 20
57.41088340000001
 30
0.0
 11
-780.2831486
 21
57.41088340000001
 31
0.0
 12
-780.2831486
 22
55.8535459
 32
0.0
 13
-780.2831486
 23
55.8535459
 33
0.0
210
0.0
220
0.0
230
-1.0
  0
SOLID
  5
9C2
  8
0
  6
CONTINUOUS
 62
     2
 10
780.2831486
 20
55.8535459
 30
0.0
 11
780.2831486
 21
55.8535459
 31
0.0
 12
781.13087359999986
 22
55.8535459
 32
0.0
 13
781.13087359999986
 23
55.8535459
 33
0.0
210
0.0
220
0.0
230
1.0
  0
SOLID
  5
9C3
  8
0
  6
CONTINUOUS
 62
     2
 10
781.13087359999986
 20
55.8535459
 30
0.0
 11
781.13087359999986
 21
55.8535459
 31
0.0
 12
783.1747134023999
 22
55.8535459
 32
0.0
 13
783.1747134023999
 23
55.8535459
 33
0.0
210
0.0
220
0.0
230
1.0
  0
SOLID
  5
9C4
  8
0
  6
CONTINUOUS
 62
     2
 10
778.58134859999996
 20
55.8535459
 30
0.0
 11
778.58134859999996
 21
55.360395152700001
 31
0.0
 12
782.94911527570002
 22
55.360395152700001
 32
0.0
 13
782.94911527570002
 23
55.360395152700001
 33
0.0
  0
SOLID
  5
9C5
  8
0
  6
CONTINUOUS
 62
     2
 10
-778.58134859999996
 20
55.8535459
 30
0.0
 11
-783.1747134023999
 21
55.8535459
 31
0.0
 12
-782.94911527570002
 22
55.360395152700001
 32
0.0
 13
-782.94911527570002
 23
55.360395152700001
 33
0.0
210
0.0
220
0.0
230
-1.0
  0
SOLID
  5
9C6
  8
0
  6
CONTINUOUS
 62
     2
 10
778.58134859999996
 20
55.360395152700001
 30
0.0
 11
778.58134859999996
 21
54.8063228444
 31
0.0
 12
782.38694834440003
 22
54.8063228444
 32
0.0
 13
782.38694834440003
 23
54.8063228444
 33
0.0
210
0.0
220
0.0
230
1.0
  0
SOLID
  5
9C7
  8
0
  6
CONTINUOUS
 62
     2
 10
-778.58134859999996
 20
55.360395152700001
 30
0.0
 11
-782.94911527570002
 21
55.360395152700001
 31
0.0
 12
-782.38694834440003
 22
54.8063228444
 32
0.0
 13
-782.38694834440003
 23
54.8063228444
 33
0.0
210
0.0
220
0.0
230
-1.0
  0
SOLID
  5
9C8
  8
0
  6
CONTINUOUS
 62
     2
 10
778.58134859999996
 20
54.8063228444
 30
0.0
 11
778.58134859999996
 21
54.429558399999991
 31
0.0
 12
782.59601518573106
 22
54.429558399999991
 32
0.0
 13
782.59601518573106
 23
54.429558399999991
 33
0.0
210
0.0
220
0.0
230
1.0
  0
SOLID
  5
9C9
  8
0
  6
CONTINUOUS
 62
     2
 10
-778.58134859999996
 20
54.8063228444
 30
0.0
 11
-782.38694834440003
 21
54.8063228444
 31
0.0
 12
-782.59601518573106
 22
54.429558399999991
 32
0.0
 13
-782.59601518573106
 23
54.429558399999991
 33
0.0
210
0.0
220
0.0
230
-1.0
  0
SOLID
  5
9CA
  8
0
  6
CONTINUOUS
 62
     2
 10
780.2831486
 20
54.429558399999991
 30
0.0
 11
780.2831486
 21
54.429558399999991
 31
0.0
 12
780.64976692189987
 22
54.429558399999991
 32
0.0
 13
780.64976692189987
 23
54.429558399999991
 33
0.0
210
0.0
220
0.0
230
1.0
  0
SOLID
  5
9CB
  8
0
  6
CONTINUOUS
 62
     2
 10
778.58134859999996
 20
54.429558399999991
 30
0.0
 11
778.58134859999996
 21
51.651433400000002
 31
0.0
 12
780.2831486
 22
51.651433400000002
 32
0.0
 13
780.2831486
 23
51.651433400000002
 33
0.0
210
0.0
220
0.0
230
1.0
  0
SOLID
  5
9CC
  8
0
  6
CONTINUOUS
 62
     2
 10
-778.58134859999996
 20
54.429558399999991
 30
0.0
 11
-780.2831486
 21
54.429558399999991
 31
0.0
 12
-780.2831486
 22
51.651433400000002
 32
0.0
 13
-780.2831486
 23
51.651433400000002
 33
0.0
210
0.0
220
0.0
230
-1.0
  0
SOLID
  5
9CD
  8
0
  6
CONTINUOUS
 62
     2
 10
780.64976692189987
 20
54.429558399999991
 30
0.0
 11
782.19135033600003
 21
51.651433400000002
 31
0.0
 12
784.13759860000005
 22
51.651433400000002
 32
0.0
 13
784.13759860000005
 23
51.651433400000002
 33
0.0
210
0.0
220
0.0
230
1.0
  0
SOLID
  5
9CE
  8
0
  6
CONTINUOUS
 62
     2
 10
-780.64976692189987
 20
54.429558399999991
 30
0.0
 11
-782.59601518573106
 21
54.429558399999991
 31
0.0
 12
-784.13759860000005
 22
51.651433400000002
 32
0.0
 13
-784.13759860000005
 23
51.651433400000002
 33
0.0
210
0.0
220
0.0
230
-1.0
  0
SOLID
  5
9CF
  8
0
  6
CONTINUOUS
 62
     2
 10
778.58134859999996
 20
51.651433400000002
 30
0.0
 11
778.58134859999996
 21
51.651433400000002
 31
0.0
 12
780.2831486
 22
51.651433400000002
 32
0.0
 13
780.2831486
 23
51.651433400000002
 33
0.0
210
0.0
220
0.0
230
1.0
  0
SOLID
  5
9D0
  8
0
  6
CONTINUOUS
 62
     2
 10
782.19135033600003
 20
51.651433400000002
 30
0.0
 11
782.19135033600003
 21
51.651433400000002
 31
0.0
 12
784.13759860000005
 22
51.651433400000002
 32
0.0
 13
784.13759860000005
 23
51.651433400000002
 33
0.0
210
0.0
220
0.0
230
1.0
  0
LINE
  5
9D1
  8
0
  6
CONTINUOUS
 62
     2
 10
778.58134859999996
 20
57.41088340000001
 30
0.0
 11
780.2831486
 21
57.41088340000001
 31
0.0
  0
LINE
  5
9D2
  8
0
  6
CONTINUOUS
 62
     2
 10
778.58134859999996
 20
57.41088340000001
 30
0.0
 11
778.58134859999996
 21
55.8535459
 31
0.0
  0
LINE
  5
9D3
  8
0
  6
CONTINUOUS
 62
     2
 10
780.2831486
 20
57.41088340000001
 30
0.0
 11
780.2831486
 21
55.8535459
 31
0.0
  0
LINE
  5
9D4
  8
0
  6
CONTINUOUS
 62
     2
 10
780.2831486
 20
55.8535459
 30
0.0
 11
781.13087359999986
 21
55.8535459
 31
0.0
  0
LINE
  5
9D5
  8
0
  6
CONTINUOUS
 62
     2
 10
781.13087359999986
 20
55.8535459
 30
0.0
 11
783.1747134023999
 21
55.8535459
 31
0.0
  0
LINE
  5
9D6
  8
0
  6
CONTINUOUS
 62
     2
 10
778.58134859999996
 20
55.8535459
 30
0.0
 11
778.58134859999996
 21
55.360395152700001
 31
0.0
  0
LINE
  5
9D7
  8
0
  6
CONTINUOUS
 62
     2
 10
783.1747134023999
 20
55.8535459
 30
0.0
 11
782.94911527570002
 21
55.360395152700001
 31
0.0
  0
LINE
  5
9D8
  8
0
  6
CONTINUOUS
 62
     2
 10
778.58134859999996
 20
55.360395152700001
 30
0.0
 11
778.58134859999996
 21
54.8063228444
 31
0.0
  0
LINE
  5
9D9
  8
0
  6
CONTINUOUS
 62
     2
 10
782.94911527570002
 20
55.360395152700001
 30
0.0
 11
782.38694834440003
 21
54.8063228444
 31
0.0
  0
LINE
  5
9DA
  8
0
  6
CONTINUOUS
 62
     2
 10
778.58134859999996
 20
54.8063228444
 30
0.0
 11
778.58134859999996
 21
54.429558399999991
 31
0.0
  0
LINE
  5
9DB
  8
0
  6
CONTINUOUS
 62
     2
 10
782.38694834440003
 20
54.8063228444
 30
0.0
 11
782.59601518573106
 21
54.429558399999991
 31
0.0
  0
LINE
  5
9DC
  8
0
  6
CONTINUOUS
 62
     2
 10
780.2831486
 20
54.429558399999991
 30
0.0
 11
780.64976692189987
 21
54.429558399999991
 31
0.0
  0
LINE
  5
9DD
  8
0
  6
CONTINUOUS
 62
     2
 10
778.58134859999996
 20
54.429558399999991
 30
0.0
 11
778.58134859999996
 21
51.651433400000002
 31
0.0
  0
LINE
  5
9DE
  8
0
  6
CONTINUOUS
 62
     2
 10
780.2831486
 20
54.429558399999991
 30
0.0
 11
780.2831486
 21
51.651433400000002
 31
0.0
  0
LINE
  5
9DF
  8
0
  6
CONTINUOUS
 62
     2
 10
780.64976692189987
 20
54.429558399999991
 30
0.0
 11
782.19135033600003
 21
51.651433400000002
 31
0.0
  0
LINE
  5
9E0
  8
0
  6
CONTINUOUS
 62
     2
 10
782.59601518573106
 20
54.429558399999991
 30
0.0
 11
784.13759860000005
 21
51.651433400000002
 31
0.0
  0
LINE
  5
9E1
  8
0
  6
CONTINUOUS
 62
     2
 10
778.58134859999996
 20
51.651433400000002
 30
0.0
 11
780.2831486
 21
51.651433400000002
 31
0.0
  0
LINE
  5
9E2
  8
0
  6
CONTINUOUS
 62
     2
 10
782.19135033600003
 20
51.651433400000002
 30
0.0
 11
784.13759860000005
 21
51.651433400000002
 31
0.0
  0
ENDBLK
  5
9E4
  8
0
  0
BLOCK
  8
0
  2
*U8
 70
     1
 10
0.0
 20
0.0
 30
0.0
  3
*U8
  1

  0
SOLID
  5
9F9
  8
0
  6
CONTINUOUS
 62
     2
 10
778.58134859999996
 20
58.795183399999999
 30
0.0
 11
778.58134859999996
 21
58.795183399999999
 31
0.0
 12
781.16103610000005
 22
58.795183399999999
 32
0.0
 13
781.16103610000005
 23
58.795183399999999
 33
0.0
210
0.0
220
0.0
230
1.0
  0
SOLID
  5
9FA
  8
0
  6
CONTINUOUS
 62
     2
 10
778.58134859999996
 20
58.795183399999999
 30
0.0
 11
778.58134859999996
 21
58.6524712382
 31
0.0
 12
781.93734855030004
 22
58.6524712382
 32
0.0
 13
781.93734855030004
 23
58.6524712382
 33
0.0
  0
SOLID
  5
9FB
  8
0
  6
CONTINUOUS
 62
     2
 10
-778.58134859999996
 20
58.795183399999999
 30
0.0
 11
-781.16103610000005
 21
58.795183399999999
 31
0.0
 12
-781.93734855030004
 22
58.6524712382
 32
0.0
 13
-781.93734855030004
 23
58.6524712382
 33
0.0
210
0.0
220
0.0
230
-1.0
  0
SOLID
  5
9FC
  8
0
  6
CONTINUOUS
 62
     2
 10
778.58134859999996
 20
58.6524712382
 30
0.0
 11
778.58134859999996
 21
58.242995779300003
 31
0.0
 12
782.61215046940004
 22
58.242995779300003
 32
0.0
 13
782.61215046940004
 23
58.242995779300003
 33
0.0
  0
SOLID
  5
9FD
  8
0
  6
CONTINUOUS
 62
     2
 10
-778.58134859999996
 20
58.6524712382
 30
0.0
 11
-781.93734855030004
 21
58.6524712382
 31
0.0
 12
-782.61215046940004
 22
58.242995779300003
 32
0.0
 13
-782.61215046940004
 23
58.242995779300003
 33
0.0
210
0.0
220
0.0
230
-1.0
  0
SOLID
  5
9FE
  8
0
  6
CONTINUOUS
 62
     2
 10
778.58134859999996
 20
58.242995779300003
 30
0.0
 11
778.58134859999996
 21
57.620299989599999
 31
0.0
 12
783.09720483240005
 22
57.620299989599999
 32
0.0
 13
783.09720483240005
 23
57.620299989599999
 33
0.0
210
0.0
220
0.0
230
1.0
  0
SOLID
  5
9FF
  8
0
  6
CONTINUOUS
 62
     2
 10
-778.58134859999996
 20
58.242995779300003
 30
0.0
 11
-782.61215046940004
 21
58.242995779300003
 31
0.0
 12
-783.09720483240005
 22
57.620299989599999
 32
0.0
 13
-783.09720483240005
 23
57.620299989599999
 33
0.0
210
0.0
220
0.0
230
-1.0
  0
SOLID
  5
A00
  8
0
  6
CONTINUOUS
 62
     2
 10
778.58134859999996
 20
57.620299989599999
 30
0.0
 11
778.58134859999996
 21
57.41088340000001
 31
0.0
 12
783.16156565870722
 22
57.41088340000001
 32
0.0
 13
783.16156565870722
 23
57.41088340000001
 33
0.0
  0
SOLID
  5
A01
  8
0
  6
CONTINUOUS
 62
     2
 10
-778.58134859999996
 20
57.620299989599999
 30
0.0
 11
-783.09720483240005
 21
57.620299989599999
 31
0.0
 12
-783.16156565870722
 22
57.41088340000001
 32
0.0
 13
-783.16156565870722
 23
57.41088340000001
 33
0.0
210
0.0
220
0.0
230
-1.0
  0
SOLID
  5
A02
  8
0
  6
CONTINUOUS
 62
     2
 10
778.58134859999996
 20
57.41088340000001
 30
0.0
 11
778.58134859999996
 21
57.41088340000001
 31
0.0
 12
780.2831486
 22
57.41088340000001
 32
0.0
 13
780.2831486
 23
57.41088340000001
 33
0.0
210
0.0
220
0.0
230
1.0
  0
SOLID
  5
A03
  8
0
  6
CONTINUOUS
 62
     2
 10
780.2831486
 20
57.41088340000001
 30
0.0
 11
780.2831486
 21
57.41088340000001
 31
0.0
 12
781.13087359999986
 22
57.41088340000001
 32
0.0
 13
781.13087359999986
 23
57.41088340000001
 33
0.0
210
0.0
220
0.0
230
1.0
  0
SOLID
  5
A04
  8
0
  6
CONTINUOUS
 62
     2
 10
781.13087359999986
 20
57.41088340000001
 30
0.0
 11
781.52020797499995
 21
57.306561568600003
 31
0.0
 12
783.19362729854004
 22
57.306561568600003
 32
0.0
 13
783.19362729854004
 23
57.306561568600003
 33
0.0
  0
SOLID
  5
A05
  8
0
  6
CONTINUOUS
 62
     2
 10
-781.13087359999986
 20
57.41088340000001
 30
0.0
 11
-783.16156565870722
 21
57.41088340000001
 31
0.0
 12
-783.19362729854004
 22
57.306561568600003
 32
0.0
 13
-783.19362729854004
 23
57.306561568600003
 33
0.0
210
0.0
220
0.0
230
-1.0
  0
SOLID
  5
A06
  8
0
  6
CONTINUOUS
 62
     2
 10
781.52020797499995
 20
57.306561568600003
 30
0.0
 11
781.80522051859998
 21
57.021549024999999
 31
0.0
 12
783.28122132749934
 22
57.021549024999999
 32
0.0
 13
783.28122132749934
 23
57.021549024999999
 33
0.0
  0
SOLID
  5
A07
  8
0
  6
CONTINUOUS
 62
     2
 10
-781.52020797499995
 20
57.306561568600003
 30
0.0
 11
-783.19362729854004
 21
57.306561568600003
 31
0.0
 12
-783.28122132749934
 22
57.021549024999999
 32
0.0
 13
-783.28122132749934
 23
57.021549024999999
 33
0.0
210
0.0
220
0.0
230
-1.0
  0
SOLID
  5
A08
  8
0
  6
CONTINUOUS
 62
     2
 10
781.80522051859998
 20
57.021549024999999
 30
0.0
 11
781.84695133382195
 21
56.865807502400003
 31
0.0
 12
783.32908598380004
 22
56.865807502400003
 32
0.0
 13
783.32908598380004
 23
56.865807502400003
 33
0.0
210
0.0
220
0.0
230
1.0
  0
SOLID
  5
A09
  8
0
  6
CONTINUOUS
 62
     2
 10
-781.80522051859998
 20
57.021549024999999
 30
0.0
 11
-783.28122132749934
 21
57.021549024999999
 31
0.0
 12
-783.32908598380004
 22
56.865807502400003
 32
0.0
 13
-783.32908598380004
 23
56.865807502400003
 33
0.0
210
0.0
220
0.0
230
-1.0
  0
SOLID
  5
A0A
  8
0
  6
CONTINUOUS
 62
     2
 10
781.84695133382195
 20
56.865807502400003
 30
0.0
 11
781.90954235000004
 21
56.632214650000002
 31
0.0
 12
783.31377885166512
 22
56.632214650000002
 32
0.0
 13
783.31377885166512
 23
56.632214650000002
 33
0.0
210
0.0
220
0.0
230
1.0
  0
SOLID
  5
A0B
  8
0
  6
CONTINUOUS
 62
     2
 10
-781.84695133382195
 20
56.865807502400003
 30
0.0
 11
-783.32908598380004
 21
56.865807502400003
 31
0.0
 12
-783.31377885166512
 22
56.632214650000002
 32
0.0
 13
-783.31377885166512
 23
56.632214650000002
 33
0.0
210
0.0
220
0.0
230
-1.0
  0
SOLID
  5
A0C
  8
0
  6
CONTINUOUS
 62
     2
 10
781.90954235000004
 20
56.632214650000002
 30
0.0
 11
781.80522051859998
 21
56.242880274999997
 31
0.0
 12
783.28826611588738
 22
56.242880274999997
 32
0.0
 13
783.28826611588738
 23
56.242880274999997
 33
0.0
210
0.0
220
0.0
230
1.0
  0
SOLID
  5
A0D
  8
0
  6
CONTINUOUS
 62
     2
 10
-781.90954235000004
 20
56.632214650000002
 30
0.0
 11
-783.31377885166512
 21
56.632214650000002
 31
0.0
 12
-783.28826611588738
 22
56.242880274999997
 32
0.0
 13
-783.28826611588738
 23
56.242880274999997
 33
0.0
210
0.0
220
0.0
230
-1.0
  0
SOLID
  5
A0E
  8
0
  6
CONTINUOUS
 62
     2
 10
781.80522051859998
 20
56.242880274999997
 30
0.0
 11
781.64051591639986
 21
56.0781756728
 31
0.0
 12
783.27747316959994
 22
56.0781756728
 32
0.0
 13
783.27747316959994
 23
56.0781756728
 33
0.0
210
0.0
220
0.0
230
1.0
  0
SOLID
  5
A0F
  8
0
  6
CONTINUOUS
 62
     2
 10
-781.80522051859998
 20
56.242880274999997
 30
0.0
 11
-783.28826611588738
 21
56.242880274999997
 31
0.0
 12
-783.27747316959994
 22
56.0781756728
 32
0.0
 13
-783.27747316959994
 23
56.0781756728
 33
0.0
210
0.0
220
0.0
230
-1.0
  0
SOLID
  5
A10
  8
0
  6
CONTINUOUS
 62
     2
 10
781.64051591639986
 20
56.0781756728
 30
0.0
 11
781.52020797499995
 21
55.9578677314
 31
0.0
 12
783.22243676059475
 22
55.9578677314
 32
0.0
 13
783.22243676059475
 23
55.9578677314
 33
0.0
210
0.0
220
0.0
230
1.0
  0
SOLID
  5
A11
  8
0
  6
CONTINUOUS
 62
     2
 10
-781.64051591639986
 20
56.0781756728
 30
0.0
 11
-783.27747316959994
 21
56.0781756728
 31
0.0
 12
-783.22243676059475
 22
55.9578677314
 32
0.0
 13
-783.22243676059475
 23
55.9578677314
 33
0.0
210
0.0
220
0.0
230
-1.0
  0
SOLID
  5
A12
  8
0
  6
CONTINUOUS
 62
     2
 10
781.52020797499995
 20
55.9578677314
 30
0.0
 11
781.13087359999986
 21
55.8535459
 31
0.0
 12
783.1747134023999
 22
55.8535459
 32
0.0
 13
783.1747134023999
 23
55.8535459
 33
0.0
  0
SOLID
  5
A13
  8
0
  6
CONTINUOUS
 62
     2
 10
-781.52020797499995
 20
55.9578677314
 30
0.0
 11
-783.22243676059475
 21
55.9578677314
 31
0.0
 12
-783.1747134023999
 22
55.8535459
 32
0.0
 13
-783.1747134023999
 23
55.8535459
 33
0.0
210
0.0
220
0.0
230
-1.0
  0
SOLID
  5
A14
  8
0
  6
CONTINUOUS
 62
     2
 10
781.13087359999986
 20
55.8535459
 30
0.0
 11
781.13087359999986
 21
55.8535459
 31
0.0
 12
783.1747134023999
 22
55.8535459
 32
0.0
 13
783.1747134023999
 23
55.8535459
 33
0.0
210
0.0
220
0.0
230
1.0
  0
LINE
  5
A15
  8
0
  6
CONTINUOUS
 62
     2
 10
778.58134859999996
 20
58.795183399999999
 30
0.0
 11
781.16103610000005
 21
58.795183399999999
 31
0.0
  0
LINE
  5
A16
  8
0
  6
CONTINUOUS
 62
     2
 10
778.58134859999996
 20
58.795183399999999
 30
0.0
 11
778.58134859999996
 21
58.6524712382
 31
0.0
  0
LINE
  5
A17
  8
0
  6
CONTINUOUS
 62
     2
 10
781.16103610000005
 20
58.795183399999999
 30
0.0
 11
781.93734855030004
 21
58.6524712382
 31
0.0
  0
LINE
  5
A18
  8
0
  6
CONTINUOUS
 62
     2
 10
778.58134859999996
 20
58.6524712382
 30
0.0
 11
778.58134859999996
 21
58.242995779300003
 31
0.0
  0
LINE
  5
A19
  8
0
  6
CONTINUOUS
 62
     2
 10
781.93734855030004
 20
58.6524712382
 30
0.0
 11
782.61215046940004
 21
58.242995779300003
 31
0.0
  0
LINE
  5
A1A
  8
0
  6
CONTINUOUS
 62
     2
 10
778.58134859999996
 20
58.242995779300003
 30
0.0
 11
778.58134859999996
 21
57.620299989599999
 31
0.0
  0
LINE
  5
A1B
  8
0
  6
CONTINUOUS
 62
     2
 10
782.61215046940004
 20
58.242995779300003
 30
0.0
 11
783.09720483240005
 21
57.620299989599999
 31
0.0
  0
LINE
  5
A1C
  8
0
  6
CONTINUOUS
 62
     2
 10
778.58134859999996
 20
57.620299989599999
 30
0.0
 11
778.58134859999996
 21
57.41088340000001
 31
0.0
  0
LINE
  5
A1D
  8
0
  6
CONTINUOUS
 62
     2
 10
783.09720483240005
 20
57.620299989599999
 30
0.0
 11
783.16156565870722
 21
57.41088340000001
 31
0.0
  0
LINE
  5
A1E
  8
0
  6
CONTINUOUS
 62
     2
 10
778.58134859999996
 20
57.41088340000001
 30
0.0
 11
780.2831486
 21
57.41088340000001
 31
0.0
  0
LINE
  5
A1F
  8
0
  6
CONTINUOUS
 62
     2
 10
780.2831486
 20
57.41088340000001
 30
0.0
 11
781.13087359999986
 21
57.41088340000001
 31
0.0
  0
LINE
  5
A20
  8
0
  6
CONTINUOUS
 62
     2
 10
781.13087359999986
 20
57.41088340000001
 30
0.0
 11
781.52020797499995
 21
57.306561568600003
 31
0.0
  0
LINE
  5
A21
  8
0
  6
CONTINUOUS
 62
     2
 10
783.16156565870722
 20
57.41088340000001
 30
0.0
 11
783.19362729854004
 21
57.306561568600003
 31
0.0
  0
LINE
  5
A22
  8
0
  6
CONTINUOUS
 62
     2
 10
781.52020797499995
 20
57.306561568600003
 30
0.0
 11
781.80522051859998
 21
57.021549024999999
 31
0.0
  0
LINE
  5
A23
  8
0
  6
CONTINUOUS
 62
     2
 10
783.19362729854004
 20
57.306561568600003
 30
0.0
 11
783.28122132749934
 21
57.021549024999999
 31
0.0
  0
LINE
  5
A24
  8
0
  6
CONTINUOUS
 62
     2
 10
781.80522051859998
 20
57.021549024999999
 30
0.0
 11
781.84695133382195
 21
56.865807502400003
 31
0.0
  0
LINE
  5
A25
  8
0
  6
CONTINUOUS
 62
     2
 10
783.28122132749934
 20
57.021549024999999
 30
0.0
 11
783.32908598380004
 21
56.865807502400003
 31
0.0
  0
LINE
  5
A26
  8
0
  6
CONTINUOUS
 62
     2
 10
781.84695133382195
 20
56.865807502400003
 30
0.0
 11
781.90954235000004
 21
56.632214650000002
 31
0.0
  0
LINE
  5
A27
  8
0
  6
CONTINUOUS
 62
     2
 10
783.32908598380004
 20
56.865807502400003
 30
0.0
 11
783.31377885166512
 21
56.632214650000002
 31
0.0
  0
LINE
  5
A28
  8
0
  6
CONTINUOUS
 62
     2
 10
781.90954235000004
 20
56.632214650000002
 30
0.0
 11
781.80522051859998
 21
56.242880274999997
 31
0.0
  0
LINE
  5
A29
  8
0
  6
CONTINUOUS
 62
     2
 10
783.31377885166512
 20
56.632214650000002
 30
0.0
 11
783.28826611588738
 21
56.242880274999997
 31
0.0
  0
LINE
  5
A2A
  8
0
  6
CONTINUOUS
 62
     2
 10
781.80522051859998
 20
56.242880274999997
 30
0.0
 11
781.64051591639986
 21
56.0781756728
 31
0.0
  0
LINE
  5
A2B
  8
0
  6
CONTINUOUS
 62
     2
 10
783.28826611588738
 20
56.242880274999997
 30
0.0
 11
783.27747316959994
 21
56.0781756728
 31
0.0
  0
LINE
  5
A2C
  8
0
  6
CONTINUOUS
 62
     2
 10
781.64051591639986
 20
56.0781756728
 30
0.0
 11
781.52020797499995
 21
55.9578677314
 31
0.0
  0
LINE
  5
A2D
  8
0
  6
CONTINUOUS
 62
     2
 10
783.27747316959994
 20
56.0781756728
 30
0.0
 11
783.22243676059475
 21
55.9578677314
 31
0.0
  0
LINE
  5
A2E
  8
0
  6
CONTINUOUS
 62
     2
 10
781.52020797499995
 20
55.9578677314
 30
0.0
 11
781.13087359999986
 21
55.8535459
 31
0.0
  0
LINE
  5
A2F
  8
0
  6
CONTINUOUS
 62
     2
 10
783.22243676059475
 20
55.9578677314
 30
0.0
 11
783.1747134023999
 21
55.8535459
 31
0.0
  0
LINE
  5
A30
  8
0
  6
CONTINUOUS
 62
     2
 10
781.13087359999986
 20
55.8535459
 30
0.0
 11
783.1747134023999
 21
55.8535459
 31
0.0
  0
ENDBLK
  5
A32
  8
0
  0
BLOCK
  8
0
  2
*U9
 70
     1
 10
0.0
 20
0.0
 30
0.0
  3
*U9
  1

  0
SOLID
  5
A41
  8
0
  6
CONTINUOUS
 62
     2
 10
749.38087359999997
 20
58.795183399999999
 30
0.0
 11
749.38087359999997
 21
58.795183399999999
 31
0.0
 12
751.08267360000002
 22
58.795183399999999
 32
0.0
 13
751.08267360000002
 23
58.795183399999999
 33
0.0
210
0.0
220
0.0
230
1.0
  0
SOLID
  5
A42
  8
0
  6
CONTINUOUS
 62
     2
 10
753.32416495899986
 20
58.795183399999999
 30
0.0
 11
753.32416495899986
 21
58.795183399999999
 31
0.0
 12
755.7308736
 22
58.795183399999999
 32
0.0
 13
755.7308736
 23
58.795183399999999
 33
0.0
210
0.0
220
0.0
230
1.0
  0
SOLID
  5
A43
  8
0
  6
CONTINUOUS
 62
     2
 10
749.38087359999997
 20
58.795183399999999
 30
0.0
 11
749.38087359999997
 21
56.553692040999998
 31
0.0
 12
751.08267360000002
 22
56.553692040999998
 32
0.0
 13
751.08267360000002
 23
56.553692040999998
 33
0.0
210
0.0
220
0.0
230
1.0
  0
SOLID
  5
A44
  8
0
  6
CONTINUOUS
 62
     2
 10
-749.38087359999997
 20
58.795183399999999
 30
0.0
 11
-751.08267360000002
 21
58.795183399999999
 31
0.0
 12
-751.08267360000002
 22
56.553692040999998
 32
0.0
 13
-751.08267360000002
 23
56.553692040999998
 33
0.0
210
0.0
220
0.0
230
-1.0
  0
SOLID
  5
A45
  8
0
  6
CONTINUOUS
 62
     2
 10
753.32416495899986
 20
58.795183399999999
 30
0.0
 11
751.08267360000002
 21
56.553692040999998
 31
0.0
 12
753.48938224100004
 22
56.553692040999998
 32
0.0
 13
753.48938224100004
 23
56.553692040999998
 33
0.0
  0
SOLID
  5
A46
  8
0
  6
CONTINUOUS
 62
     2
 10
-753.32416495899986
 20
58.795183399999999
 30
0.0
 11
-755.7308736
 21
58.795183399999999
 31
0.0
 12
-753.48938224100004
 22
56.553692040999998
 32
0.0
 13
-753.48938224100004
 23
56.553692040999998
 33
0.0
210
0.0
220
0.0
230
-1.0
  0
SOLID
  5
A47
  8
0
  6
CONTINUOUS
 62
     2
 10
749.38087359999997
 20
56.553692040999998
 30
0.0
 11
749.38087359999997
 21
55.620183400000002
 31
0.0
 12
752.55587360000004
 22
55.620183400000002
 32
0.0
 13
752.55587360000004
 23
55.620183400000002
 33
0.0
210
0.0
220
0.0
230
1.0
  0
SOLID
  5
A48
  8
0
  6
CONTINUOUS
 62
     2
 10
-749.38087359999997
 20
56.553692040999998
 30
0.0
 11
-753.48938224100004
 21
56.553692040999998
 31
0.0
 12
-752.55587360000004
 22
55.620183400000002
 32
0.0
 13
-752.55587360000004
 23
55.620183400000002
 33
0.0
210
0.0
220
0.0
230
-1.0
  0
SOLID
  5
A49
  8
0
  6
CONTINUOUS
 62
     2
 10
749.38087359999997
 20
55.620183400000002
 30
0.0
 11
749.38087359999997
 21
54.737474192599997
 31
0.0
 12
753.26204096592005
 22
54.737474192599997
 32
0.0
 13
753.26204096592005
 23
54.737474192599997
 33
0.0
210
0.0
220
0.0
230
1.0
  0
SOLID
  5
A4A
  8
0
  6
CONTINUOUS
 62
     2
 10
-749.38087359999997
 20
55.620183400000002
 30
0.0
 11
-752.55587360000004
 21
55.620183400000002
 31
0.0
 12
-753.26204096592005
 22
54.737474192599997
 32
0.0
 13
-753.26204096592005
 23
54.737474192599997
 33
0.0
210
0.0
220
0.0
230
-1.0
  0
SOLID
  5
A4B
  8
0
  6
CONTINUOUS
 62
     2
 10
749.38087359999997
 20
54.737474192599997
 30
0.0
 11
749.38087359999997
 21
51.651433400000002
 31
0.0
 12
751.08267360000002
 22
51.651433400000002
 32
0.0
 13
751.08267360000002
 23
51.651433400000002
 33
0.0
210
0.0
220
0.0
230
1.0
  0
SOLID
  5
A4C
  8
0
  6
CONTINUOUS
 62
     2
 10
-749.38087359999997
 20
54.737474192599997
 30
0.0
 11
-751.08267360000002
 21
54.737474192599997
 31
0.0
 12
-751.08267360000002
 22
51.651433400000002
 32
0.0
 13
-751.08267360000002
 23
51.651433400000002
 33
0.0
210
0.0
220
0.0
230
-1.0
  0
SOLID
  5
A4D
  8
0
  6
CONTINUOUS
 62
     2
 10
751.08267360000002
 20
54.737474192599997
 30
0.0
 11
753.55150623409997
 21
51.651433400000002
 31
0.0
 12
755.7308736
 22
51.651433400000002
 32
0.0
 13
755.7308736
 23
51.651433400000002
 33
0.0
210
0.0
220
0.0
230
1.0
  0
SOLID
  5
A4E
  8
0
  6
CONTINUOUS
 62
     2
 10
-751.08267360000002
 20
54.737474192599997
 30
0.0
 11
-753.26204096592005
 21
54.737474192599997
 31
0.0
 12
-755.7308736
 22
51.651433400000002
 32
0.0
 13
-755.7308736
 23
51.651433400000002
 33
0.0
210
0.0
220
0.0
230
-1.0
  0
SOLID
  5
A4F
  8
0
  6
CONTINUOUS
 62
     2
 10
749.38087359999997
 20
51.651433400000002
 30
0.0
 11
749.38087359999997
 21
51.651433400000002
 31
0.0
 12
751.08267360000002
 22
51.651433400000002
 32
0.0
 13
751.08267360000002
 23
51.651433400000002
 33
0.0
210
0.0
220
0.0
230
1.0
  0
SOLID
  5
A50
  8
0
  6
CONTINUOUS
 62
     2
 10
753.55150623409997
 20
51.651433400000002
 30
0.0
 11
753.55150623409997
 21
51.651433400000002
 31
0.0
 12
755.7308736
 22
51.651433400000002
 32
0.0
 13
755.7308736
 23
51.651433400000002
 33
0.0
210
0.0
220
0.0
230
1.0
  0
LINE
  5
A51
  8
0
  6
CONTINUOUS
 62
     2
 10
749.38087359999997
 20
58.795183399999999
 30
0.0
 11
751.08267360000002
 21
58.795183399999999
 31
0.0
  0
LINE
  5
A52
  8
0
  6
CONTINUOUS
 62
     2
 10
753.32416495899986
 20
58.795183399999999
 30
0.0
 11
755.7308736
 21
58.795183399999999
 31
0.0
  0
LINE
  5
A53
  8
0
  6
CONTINUOUS
 62
     2
 10
749.38087359999997
 20
58.795183399999999
 30
0.0
 11
749.38087359999997
 21
56.553692040999998
 31
0.0
  0
LINE
  5
A54
  8
0
  6
CONTINUOUS
 62
     2
 10
751.08267360000002
 20
58.795183399999999
 30
0.0
 11
751.08267360000002
 21
56.553692040999998
 31
0.0
  0
LINE
  5
A55
  8
0
  6
CONTINUOUS
 62
     2
 10
753.32416495899986
 20
58.795183399999999
 30
0.0
 11
751.08267360000002
 21
56.553692040999998
 31
0.0
  0
LINE
  5
A56
  8
0
  6
CONTINUOUS
 62
     2
 10
755.7308736
 20
58.795183399999999
 30
0.0
 11
753.48938224100004
 21
56.553692040999998
 31
0.0
  0
LINE
  5
A57
  8
0
  6
CONTINUOUS
 62
     2
 10
749.38087359999997
 20
56.553692040999998
 30
0.0
 11
749.38087359999997
 21
55.620183400000002
 31
0.0
  0
LINE
  5
A58
  8
0
  6
CONTINUOUS
 62
     2
 10
753.48938224100004
 20
56.553692040999998
 30
0.0
 11
752.55587360000004
 21
55.620183400000002
 31
0.0
  0
LINE
  5
A59
  8
0
  6
CONTINUOUS
 62
     2
 10
749.38087359999997
 20
55.620183400000002
 30
0.0
 11
749.38087359999997
 21
54.737474192599997
 31
0.0
  0
LINE
  5
A5A
  8
0
  6
CONTINUOUS
 62
     2
 10
752.55587360000004
 20
55.620183400000002
 30
0.0
 11
753.26204096592005
 21
54.737474192599997
 31
0.0
  0
LINE
  5
A5B
  8
0
  6
CONTINUOUS
 62
     2
 10
749.38087359999997
 20
54.737474192599997
 30
0.0
 11
749.38087359999997
 21
51.651433400000002
 31
0.0
  0
LINE
  5
A5C
  8
0
  6
CONTINUOUS
 62
     2
 10
753.26204096592005
 20
54.737474192599997
 30
0.0
 11
755.7308736
 21
51.651433400000002
 31
0.0
  0
LINE
  5
A5D
  8
0
  6
CONTINUOUS
 62
     2
 10
749.38087359999997
 20
51.651433400000002
 30
0.0
 11
751.08267360000002
 21
51.651433400000002
 31
0.0
  0
LINE
  5
A5E
  8
0
  6
CONTINUOUS
 62
     2
 10
753.55150623409997
 20
51.651433400000002
 30
0.0
 11
755.7308736
 21
51.651433400000002
 31
0.0
  0
ENDBLK
  5
A60
  8
0
  0
BLOCK
  8
0
  2
*U10
 70
     1
 10
0.0
 20
0.0
 30
0.0
  3
*U10
  1

  0
SOLID
  5
A7A
  8
0
  6
CONTINUOUS
 62
     2
 10
755.49833077280005
 20
57.085405989699993
 30
0.0
 11
755.49833077280005
 21
57.085405989699993
 31
0.0
 12
758.68154735229996
 22
57.085405989699993
 32
0.0
 13
758.68154735229996
 23
57.085405989699993
 33
0.0
210
0.0
220
0.0
230
1.0
  0
SOLID
  5
A7B
  8
0
  6
CONTINUOUS
 62
     2
 10
755.49833077280005
 20
57.085405989699993
 30
0.0
 11
755.46602099975723
 21
57.021994489699999
 31
0.0
 12
757.99722828380004
 22
57.021994489699999
 32
0.0
 13
757.99722828380004
 23
57.021994489699999
 33
0.0
  0
SOLID
  5
A7C
  8
0
  6
CONTINUOUS
 62
     2
 10
-755.49833077280005
 20
57.085405989699993
 30
0.0
 11
-758.68154735229996
 21
57.085405989699993
 31
0.0
 12
-757.99722828380004
 22
57.021994489699999
 32
0.0
 13
-757.99722828380004
 23
57.021994489699999
 33
0.0
210
0.0
220
0.0
230
-1.0
  0
SOLID
  5
A7D
  8
0
  6
CONTINUOUS
 62
     2
 10
755.46602099975723
 20
57.021994489699999
 30
0.0
 11
755.30993601877844
 21
56.715660466300001
 31
0.0
 12
757.38202663239986
 22
56.715660466300001
 32
0.0
 13
757.38202663239986
 23
56.715660466300001
 33
0.0
210
0.0
220
0.0
230
1.0
  0
SOLID
  5
A7E
  8
0
  6
CONTINUOUS
 62
     2
 10
-755.46602099975723
 20
57.021994489699999
 30
0.0
 11
-757.99722828380004
 21
57.021994489699999
 31
0.0
 12
-757.38202663239986
 22
56.715660466300001
 32
0.0
 13
-757.38202663239986
 23
56.715660466300001
 33
0.0
210
0.0
220
0.0
230
-1.0
  0
SOLID
  5
A7F
  8
0
  6
CONTINUOUS
 62
     2
 10
755.30993601877844
 20
56.715660466300001
 30
0.0
 11
755.11194360590002
 21
56.32707847679999
 31
0.0
 12
757.027787343201
 22
56.32707847679999
 32
0.0
 13
757.027787343201
 23
56.32707847679999
 33
0.0
210
0.0
220
0.0
230
1.0
  0
SOLID
  5
A80
  8
0
  6
CONTINUOUS
 62
     2
 10
-755.30993601877844
 20
56.715660466300001
 30
0.0
 11
-757.38202663239986
 21
56.715660466300001
 31
0.0
 12
-757.027787343201
 22
56.32707847679999
 32
0.0
 13
-757.027787343201
 23
56.32707847679999
 33
0.0
210
0.0
220
0.0
230
-1.0
  0
SOLID
  5
A81
  8
0
  6
CONTINUOUS
 62
     2
 10
755.11194360590002
 20
56.32707847679999
 30
0.0
 11
755.09304795415483
 21
56.207776027000001
 31
0.0
 12
756.91902878990004
 22
56.207776027000001
 32
0.0
 13
756.91902878990004
 23
56.207776027000001
 33
0.0
210
0.0
220
0.0
230
1.0
  0
SOLID
  5
A82
  8
0
  6
CONTINUOUS
 62
     2
 10
-755.11194360590002
 20
56.32707847679999
 30
0.0
 11
-757.027787343201
 21
56.32707847679999
 31
0.0
 12
-756.91902878990004
 22
56.207776027000001
 32
0.0
 13
-756.91902878990004
 23
56.207776027000001
 33
0.0
210
0.0
220
0.0
230
-1.0
  0
SOLID
  5
A83
  8
0
  6
CONTINUOUS
 62
     2
 10
755.09304795415483
 20
56.207776027000001
 30
0.0
 11
754.99154851342553
 21
55.566933779499998
 31
0.0
 12
756.67076518060003
 22
55.566933779499998
 32
0.0
 13
756.67076518060003
 23
55.566933779499998
 33
0.0
210
0.0
220
0.0
230
1.0
  0
SOLID
  5
A84
  8
0
  6
CONTINUOUS
 62
     2
 10
-755.09304795415483
 20
56.207776027000001
 30
0.0
 11
-756.91902878990004
 21
56.207776027000001
 31
0.0
 12
-756.67076518060003
 22
55.566933779499998
 32
0.0
 13
-756.67076518060003
 23
55.566933779499998
 33
0.0
210
0.0
220
0.0
230
-1.0
  0
SOLID
  5
A85
  8
0
  6
CONTINUOUS
 62
     2
 10
754.99154851342553
 20
55.566933779499998
 30
0.0
 11
754.93712359999995
 21
55.223308400000001
 31
0.0
 12
756.67076518060003
 22
55.223308400000001
 32
0.0
 13
756.67076518060003
 23
55.223308400000001
 33
0.0
  0
SOLID
  5
A86
  8
0
  6
CONTINUOUS
 62
     2
 10
-754.99154851342553
 20
55.566933779499998
 30
0.0
 11
-756.67076518060003
 21
55.566933779499998
 31
0.0
 12
-756.67076518060003
 22
55.223308400000001
 32
0.0
 13
-756.67076518060003
 23
55.223308400000001
 33
0.0
210
0.0
220
0.0
230
-1.0
  0
SOLID
  5
A87
  8
0
  6
CONTINUOUS
 62
     2
 10
754.93712359999995
 20
55.223308400000001
 30
0.0
 11
754.99154851342553
 21
54.879683020500003
 31
0.0
 12
756.67076518060003
 22
54.879683020500003
 32
0.0
 13
756.67076518060003
 23
54.879683020500003
 33
0.0
210
0.0
220
0.0
230
1.0
  0
SOLID
  5
A88
  8
0
  6
CONTINUOUS
 62
     2
 10
-754.93712359999995
 20
55.223308400000001
 30
0.0
 11
-756.67076518060003
 21
55.223308400000001
 31
0.0
 12
-756.67076518060003
 22
54.879683020500003
 32
0.0
 13
-756.67076518060003
 23
54.879683020500003
 33
0.0
210
0.0
220
0.0
230
-1.0
  0
SOLID
  5
A89
  8
0
  6
CONTINUOUS
 62
     2
 10
754.99154851342553
 20
54.879683020500003
 30
0.0
 11
755.09304795415483
 21
54.238840773
 31
0.0
 12
756.91902878990004
 22
54.238840773
 32
0.0
 13
756.91902878990004
 23
54.238840773
 33
0.0
210
0.0
220
0.0
230
1.0
  0
SOLID
  5
A8A
  8
0
  6
CONTINUOUS
 62
     2
 10
-754.99154851342553
 20
54.879683020500003
 30
0.0
 11
-756.67076518060003
 21
54.879683020500003
 31
0.0
 12
-756.91902878990004
 22
54.238840773
 32
0.0
 13
-756.91902878990004
 23
54.238840773
 33
0.0
210
0.0
220
0.0
230
-1.0
  0
SOLID
  5
A8B
  8
0
  6
CONTINUOUS
 62
     2
 10
755.09304795415483
 20
54.238840773
 30
0.0
 11
755.11194360590002
 21
54.119538323199997
 31
0.0
 12
757.027787343201
 22
54.119538323199997
 32
0.0
 13
757.027787343201
 23
54.119538323199997
 33
0.0
  0
SOLID
  5
A8C
  8
0
  6
CONTINUOUS
 62
     2
 10
-755.09304795415483
 20
54.238840773
 30
0.0
 11
-756.91902878990004
 21
54.238840773
 31
0.0
 12
-757.027787343201
 22
54.119538323199997
 32
0.0
 13
-757.027787343201
 23
54.119538323199997
 33
0.0
210
0.0
220
0.0
230
-1.0
  0
SOLID
  5
A8D
  8
0
  6
CONTINUOUS
 62
     2
 10
755.11194360590002
 20
54.119538323199997
 30
0.0
 11
755.30993601875218
 21
53.7309563337
 31
0.0
 12
757.38202663239986
 22
53.7309563337
 32
0.0
 13
757.38202663239986
 23
53.7309563337
 33
0.0
  0
SOLID
  5
A8E
  8
0
  6
CONTINUOUS
 62
     2
 10
-755.11194360590002
 20
54.119538323199997
 30
0.0
 11
-757.027787343201
 21
54.119538323199997
 31
0.0
 12
-757.38202663239986
 22
53.7309563337
 32
0.0
 13
-757.38202663239986
 23
53.7309563337
 33
0.0
210
0.0
220
0.0
230
-1.0
  0
SOLID
  5
A8F
  8
0
  6
CONTINUOUS
 62
     2
 10
755.30993601875218
 20
53.7309563337
 30
0.0
 11
755.46602099971017
 21
53.424622310300002
 31
0.0
 12
757.99722828380004
 22
53.424622310300002
 32
0.0
 13
757.99722828380004
 23
53.424622310300002
 33
0.0
210
0.0
220
0.0
230
1.0
  0
SOLID
  5
A90
  8
0
  6
CONTINUOUS
 62
     2
 10
-755.30993601875218
 20
53.7309563337
 30
0.0
 11
-757.38202663239986
 21
53.7309563337
 31
0.0
 12
-757.99722828380004
 22
53.424622310300002
 32
0.0
 13
-757.99722828380004
 23
53.424622310300002
 33
0.0
210
0.0
220
0.0
230
-1.0
  0
SOLID
  5
A91
  8
0
  6
CONTINUOUS
 62
     2
 10
755.46602099971017
 20
53.424622310300002
 30
0.0
 11
755.49833077274866
 21
53.361210810300001
 31
0.0
 12
758.68154735229996
 22
53.361210810300001
 32
0.0
 13
758.68154735229996
 23
53.361210810300001
 33
0.0
210
0.0
220
0.0
230
1.0
  0
SOLID
  5
A92
  8
0
  6
CONTINUOUS
 62
     2
 10
-755.46602099971017
 20
53.424622310300002
 30
0.0
 11
-757.99722828380004
 21
53.424622310300002
 31
0.0
 12
-758.68154735229996
 22
53.361210810300001
 32
0.0
 13
-758.68154735229996
 23
53.361210810300001
 33
0.0
210
0.0
220
0.0
230
-1.0
  0
SOLID
  5
A93
  8
0
  6
CONTINUOUS
 62
     2
 10
758.68154735229996
 20
53.361210810300001
 30
0.0
 11
758.68154735229996
 21
53.361210810300001
 31
0.0
 12
761.51966642720004
 22
53.361210810300001
 32
0.0
 13
761.51966642720004
 23
53.361210810300001
 33
0.0
210
0.0
220
0.0
230
1.0
  0
SOLID
  5
A94
  8
0
  6
CONTINUOUS
 62
     2
 10
755.49833077274866
 20
53.361210810300001
 30
0.0
 11
755.61929102320005
 21
53.123812952000002
 31
0.0
 12
761.39870617680003
 22
53.123812952000002
 32
0.0
 13
761.39870617680003
 23
53.123812952000002
 33
0.0
210
0.0
220
0.0
230
1.0
  0
SOLID
  5
A95
  8
0
  6
CONTINUOUS
 62
     2
 10
-755.49833077274866
 20
53.361210810300001
 30
0.0
 11
-761.51966642720004
 21
53.361210810300001
 31
0.0
 12
-761.39870617680003
 22
53.123812952000002
 32
0.0
 13
-761.39870617680003
 23
53.123812952000002
 33
0.0
210
0.0
220
0.0
230
-1.0
  0
SOLID
  5
A96
  8
0
  6
CONTINUOUS
 62
     2
 10
755.61929102320005
 20
53.123812952000002
 30
0.0
 11
756.40950315199996
 21
52.333600823200001
 31
0.0
 12
760.60849404800001
 22
52.333600823200001
 32
0.0
 13
760.60849404800001
 23
52.333600823200001
 33
0.0
210
0.0
220
0.0
230
1.0
  0
SOLID
  5
A97
  8
0
  6
CONTINUOUS
 62
     2
 10
-755.61929102320005
 20
53.123812952000002
 30
0.0
 11
-761.39870617680003
 21
53.123812952000002
 31
0.0
 12
-760.60849404800001
 22
52.333600823200001
 32
0.0
 13
-760.60849404800001
 23
52.333600823200001
 33
0.0
210
0.0
220
0.0
230
-1.0
  0
SOLID
  5
A98
  8
0
  6
CONTINUOUS
 62
     2
 10
756.40950315199996
 20
52.333600823200001
 30
0.0
 11
757.40522852319987
 21
51.826253405899998
 31
0.0
 12
759.61276867679987
 22
51.826253405899998
 32
0.0
 13
759.61276867679987
 23
51.826253405899998
 33
0.0
  0
SOLID
  5
A99
  8
0
  6
CONTINUOUS
 62
     2
 10
-756.40950315199996
 20
52.333600823200001
 30
0.0
 11
-760.60849404800001
 21
52.333600823200001
 31
0.0
 12
-759.61276867679987
 22
51.826253405899998
 32
0.0
 13
-759.61276867679987
 23
51.826253405899998
 33
0.0
210
0.0
220
0.0
230
-1.0
  0
SOLID
  5
A9A
  8
0
  6
CONTINUOUS
 62
     2
 10
-757.40522852319987
 20
51.826253405899998
 30
0.0
 11
-759.61276867679987
 21
51.826253405899998
 31
0.0
 12
-758.50899860000004
 22
51.651433400000002
 32
0.0
 13
-758.50899860000004
 23
51.651433400000002
 33
0.0
210
0.0
220
0.0
230
-1.0
  0
LINE
  5
A9B
  8
0
  6
CONTINUOUS
 62
     2
 10
755.49833077280005
 20
57.085405989699993
 30
0.0
 11
758.68154735229996
 21
57.085405989699993
 31
0.0
  0
LINE
  5
A9C
  8
0
  6
CONTINUOUS
 62
     2
 10
755.49833077280005
 20
57.085405989699993
 30
0.0
 11
755.46602099975723
 21
57.021994489699999
 31
0.0
  0
LINE
  5
A9D
  8
0
  6
CONTINUOUS
 62
     2
 10
758.68154735229996
 20
57.085405989699993
 30
0.0
 11
757.99722828380004
 21
57.021994489699999
 31
0.0
  0
LINE
  5
A9E
  8
0
  6
CONTINUOUS
 62
     2
 10
755.46602099975723
 20
57.021994489699999
 30
0.0
 11
755.30993601877844
 21
56.715660466300001
 31
0.0
  0
LINE
  5
A9F
  8
0
  6
CONTINUOUS
 62
     2
 10
757.99722828380004
 20
57.021994489699999
 30
0.0
 11
757.38202663239986
 21
56.715660466300001
 31
0.0
  0
LINE
  5
AA0
  8
0
  6
CONTINUOUS
 62
     2
 10
755.30993601877844
 20
56.715660466300001
 30
0.0
 11
755.11194360590002
 21
56.32707847679999
 31
0.0
  0
LINE
  5
AA1
  8
0
  6
CONTINUOUS
 62
     2
 10
757.38202663239986
 20
56.715660466300001
 30
0.0
 11
757.027787343201
 21
56.32707847679999
 31
0.0
  0
LINE
  5
AA2
  8
0
  6
CONTINUOUS
 62
     2
 10
755.11194360590002
 20
56.32707847679999
 30
0.0
 11
755.09304795415483
 21
56.207776027000001
 31
0.0
  0
LINE
  5
AA3
  8
0
  6
CONTINUOUS
 62
     2
 10
757.027787343201
 20
56.32707847679999
 30
0.0
 11
756.91902878990004
 21
56.207776027000001
 31
0.0
  0
LINE
  5
AA4
  8
0
  6
CONTINUOUS
 62
     2
 10
755.09304795415483
 20
56.207776027000001
 30
0.0
 11
754.99154851342553
 21
55.566933779499998
 31
0.0
  0
LINE
  5
AA5
  8
0
  6
CONTINUOUS
 62
     2
 10
756.91902878990004
 20
56.207776027000001
 30
0.0
 11
756.67076518060003
 21
55.566933779499998
 31
0.0
  0
LINE
  5
AA6
  8
0
  6
CONTINUOUS
 62
     2
 10
754.99154851342553
 20
55.566933779499998
 30
0.0
 11
754.93712359999995
 21
55.223308400000001
 31
0.0
  0
LINE
  5
AA7
  8
0
  6
CONTINUOUS
 62
     2
 10
756.67076518060003
 20
55.566933779499998
 30
0.0
 11
756.67076518060003
 21
55.223308400000001
 31
0.0
  0
LINE
  5
AA8
  8
0
  6
CONTINUOUS
 62
     2
 10
754.93712359999995
 20
55.223308400000001
 30
0.0
 11
754.99154851342553
 21
54.879683020500003
 31
0.0
  0
LINE
  5
AA9
  8
0
  6
CONTINUOUS
 62
     2
 10
756.67076518060003
 20
55.223308400000001
 30
0.0
 11
756.67076518060003
 21
54.879683020500003
 31
0.0
  0
LINE
  5
AAA
  8
0
  6
CONTINUOUS
 62
     2
 10
754.99154851342553
 20
54.879683020500003
 30
0.0
 11
755.09304795415483
 21
54.238840773
 31
0.0
  0
LINE
  5
AAB
  8
0
  6
CONTINUOUS
 62
     2
 10
756.67076518060003
 20
54.879683020500003
 30
0.0
 11
756.91902878990004
 21
54.238840773
 31
0.0
  0
LINE
  5
AAC
  8
0
  6
CONTINUOUS
 62
     2
 10
755.09304795415483
 20
54.238840773
 30
0.0
 11
755.11194360590002
 21
54.119538323199997
 31
0.0
  0
LINE
  5
AAD
  8
0
  6
CONTINUOUS
 62
     2
 10
756.91902878990004
 20
54.238840773
 30
0.0
 11
757.027787343201
 21
54.119538323199997
 31
0.0
  0
LINE
  5
AAE
  8
0
  6
CONTINUOUS
 62
     2
 10
755.11194360590002
 20
54.119538323199997
 30
0.0
 11
755.30993601875218
 21
53.7309563337
 31
0.0
  0
LINE
  5
AAF
  8
0
  6
CONTINUOUS
 62
     2
 10
757.027787343201
 20
54.119538323199997
 30
0.0
 11
757.38202663239986
 21
53.7309563337
 31
0.0
  0
LINE
  5
AB0
  8
0
  6
CONTINUOUS
 62
     2
 10
755.30993601875218
 20
53.7309563337
 30
0.0
 11
755.46602099971017
 21
53.424622310300002
 31
0.0
  0
LINE
  5
AB1
  8
0
  6
CONTINUOUS
 62
     2
 10
757.38202663239986
 20
53.7309563337
 30
0.0
 11
757.99722828380004
 21
53.424622310300002
 31
0.0
  0
LINE
  5
AB2
  8
0
  6
CONTINUOUS
 62
     2
 10
755.46602099971017
 20
53.424622310300002
 30
0.0
 11
755.49833077274866
 21
53.361210810300001
 31
0.0
  0
LINE
  5
AB3
  8
0
  6
CONTINUOUS
 62
     2
 10
757.99722828380004
 20
53.424622310300002
 30
0.0
 11
758.68154735229996
 21
53.361210810300001
 31
0.0
  0
LINE
  5
AB4
  8
0
  6
CONTINUOUS
 62
     2
 10
758.68154735229996
 20
53.361210810300001
 30
0.0
 11
761.51966642720004
 21
53.361210810300001
 31
0.0
  0
LINE
  5
AB5
  8
0
  6
CONTINUOUS
 62
     2
 10
755.49833077274866
 20
53.361210810300001
 30
0.0
 11
755.61929102320005
 21
53.123812952000002
 31
0.0
  0
LINE
  5
AB6
  8
0
  6
CONTINUOUS
 62
     2
 10
761.51966642720004
 20
53.361210810300001
 30
0.0
 11
761.39870617680003
 21
53.123812952000002
 31
0.0
  0
LINE
  5
AB7
  8
0
  6
CONTINUOUS
 62
     2
 10
755.61929102320005
 20
53.123812952000002
 30
0.0
 11
756.40950315199996
 21
52.333600823200001
 31
0.0
  0
LINE
  5
AB8
  8
0
  6
CONTINUOUS
 62
     2
 10
761.39870617680003
 20
53.123812952000002
 30
0.0
 11
760.60849404800001
 21
52.333600823200001
 31
0.0
  0
LINE
  5
AB9
  8
0
  6
CONTINUOUS
 62
     2
 10
756.40950315199996
 20
52.333600823200001
 30
0.0
 11
757.40522852319987
 21
51.826253405899998
 31
0.0
  0
LINE
  5
ABA
  8
0
  6
CONTINUOUS
 62
     2
 10
760.60849404800001
 20
52.333600823200001
 30
0.0
 11
759.61276867679987
 21
51.826253405899998
 31
0.0
  0
LINE
  5
ABB
  8
0
  6
CONTINUOUS
 62
     2
 10
759.61276867679987
 20
51.826253405899998
 30
0.0
 11
758.50899860000004
 21
51.651433400000002
 31
0.0
  0
LINE
  5
ABC
  8
0
  6
CONTINUOUS
 62
     2
 10
758.50899860000004
 20
51.651433400000002
 30
0.0
 11
757.40522852319987
 21
51.826253405899998
 31
0.0
  0
ENDBLK
  5
ABE
  8
0
  0
BLOCK
  8
0
  2
*U11
 70
     1
 10
0.0
 20
0.0
 30
0.0
  3
*U11
  1

  0
SOLID
  5
AD7
  8
0
  6
CONTINUOUS
 62
     2
 10
758.50899860000004
 20
58.795183399999999
 30
0.0
 11
757.40522852319987
 21
58.620363394100004
 31
0.0
 12
759.61276867679987
 22
58.620363394100004
 32
0.0
 13
759.61276867679987
 23
58.620363394100004
 33
0.0
210
0.0
220
0.0
230
1.0
  0
SOLID
  5
AD8
  8
0
  6
CONTINUOUS
 62
     2
 10
757.40522852319987
 20
58.620363394100004
 30
0.0
 11
756.40950315199996
 21
58.113015976799993
 31
0.0
 12
760.60849404800001
 22
58.113015976799993
 32
0.0
 13
760.60849404800001
 23
58.113015976799993
 33
0.0
210
0.0
220
0.0
230
1.0
  0
SOLID
  5
AD9
  8
0
  6
CONTINUOUS
 62
     2
 10
-757.40522852319987
 20
58.620363394100004
 30
0.0
 11
-759.61276867679987
 21
58.620363394100004
 31
0.0
 12
-760.60849404800001
 22
58.113015976799993
 32
0.0
 13
-760.60849404800001
 23
58.113015976799993
 33
0.0
210
0.0
220
0.0
230
-1.0
  0
SOLID
  5
ADA
  8
0
  6
CONTINUOUS
 62
     2
 10
756.40950315199996
 20
58.113015976799993
 30
0.0
 11
755.61929102320005
 21
57.322803848
 31
0.0
 12
761.39870617680003
 22
57.322803848
 32
0.0
 13
761.39870617680003
 23
57.322803848
 33
0.0
210
0.0
220
0.0
230
1.0
  0
SOLID
  5
ADB
  8
0
  6
CONTINUOUS
 62
     2
 10
-756.40950315199996
 20
58.113015976799993
 30
0.0
 11
-760.60849404800001
 21
58.113015976799993
 31
0.0
 12
-761.39870617680003
 22
57.322803848
 32
0.0
 13
-761.39870617680003
 23
57.322803848
 33
0.0
210
0.0
220
0.0
230
-1.0
  0
SOLID
  5
ADC
  8
0
  6
CONTINUOUS
 62
     2
 10
755.61929102320005
 20
57.322803848
 30
0.0
 11
755.49833077280005
 21
57.085405989699993
 31
0.0
 12
761.51966642725131
 22
57.085405989699993
 32
0.0
 13
761.51966642725131
 23
57.085405989699993
 33
0.0
210
0.0
220
0.0
230
1.0
  0
SOLID
  5
ADD
  8
0
  6
CONTINUOUS
 62
     2
 10
-755.61929102320005
 20
57.322803848
 30
0.0
 11
-761.39870617680003
 21
57.322803848
 31
0.0
 12
-761.51966642725131
 22
57.085405989699993
 32
0.0
 13
-761.51966642725131
 23
57.085405989699993
 33
0.0
210
0.0
220
0.0
230
-1.0
  0
SOLID
  5
ADE
  8
0
  6
CONTINUOUS
 62
     2
 10
755.49833077280005
 20
57.085405989699993
 30
0.0
 11
755.49833077280005
 21
57.085405989699993
 31
0.0
 12
758.68154735229996
 22
57.085405989699993
 32
0.0
 13
758.68154735229996
 23
57.085405989699993
 33
0.0
210
0.0
220
0.0
230
1.0
  0
SOLID
  5
ADF
  8
0
  6
CONTINUOUS
 62
     2
 10
758.68154735229996
 20
57.085405989699993
 30
0.0
 11
759.34256275569999
 21
56.897330892100001
 31
0.0
 12
761.61549547588822
 22
56.897330892100001
 32
0.0
 13
761.61549547588822
 23
56.897330892100001
 33
0.0
210
0.0
220
0.0
230
1.0
  0
SOLID
  5
AE0
  8
0
  6
CONTINUOUS
 62
     2
 10
-758.68154735229996
 20
57.085405989699993
 30
0.0
 11
-761.51966642725131
 21
57.085405989699993
 31
0.0
 12
-761.61549547588822
 22
56.897330892100001
 32
0.0
 13
-761.61549547588822
 23
56.897330892100001
 33
0.0
210
0.0
220
0.0
230
-1.0
  0
SOLID
  5
AE1
  8
0
  6
CONTINUOUS
 62
     2
 10
759.34256275569999
 20
56.897330892100001
 30
0.0
 11
759.89100070090001
 21
56.483169780799997
 31
0.0
 12
761.82652110227252
 22
56.483169780799997
 32
0.0
 13
761.82652110227252
 23
56.483169780799997
 33
0.0
210
0.0
220
0.0
230
1.0
  0
SOLID
  5
AE2
  8
0
  6
CONTINUOUS
 62
     2
 10
-759.34256275569999
 20
56.897330892100001
 30
0.0
 11
-761.61549547588822
 21
56.897330892100001
 31
0.0
 12
-761.82652110227252
 22
56.483169780799997
 32
0.0
 13
-761.82652110227252
 23
56.483169780799997
 33
0.0
210
0.0
220
0.0
230
-1.0
  0
SOLID
  5
AE3
  8
0
  6
CONTINUOUS
 62
     2
 10
759.89100070090001
 20
56.483169780799997
 30
0.0
 11
759.98764834455505
 21
56.32707847679999
 31
0.0
 12
761.90605359409994
 22
56.32707847679999
 32
0.0
 13
761.90605359409994
 23
56.32707847679999
 33
0.0
210
0.0
220
0.0
230
1.0
  0
SOLID
  5
AE4
  8
0
  6
CONTINUOUS
 62
     2
 10
-759.89100070090001
 20
56.483169780799997
 30
0.0
 11
-761.82652110227252
 21
56.483169780799997
 31
0.0
 12
-761.90605359409994
 22
56.32707847679999
 32
0.0
 13
-761.90605359409994
 23
56.32707847679999
 33
0.0
210
0.0
220
0.0
230
-1.0
  0
SOLID
  5
AE5
  8
0
  6
CONTINUOUS
 62
     2
 10
759.98764834455505
 20
56.32707847679999
 30
0.0
 11
760.25279160440004
 21
55.8988574089
 31
0.0
 12
761.9738771482896
 22
55.8988574089
 32
0.0
 13
761.9738771482896
 23
55.8988574089
 33
0.0
  0
SOLID
  5
AE6
  8
0
  6
CONTINUOUS
 62
     2
 10
-759.98764834455505
 20
56.32707847679999
 30
0.0
 11
-761.90605359409994
 21
56.32707847679999
 31
0.0
 12
-761.9738771482896
 22
55.8988574089
 32
0.0
 13
-761.9738771482896
 23
55.8988574089
 33
0.0
210
0.0
220
0.0
230
-1.0
  0
SOLID
  5
AE7
  8
0
  6
CONTINUOUS
 62
     2
 10
760.25279160440004
 20
55.8988574089
 30
0.0
 11
760.37907359999986
 21
55.223308400000001
 31
0.0
 12
762.08087360000002
 22
55.223308400000001
 32
0.0
 13
762.08087360000002
 23
55.223308400000001
 33
0.0
210
0.0
220
0.0
230
1.0
  0
SOLID
  5
AE8
  8
0
  6
CONTINUOUS
 62
     2
 10
-760.25279160440004
 20
55.8988574089
 30
0.0
 11
-761.9738771482896
 21
55.8988574089
 31
0.0
 12
-762.08087360000002
 22
55.223308400000001
 32
0.0
 13
-762.08087360000002
 23
55.223308400000001
 33
0.0
210
0.0
220
0.0
230
-1.0
  0
SOLID
  5
AE9
  8
0
  6
CONTINUOUS
 62
     2
 10
760.37907359999986
 20
55.223308400000001
 30
0.0
 11
760.25279160440004
 21
54.547759391100001
 31
0.0
 12
761.9738771482896
 22
54.547759391100001
 32
0.0
 13
761.9738771482896
 23
54.547759391100001
 33
0.0
210
0.0
220
0.0
230
1.0
  0
SOLID
  5
AEA
  8
0
  6
CONTINUOUS
 62
     2
 10
-760.37907359999986
 20
55.223308400000001
 30
0.0
 11
-762.08087360000002
 21
55.223308400000001
 31
0.0
 12
-761.9738771482896
 22
54.547759391100001
 32
0.0
 13
-761.9738771482896
 23
54.547759391100001
 33
0.0
210
0.0
220
0.0
230
-1.0
  0
SOLID
  5
AEB
  8
0
  6
CONTINUOUS
 62
     2
 10
760.25279160440004
 20
54.547759391100001
 30
0.0
 11
759.98764834455505
 21
54.119538323199997
 31
0.0
 12
761.90605359409994
 22
54.119538323199997
 32
0.0
 13
761.90605359409994
 23
54.119538323199997
 33
0.0
210
0.0
220
0.0
230
1.0
  0
SOLID
  5
AEC
  8
0
  6
CONTINUOUS
 62
     2
 10
-760.25279160440004
 20
54.547759391100001
 30
0.0
 11
-761.9738771482896
 21
54.547759391100001
 31
0.0
 12
-761.90605359409994
 22
54.119538323199997
 32
0.0
 13
-761.90605359409994
 23
54.119538323199997
 33
0.0
210
0.0
220
0.0
230
-1.0
  0
SOLID
  5
AED
  8
0
  6
CONTINUOUS
 62
     2
 10
759.98764834455505
 20
54.119538323199997
 30
0.0
 11
759.89100070090001
 21
53.963447019199997
 31
0.0
 12
761.82652110226195
 22
53.963447019199997
 32
0.0
 13
761.82652110226195
 23
53.963447019199997
 33
0.0
210
0.0
220
0.0
230
1.0
  0
SOLID
  5
AEE
  8
0
  6
CONTINUOUS
 62
     2
 10
-759.98764834455505
 20
54.119538323199997
 30
0.0
 11
-761.90605359409994
 21
54.119538323199997
 31
0.0
 12
-761.82652110226195
 22
53.963447019199997
 32
0.0
 13
-761.82652110226195
 23
53.963447019199997
 33
0.0
210
0.0
220
0.0
230
-1.0
  0
SOLID
  5
AEF
  8
0
  6
CONTINUOUS
 62
     2
 10
759.89100070090001
 20
53.963447019199997
 30
0.0
 11
759.34256275569999
 21
53.5492859079
 31
0.0
 12
761.61549547584968
 22
53.5492859079
 32
0.0
 13
761.61549547584968
 23
53.5492859079
 33
0.0
  0
SOLID
  5
AF0
  8
0
  6
CONTINUOUS
 62
     2
 10
-759.89100070090001
 20
53.963447019199997
 30
0.0
 11
-761.82652110226195
 21
53.963447019199997
 31
0.0
 12
-761.61549547584968
 22
53.5492859079
 32
0.0
 13
-761.61549547584968
 23
53.5492859079
 33
0.0
210
0.0
220
0.0
230
-1.0
  0
SOLID
  5
AF1
  8
0
  6
CONTINUOUS
 62
     2
 10
759.34256275569999
 20
53.5492859079
 30
0.0
 11
758.68154735229996
 21
53.361210810300001
 31
0.0
 12
761.51966642720004
 22
53.361210810300001
 32
0.0
 13
761.51966642720004
 23
53.361210810300001
 33
0.0
210
0.0
220
0.0
230
1.0
  0
SOLID
  5
AF2
  8
0
  6
CONTINUOUS
 62
     2
 10
-759.34256275569999
 20
53.5492859079
 30
0.0
 11
-761.61549547584968
 21
53.5492859079
 31
0.0
 12
-761.51966642720004
 22
53.361210810300001
 32
0.0
 13
-761.51966642720004
 23
53.361210810300001
 33
0.0
210
0.0
220
0.0
230
-1.0
  0
SOLID
  5
AF3
  8
0
  6
CONTINUOUS
 62
     2
 10
758.68154735229996
 20
53.361210810300001
 30
0.0
 11
758.68154735229996
 21
53.361210810300001
 31
0.0
 12
761.51966642720004
 22
53.361210810300001
 32
0.0
 13
761.51966642720004
 23
53.361210810300001
 33
0.0
210
0.0
220
0.0
230
1.0
  0
LINE
  5
AF4
  8
0
  6
CONTINUOUS
 62
     2
 10
758.50899860000004
 20
58.795183399999999
 30
0.0
 11
757.40522852319987
 21
58.620363394100004
 31
0.0
  0
LINE
  5
AF5
  8
0
  6
CONTINUOUS
 62
     2
 10
759.61276867679987
 20
58.620363394100004
 30
0.0
 11
758.50899860000004
 21
58.795183399999999
 31
0.0
  0
LINE
  5
AF6
  8
0
  6
CONTINUOUS
 62
     2
 10
757.40522852319987
 20
58.620363394100004
 30
0.0
 11
756.40950315199996
 21
58.113015976799993
 31
0.0
  0
LINE
  5
AF7
  8
0
  6
CONTINUOUS
 62
     2
 10
759.61276867679987
 20
58.620363394100004
 30
0.0
 11
760.60849404800001
 21
58.113015976799993
 31
0.0
  0
LINE
  5
AF8
  8
0
  6
CONTINUOUS
 62
     2
 10
756.40950315199996
 20
58.113015976799993
 30
0.0
 11
755.61929102320005
 21
57.322803848
 31
0.0
  0
LINE
  5
AF9
  8
0
  6
CONTINUOUS
 62
     2
 10
760.60849404800001
 20
58.113015976799993
 30
0.0
 11
761.39870617680003
 21
57.322803848
 31
0.0
  0
LINE
  5
AFA
  8
0
  6
CONTINUOUS
 62
     2
 10
755.61929102320005
 20
57.322803848
 30
0.0
 11
755.49833077280005
 21
57.085405989699993
 31
0.0
  0
LINE
  5
AFB
  8
0
  6
CONTINUOUS
 62
     2
 10
761.39870617680003
 20
57.322803848
 30
0.0
 11
761.51966642725131
 21
57.085405989699993
 31
0.0
  0
LINE
  5
AFC
  8
0
  6
CONTINUOUS
 62
     2
 10
755.49833077280005
 20
57.085405989699993
 30
0.0
 11
758.68154735229996
 21
57.085405989699993
 31
0.0
  0
LINE
  5
AFD
  8
0
  6
CONTINUOUS
 62
     2
 10
758.68154735229996
 20
57.085405989699993
 30
0.0
 11
759.34256275569999
 21
56.897330892100001
 31
0.0
  0
LINE
  5
AFE
  8
0
  6
CONTINUOUS
 62
     2
 10
761.51966642725131
 20
57.085405989699993
 30
0.0
 11
761.61549547588822
 21
56.897330892100001
 31
0.0
  0
LINE
  5
AFF
  8
0
  6
CONTINUOUS
 62
     2
 10
759.34256275569999
 20
56.897330892100001
 30
0.0
 11
759.89100070090001
 21
56.483169780799997
 31
0.0
  0
LINE
  5
B00
  8
0
  6
CONTINUOUS
 62
     2
 10
761.61549547588822
 20
56.897330892100001
 30
0.0
 11
761.82652110227252
 21
56.483169780799997
 31
0.0
  0
LINE
  5
B01
  8
0
  6
CONTINUOUS
 62
     2
 10
759.89100070090001
 20
56.483169780799997
 30
0.0
 11
759.98764834455505
 21
56.32707847679999
 31
0.0
  0
LINE
  5
B02
  8
0
  6
CONTINUOUS
 62
     2
 10
761.82652110227252
 20
56.483169780799997
 30
0.0
 11
761.90605359409994
 21
56.32707847679999
 31
0.0
  0
LINE
  5
B03
  8
0
  6
CONTINUOUS
 62
     2
 10
759.98764834455505
 20
56.32707847679999
 30
0.0
 11
760.25279160440004
 21
55.8988574089
 31
0.0
  0
LINE
  5
B04
  8
0
  6
CONTINUOUS
 62
     2
 10
761.90605359409994
 20
56.32707847679999
 30
0.0
 11
761.9738771482896
 21
55.8988574089
 31
0.0
  0
LINE
  5
B05
  8
0
  6
CONTINUOUS
 62
     2
 10
760.25279160440004
 20
55.8988574089
 30
0.0
 11
760.37907359999986
 21
55.223308400000001
 31
0.0
  0
LINE
  5
B06
  8
0
  6
CONTINUOUS
 62
     2
 10
761.9738771482896
 20
55.8988574089
 30
0.0
 11
762.08087360000002
 21
55.223308400000001
 31
0.0
  0
LINE
  5
B07
  8
0
  6
CONTINUOUS
 62
     2
 10
760.37907359999986
 20
55.223308400000001
 30
0.0
 11
760.25279160440004
 21
54.547759391100001
 31
0.0
  0
LINE
  5
B08
  8
0
  6
CONTINUOUS
 62
     2
 10
762.08087360000002
 20
55.223308400000001
 30
0.0
 11
761.9738771482896
 21
54.547759391100001
 31
0.0
  0
LINE
  5
B09
  8
0
  6
CONTINUOUS
 62
     2
 10
760.25279160440004
 20
54.547759391100001
 30
0.0
 11
759.98764834455505
 21
54.119538323199997
 31
0.0
  0
LINE
  5
B0A
  8
0
  6
CONTINUOUS
 62
     2
 10
761.9738771482896
 20
54.547759391100001
 30
0.0
 11
761.90605359409994
 21
54.119538323199997
 31
0.0
  0
LINE
  5
B0B
  8
0
  6
CONTINUOUS
 62
     2
 10
759.98764834455505
 20
54.119538323199997
 30
0.0
 11
759.89100070090001
 21
53.963447019199997
 31
0.0
  0
LINE
  5
B0C
  8
0
  6
CONTINUOUS
 62
     2
 10
761.90605359409994
 20
54.119538323199997
 30
0.0
 11
761.82652110226195
 21
53.963447019199997
 31
0.0
  0
LINE
  5
B0D
  8
0
  6
CONTINUOUS
 62
     2
 10
759.89100070090001
 20
53.963447019199997
 30
0.0
 11
759.34256275569999
 21
53.5492859079
 31
0.0
  0
LINE
  5
B0E
  8
0
  6
CONTINUOUS
 62
     2
 10
761.82652110226195
 20
53.963447019199997
 30
0.0
 11
761.61549547584968
 21
53.5492859079
 31
0.0
  0
LINE
  5
B0F
  8
0
  6
CONTINUOUS
 62
     2
 10
759.34256275569999
 20
53.5492859079
 30
0.0
 11
758.68154735229996
 21
53.361210810300001
 31
0.0
  0
LINE
  5
B10
  8
0
  6
CONTINUOUS
 62
     2
 10
761.61549547584968
 20
53.5492859079
 30
0.0
 11
761.51966642720004
 21
53.361210810300001
 31
0.0
  0
LINE
  5
B11
  8
0
  6
CONTINUOUS
 62
     2
 10
758.68154735229996
 20
53.361210810300001
 30
0.0
 11
761.51966642720004
 21
53.361210810300001
 31
0.0
  0
ENDBLK
  5
B13
  8
0
  0
BLOCK
  8
0
  2
*U12
 70
     1
 10
0.0
 20
0.0
 30
0.0
  3
*U12
  1

  0
SOLID
  5
B23
  8
0
  6
CONTINUOUS
 62
     2
 10
762.87462359999995
 20
58.795183399999999
 30
0.0
 11
762.87462359999995
 21
58.795183399999999
 31
0.0
 12
764.57642359999988
 22
58.795183399999999
 32
0.0
 13
764.57642359999988
 23
58.795183399999999
 33
0.0
210
0.0
220
0.0
230
1.0
  0
SOLID
  5
B24
  8
0
  6
CONTINUOUS
 62
     2
 10
766.5607986
 20
58.795183399999999
 30
0.0
 11
766.5607986
 21
58.795183399999999
 31
0.0
 12
768.26259860000005
 22
58.795183399999999
 32
0.0
 13
768.26259860000005
 23
58.795183399999999
 33
0.0
210
0.0
220
0.0
230
1.0
  0
SOLID
  5
B25
  8
0
  6
CONTINUOUS
 62
     2
 10
762.87462359999995
 20
58.795183399999999
 30
0.0
 11
762.87462359999995
 21
56.471083399999991
 31
0.0
 12
764.57642359999988
 22
56.471083399999991
 32
0.0
 13
764.57642359999988
 23
56.471083399999991
 33
0.0
210
0.0
220
0.0
230
1.0
  0
SOLID
  5
B26
  8
0
  6
CONTINUOUS
 62
     2
 10
-762.87462359999995
 20
58.795183399999999
 30
0.0
 11
-764.57642359999988
 21
58.795183399999999
 31
0.0
 12
-764.57642359999988
 22
56.471083399999991
 32
0.0
 13
-764.57642359999988
 23
56.471083399999991
 33
0.0
210
0.0
220
0.0
230
-1.0
  0
SOLID
  5
B27
  8
0
  6
CONTINUOUS
 62
     2
 10
766.5607986
 20
58.795183399999999
 30
0.0
 11
766.5607986
 21
56.471083399999991
 31
0.0
 12
768.26259860000005
 22
56.471083399999991
 32
0.0
 13
768.26259860000005
 23
56.471083399999991
 33
0.0
210
0.0
220
0.0
230
1.0
  0
SOLID
  5
B28
  8
0
  6
CONTINUOUS
 62
     2
 10
-766.5607986
 20
58.795183399999999
 30
0.0
 11
-768.26259860000005
 21
58.795183399999999
 31
0.0
 12
-768.26259860000005
 22
56.471083399999991
 32
0.0
 13
-768.26259860000005
 23
56.471083399999991
 33
0.0
210
0.0
220
0.0
230
-1.0
  0
SOLID
  5
B29
  8
0
  6
CONTINUOUS
 62
     2
 10
764.57642359999988
 20
56.471083399999991
 30
0.0
 11
764.57642359999988
 21
56.471083399999991
 31
0.0
 12
766.5607986
 22
56.471083399999991
 32
0.0
 13
766.5607986
 23
56.471083399999991
 33
0.0
210
0.0
220
0.0
230
1.0
  0
SOLID
  5
B2A
  8
0
  6
CONTINUOUS
 62
     2
 10
762.87462359999995
 20
56.471083399999991
 30
0.0
 11
762.87462359999995
 21
54.769283399999999
 31
0.0
 12
768.26259860000005
 22
54.769283399999999
 32
0.0
 13
768.26259860000005
 23
54.769283399999999
 33
0.0
210
0.0
220
0.0
230
1.0
  0
SOLID
  5
B2B
  8
0
  6
CONTINUOUS
 62
     2
 10
-762.87462359999995
 20
56.471083399999991
 30
0.0
 11
-768.26259860000005
 21
56.471083399999991
 31
0.0
 12
-768.26259860000005
 22
54.769283399999999
 32
0.0
 13
-768.26259860000005
 23
54.769283399999999
 33
0.0
210
0.0
220
0.0
230
-1.0
  0
SOLID
  5
B2C
  8
0
  6
CONTINUOUS
 62
     2
 10
764.57642359999988
 20
54.769283399999999
 30
0.0
 11
764.57642359999988
 21
54.769283399999999
 31
0.0
 12
766.5607986
 22
54.769283399999999
 32
0.0
 13
766.5607986
 23
54.769283399999999
 33
0.0
210
0.0
220
0.0
230
1.0
  0
SOLID
  5
B2D
  8
0
  6
CONTINUOUS
 62
     2
 10
762.87462359999995
 20
54.769283399999999
 30
0.0
 11
762.87462359999995
 21
51.651433400000002
 31
0.0
 12
764.57642359999988
 22
51.651433400000002
 32
0.0
 13
764.57642359999988
 23
51.651433400000002
 33
0.0
210
0.0
220
0.0
230
1.0
  0
SOLID
  5
B2E
  8
0
  6
CONTINUOUS
 62
     2
 10
-762.87462359999995
 20
54.769283399999999
 30
0.0
 11
-764.57642359999988
 21
54.769283399999999
 31
0.0
 12
-764.57642359999988
 22
51.651433400000002
 32
0.0
 13
-764.57642359999988
 23
51.651433400000002
 33
0.0
210
0.0
220
0.0
230
-1.0
  0
SOLID
  5
B2F
  8
0
  6
CONTINUOUS
 62
     2
 10
766.5607986
 20
54.769283399999999
 30
0.0
 11
766.5607986
 21
51.651433400000002
 31
0.0
 12
768.26259860000005
 22
51.651433400000002
 32
0.0
 13
768.26259860000005
 23
51.651433400000002
 33
0.0
210
0.0
220
0.0
230
1.0
  0
SOLID
  5
B30
  8
0
  6
CONTINUOUS
 62
     2
 10
-766.5607986
 20
54.769283399999999
 30
0.0
 11
-768.26259860000005
 21
54.769283399999999
 31
0.0
 12
-768.26259860000005
 22
51.651433400000002
 32
0.0
 13
-768.26259860000005
 23
51.651433400000002
 33
0.0
210
0.0
220
0.0
230
-1.0
  0
SOLID
  5
B31
  8
0
  6
CONTINUOUS
 62
     2
 10
762.87462359999995
 20
51.651433400000002
 30
0.0
 11
762.87462359999995
 21
51.651433400000002
 31
0.0
 12
764.57642359999988
 22
51.651433400000002
 32
0.0
 13
764.57642359999988
 23
51.651433400000002
 33
0.0
210
0.0
220
0.0
230
1.0
  0
SOLID
  5
B32
  8
0
  6
CONTINUOUS
 62
     2
 10
766.5607986
 20
51.651433400000002
 30
0.0
 11
766.5607986
 21
51.651433400000002
 31
0.0
 12
768.26259860000005
 22
51.651433400000002
 32
0.0
 13
768.26259860000005
 23
51.651433400000002
 33
0.0
210
0.0
220
0.0
230
1.0
  0
LINE
  5
B33
  8
0
  6
CONTINUOUS
 62
     2
 10
762.87462359999995
 20
58.795183399999999
 30
0.0
 11
764.57642359999988
 21
58.795183399999999
 31
0.0
  0
LINE
  5
B34
  8
0
  6
CONTINUOUS
 62
     2
 10
766.5607986
 20
58.795183399999999
 30
0.0
 11
768.26259860000005
 21
58.795183399999999
 31
0.0
  0
LINE
  5
B35
  8
0
  6
CONTINUOUS
 62
     2
 10
762.87462359999995
 20
58.795183399999999
 30
0.0
 11
762.87462359999995
 21
56.471083399999991
 31
0.0
  0
LINE
  5
B36
  8
0
  6
CONTINUOUS
 62
     2
 10
764.57642359999988
 20
58.795183399999999
 30
0.0
 11
764.57642359999988
 21
56.471083399999991
 31
0.0
  0
LINE
  5
B37
  8
0
  6
CONTINUOUS
 62
     2
 10
766.5607986
 20
58.795183399999999
 30
0.0
 11
766.5607986
 21
56.471083399999991
 31
0.0
  0
LINE
  5
B38
  8
0
  6
CONTINUOUS
 62
     2
 10
768.26259860000005
 20
58.795183399999999
 30
0.0
 11
768.26259860000005
 21
56.471083399999991
 31
0.0
  0
LINE
  5
B39
  8
0
  6
CONTINUOUS
 62
     2
 10
764.57642359999988
 20
56.471083399999991
 30
0.0
 11
766.5607986
 21
56.471083399999991
 31
0.0
  0
LINE
  5
B3A
  8
0
  6
CONTINUOUS
 62
     2
 10
762.87462359999995
 20
56.471083399999991
 30
0.0
 11
762.87462359999995
 21
54.769283399999999
 31
0.0
  0
LINE
  5
B3B
  8
0
  6
CONTINUOUS
 62
     2
 10
768.26259860000005
 20
56.471083399999991
 30
0.0
 11
768.26259860000005
 21
54.769283399999999
 31
0.0
  0
LINE
  5
B3C
  8
0
  6
CONTINUOUS
 62
     2
 10
764.57642359999988
 20
54.769283399999999
 30
0.0
 11
766.5607986
 21
54.769283399999999
 31
0.0
  0
LINE
  5
B3D
  8
0
  6
CONTINUOUS
 62
     2
 10
762.87462359999995
 20
54.769283399999999
 30
0.0
 11
762.87462359999995
 21
51.651433400000002
 31
0.0
  0
LINE
  5
B3E
  8
0
  6
CONTINUOUS
 62
     2
 10
764.57642359999988
 20
54.769283399999999
 30
0.0
 11
764.57642359999988
 21
51.651433400000002
 31
0.0
  0
LINE
  5
B3F
  8
0
  6
CONTINUOUS
 62
     2
 10
766.5607986
 20
54.769283399999999
 30
0.0
 11
766.5607986
 21
51.651433400000002
 31
0.0
  0
LINE
  5
B40
  8
0
  6
CONTINUOUS
 62
     2
 10
768.26259860000005
 20
54.769283399999999
 30
0.0
 11
768.26259860000005
 21
51.651433400000002
 31
0.0
  0
LINE
  5
B41
  8
0
  6
CONTINUOUS
 62
     2
 10
762.87462359999995
 20
51.651433400000002
 30
0.0
 11
764.57642359999988
 21
51.651433400000002
 31
0.0
  0
LINE
  5
B42
  8
0
  6
CONTINUOUS
 62
     2
 10
766.5607986
 20
51.651433400000002
 30
0.0
 11
768.26259860000005
 21
51.651433400000002
 31
0.0
  0
ENDBLK
  5
B44
  8
0
  0
BLOCK
  8
0
  2
*U13
 70
     1
 10
0.0
 20
0.0
 30
0.0
  3
*U13
  1

  0
SOLID
  5
B4E
  8
0
  6
CONTINUOUS
 62
     2
 10
769.05634859999998
 20
58.795183399999999
 30
0.0
 11
769.05634859999998
 21
58.795183399999999
 31
0.0
 12
770.75814860000003
 22
58.795183399999999
 32
0.0
 13
770.75814860000003
 23
58.795183399999999
 33
0.0
210
0.0
220
0.0
230
1.0
  0
SOLID
  5
B4F
  8
0
  6
CONTINUOUS
 62
     2
 10
769.05634859999998
 20
58.795183399999999
 30
0.0
 11
769.05634859999998
 21
53.353233400000001
 31
0.0
 12
770.75814860000003
 22
53.353233400000001
 32
0.0
 13
770.75814860000003
 23
53.353233400000001
 33
0.0
210
0.0
220
0.0
230
1.0
  0
SOLID
  5
B50
  8
0
  6
CONTINUOUS
 62
     2
 10
-769.05634859999998
 20
58.795183399999999
 30
0.0
 11
-770.75814860000003
 21
58.795183399999999
 31
0.0
 12
-770.75814860000003
 22
53.353233400000001
 32
0.0
 13
-770.75814860000003
 23
53.353233400000001
 33
0.0
210
0.0
220
0.0
230
-1.0
  0
SOLID
  5
B51
  8
0
  6
CONTINUOUS
 62
     2
 10
770.75814860000003
 20
53.353233400000001
 30
0.0
 11
770.75814860000003
 21
53.353233400000001
 31
0.0
 12
773.02509859999986
 22
53.353233400000001
 32
0.0
 13
773.02509859999986
 23
53.353233400000001
 33
0.0
210
0.0
220
0.0
230
1.0
  0
SOLID
  5
B52
  8
0
  6
CONTINUOUS
 62
     2
 10
769.05634859999998
 20
53.353233400000001
 30
0.0
 11
769.05634859999998
 21
51.651433400000002
 31
0.0
 12
773.02509859999986
 22
51.651433400000002
 32
0.0
 13
773.02509859999986
 23
51.651433400000002
 33
0.0
210
0.0
220
0.0
230
1.0
  0
SOLID
  5
B53
  8
0
  6
CONTINUOUS
 62
     2
 10
-769.05634859999998
 20
53.353233400000001
 30
0.0
 11
-773.02509859999986
 21
53.353233400000001
 31
0.0
 12
-773.02509859999986
 22
51.651433400000002
 32
0.0
 13
-773.02509859999986
 23
51.651433400000002
 33
0.0
210
0.0
220
0.0
230
-1.0
  0
SOLID
  5
B54
  8
0
  6
CONTINUOUS
 62
     2
 10
769.05634859999998
 20
51.651433400000002
 30
0.0
 11
769.05634859999998
 21
51.651433400000002
 31
0.0
 12
773.02509859999986
 22
51.651433400000002
 32
0.0
 13
773.02509859999986
 23
51.651433400000002
 33
0.0
210
0.0
220
0.0
230
1.0
  0
LINE
  5
B55
  8
0
  6
CONTINUOUS
 62
     2
 10
769.05634859999998
 20
58.795183399999999
 30
0.0
 11
770.75814860000003
 21
58.795183399999999
 31
0.0
  0
LINE
  5
B56
  8
0
  6
CONTINUOUS
 62
     2
 10
769.05634859999998
 20
58.795183399999999
 30
0.0
 11
769.05634859999998
 21
53.353233400000001
 31
0.0
  0
LINE
  5
B57
  8
0
  6
CONTINUOUS
 62
     2
 10
770.75814860000003
 20
58.795183399999999
 30
0.0
 11
770.75814860000003
 21
53.353233400000001
 31
0.0
  0
LINE
  5
B58
  8
0
  6
CONTINUOUS
 62
     2
 10
770.75814860000003
 20
53.353233400000001
 30
0.0
 11
773.02509859999986
 21
53.353233400000001
 31
0.0
  0
LINE
  5
B59
  8
0
  6
CONTINUOUS
 62
     2
 10
769.05634859999998
 20
53.353233400000001
 30
0.0
 11
769.05634859999998
 21
51.651433400000002
 31
0.0
  0
LINE
  5
B5A
  8
0
  6
CONTINUOUS
 62
     2
 10
773.02509859999986
 20
53.353233400000001
 30
0.0
 11
773.02509859999986
 21
51.651433400000002
 31
0.0
  0
LINE
  5
B5B
  8
0
  6
CONTINUOUS
 62
     2
 10
769.05634859999998
 20
51.651433400000002
 30
0.0
 11
773.02509859999986
 21
51.651433400000002
 31
0.0
  0
ENDBLK
  5
B5D
  8
0
  0
BLOCK
  8
0
  2
*U14
 70
     1
 10
0.0
 20
0.0
 30
0.0
  3
*U14
  1

  0
SOLID
  5
B6D
  8
0
  6
CONTINUOUS
 62
     2
 10
773.81884860000002
 20
58.795183399999999
 30
0.0
 11
773.81884860000002
 21
58.795183399999999
 31
0.0
 12
777.78759860000002
 22
58.795183399999999
 32
0.0
 13
777.78759860000002
 23
58.795183399999999
 33
0.0
210
0.0
220
0.0
230
1.0
  0
SOLID
  5
B6E
  8
0
  6
CONTINUOUS
 62
     2
 10
773.81884860000002
 20
58.795183399999999
 30
0.0
 11
773.81884860000002
 21
57.0933834
 31
0.0
 12
777.78759860000002
 22
57.0933834
 32
0.0
 13
777.78759860000002
 23
57.0933834
 33
0.0
210
0.0
220
0.0
230
1.0
  0
SOLID
  5
B6F
  8
0
  6
CONTINUOUS
 62
     2
 10
-773.81884860000002
 20
58.795183399999999
 30
0.0
 11
-777.78759860000002
 21
58.795183399999999
 31
0.0
 12
-777.78759860000002
 22
57.0933834
 32
0.0
 13
-777.78759860000002
 23
57.0933834
 33
0.0
210
0.0
220
0.0
230
-1.0
  0
SOLID
  5
B70
  8
0
  6
CONTINUOUS
 62
     2
 10
775.52064859999984
 20
57.0933834
 30
0.0
 11
775.52064859999984
 21
57.0933834
 31
0.0
 12
777.78759860000002
 22
57.0933834
 32
0.0
 13
777.78759860000002
 23
57.0933834
 33
0.0
210
0.0
220
0.0
230
1.0
  0
SOLID
  5
B71
  8
0
  6
CONTINUOUS
 62
     2
 10
773.81884860000002
 20
57.0933834
 30
0.0
 11
773.81884860000002
 21
55.875770899999992
 31
0.0
 12
775.52064859999984
 22
55.875770899999992
 32
0.0
 13
775.52064859999984
 23
55.875770899999992
 33
0.0
  0
SOLID
  5
B72
  8
0
  6
CONTINUOUS
 62
     2
 10
-773.81884860000002
 20
57.0933834
 30
0.0
 11
-775.52064859999984
 21
57.0933834
 31
0.0
 12
-775.52064859999984
 22
55.875770899999992
 32
0.0
 13
-775.52064859999984
 23
55.875770899999992
 33
0.0
210
0.0
220
0.0
230
-1.0
  0
SOLID
  5
B73
  8
0
  6
CONTINUOUS
 62
     2
 10
775.52064859999984
 20
55.875770899999992
 30
0.0
 11
775.52064859999984
 21
55.875770899999992
 31
0.0
 12
777.78759860000002
 22
55.875770899999992
 32
0.0
 13
777.78759860000002
 23
55.875770899999992
 33
0.0
210
0.0
220
0.0
230
1.0
  0
SOLID
  5
B74
  8
0
  6
CONTINUOUS
 62
     2
 10
773.81884860000002
 20
55.875770899999992
 30
0.0
 11
773.81884860000002
 21
54.570845900000002
 31
0.0
 12
777.78759860000002
 22
54.570845900000002
 32
0.0
 13
777.78759860000002
 23
54.570845900000002
 33
0.0
210
0.0
220
0.0
230
1.0
  0
SOLID
  5
B75
  8
0
  6
CONTINUOUS
 62
     2
 10
-773.81884860000002
 20
55.875770899999992
 30
0.0
 11
-777.78759860000002
 21
55.875770899999992
 31
0.0
 12
-777.78759860000002
 22
54.570845900000002
 32
0.0
 13
-777.78759860000002
 23
54.570845900000002
 33
0.0
210
0.0
220
0.0
230
-1.0
  0
SOLID
  5
B76
  8
0
  6
CONTINUOUS
 62
     2
 10
775.52064859999984
 20
54.570845900000002
 30
0.0
 11
775.52064859999984
 21
54.570845900000002
 31
0.0
 12
777.78759860000002
 22
54.570845900000002
 32
0.0
 13
777.78759860000002
 23
54.570845900000002
 33
0.0
210
0.0
220
0.0
230
1.0
  0
SOLID
  5
B77
  8
0
  6
CONTINUOUS
 62
     2
 10
773.81884860000002
 20
54.570845900000002
 30
0.0
 11
773.81884860000002
 21
53.353233400000001
 31
0.0
 12
775.52064859999984
 22
53.353233400000001
 32
0.0
 13
775.52064859999984
 23
53.353233400000001
 33
0.0
  0
SOLID
  5
B78
  8
0
  6
CONTINUOUS
 62
     2
 10
-773.81884860000002
 20
54.570845900000002
 30
0.0
 11
-775.52064859999984
 21
54.570845900000002
 31
0.0
 12
-775.52064859999984
 22
53.353233400000001
 32
0.0
 13
-775.52064859999984
 23
53.353233400000001
 33
0.0
210
0.0
220
0.0
230
-1.0
  0
SOLID
  5
B79
  8
0
  6
CONTINUOUS
 62
     2
 10
775.52064859999984
 20
53.353233400000001
 30
0.0
 11
775.52064859999984
 21
53.353233400000001
 31
0.0
 12
777.78759860000002
 22
53.353233400000001
 32
0.0
 13
777.78759860000002
 23
53.353233400000001
 33
0.0
210
0.0
220
0.0
230
1.0
  0
SOLID
  5
B7A
  8
0
  6
CONTINUOUS
 62
     2
 10
773.81884860000002
 20
53.353233400000001
 30
0.0
 11
773.81884860000002
 21
51.651433400000002
 31
0.0
 12
777.78759860000002
 22
51.651433400000002
 32
0.0
 13
777.78759860000002
 23
51.651433400000002
 33
0.0
210
0.0
220
0.0
230
1.0
  0
SOLID
  5
B7B
  8
0
  6
CONTINUOUS
 62
     2
 10
-773.81884860000002
 20
53.353233400000001
 30
0.0
 11
-777.78759860000002
 21
53.353233400000001
 31
0.0
 12
-777.78759860000002
 22
51.651433400000002
 32
0.0
 13
-777.78759860000002
 23
51.651433400000002
 33
0.0
210
0.0
220
0.0
230
-1.0
  0
SOLID
  5
B7C
  8
0
  6
CONTINUOUS
 62
     2
 10
773.81884860000002
 20
51.651433400000002
 30
0.0
 11
773.81884860000002
 21
51.651433400000002
 31
0.0
 12
777.78759860000002
 22
51.651433400000002
 32
0.0
 13
777.78759860000002
 23
51.651433400000002
 33
0.0
210
0.0
220
0.0
230
1.0
  0
LINE
  5
B7D
  8
0
  6
CONTINUOUS
 62
     2
 10
773.81884860000002
 20
58.795183399999999
 30
0.0
 11
777.78759860000002
 21
58.795183399999999
 31
0.0
  0
LINE
  5
B7E
  8
0
  6
CONTINUOUS
 62
     2
 10
773.81884860000002
 20
58.795183399999999
 30
0.0
 11
773.81884860000002
 21
57.0933834
 31
0.0
  0
LINE
  5
B7F
  8
0
  6
CONTINUOUS
 62
     2
 10
777.78759860000002
 20
58.795183399999999
 30
0.0
 11
777.78759860000002
 21
57.0933834
 31
0.0
  0
LINE
  5
B80
  8
0
  6
CONTINUOUS
 62
     2
 10
775.52064859999984
 20
57.0933834
 30
0.0
 11
777.78759860000002
 21
57.0933834
 31
0.0
  0
LINE
  5
B81
  8
0
  6
CONTINUOUS
 62
     2
 10
773.81884860000002
 20
57.0933834
 30
0.0
 11
773.81884860000002
 21
55.875770899999992
 31
0.0
  0
LINE
  5
B82
  8
0
  6
CONTINUOUS
 62
     2
 10
775.52064859999984
 20
57.0933834
 30
0.0
 11
775.52064859999984
 21
55.875770899999992
 31
0.0
  0
LINE
  5
B83
  8
0
  6
CONTINUOUS
 62
     2
 10
775.52064859999984
 20
55.875770899999992
 30
0.0
 11
777.78759860000002
 21
55.875770899999992
 31
0.0
  0
LINE
  5
B84
  8
0
  6
CONTINUOUS
 62
     2
 10
773.81884860000002
 20
55.875770899999992
 30
0.0
 11
773.81884860000002
 21
54.570845900000002
 31
0.0
  0
LINE
  5
B85
  8
0
  6
CONTINUOUS
 62
     2
 10
777.78759860000002
 20
55.875770899999992
 30
0.0
 11
777.78759860000002
 21
54.570845900000002
 31
0.0
  0
LINE
  5
B86
  8
0
  6
CONTINUOUS
 62
     2
 10
775.52064859999984
 20
54.570845900000002
 30
0.0
 11
777.78759860000002
 21
54.570845900000002
 31
0.0
  0
LINE
  5
B87
  8
0
  6
CONTINUOUS
 62
     2
 10
773.81884860000002
 20
54.570845900000002
 30
0.0
 11
773.81884860000002
 21
53.353233400000001
 31
0.0
  0
LINE
  5
B88
  8
0
  6
CONTINUOUS
 62
     2
 10
775.52064859999984
 20
54.570845900000002
 30
0.0
 11
775.52064859999984
 21
53.353233400000001
 31
0.0
  0
LINE
  5
B89
  8
0
  6
CONTINUOUS
 62
     2
 10
775.52064859999984
 20
53.353233400000001
 30
0.0
 11
777.78759860000002
 21
53.353233400000001
 31
0.0
  0
LINE
  5
B8A
  8
0
  6
CONTINUOUS
 62
     2
 10
773.81884860000002
 20
53.353233400000001
 30
0.0
 11
773.81884860000002
 21
51.651433400000002
 31
0.0
  0
LINE
  5
B8B
  8
0
  6
CONTINUOUS
 62
     2
 10
777.78759860000002
 20
53.353233400000001
 30
0.0
 11
777.78759860000002
 21
51.651433400000002
 31
0.0
  0
LINE
  5
B8C
  8
0
  6
CONTINUOUS
 62
     2
 10
773.81884860000002
 20
51.651433400000002
 30
0.0
 11
777.78759860000002
 21
51.651433400000002
 31
0.0
  0
ENDBLK
  5
B8E
  8
0
  0
BLOCK
  8
0
  2
*U15
 70
     1
 10
0.0
 20
0.0
 30
0.0
  3
*U15
  1

  0
SOLID
  5
B99
  8
0
  6
CONTINUOUS
 62
     7
 10
431.80000000000001
 20
12.699999999999999
 30
0.0
 11
429.41874999999987
 21
7.9375
 31
0.0
 12
434.18124999999992
 22
7.9375
 32
0.0
 13
434.18124999999992
 23
7.9375
 33
0.0
210
0.0
220
0.0
230
1.0
  0
SOLID
  5
B9A
  8
0
  6
CONTINUOUS
 62
     7
 10
429.41874999999987
 20
7.9375
 30
0.0
 11
429.41874999999987
 21
7.9375
 31
0.0
 12
431.20468749999998
 22
7.9375
 32
0.0
 13
431.20468749999998
 23
7.9375
 33
0.0
210
0.0
220
0.0
230
1.0
  0
SOLID
  5
B9B
  8
0
  6
CONTINUOUS
 62
     7
 10
432.39531249999999
 20
7.9375
 30
0.0
 11
432.39531249999999
 21
7.9375
 31
0.0
 12
434.18124999999992
 22
7.9375
 32
0.0
 13
434.18124999999992
 23
7.9375
 33
0.0
210
0.0
220
0.0
230
1.0
  0
SOLID
  5
B9C
  8
0
  6
CONTINUOUS
 62
     7
 10
431.20468749999998
 20
7.9375
 30
0.0
 11
431.20468749999998
 21
3.1749999999999989
 31
0.0
 12
432.39531249999999
 22
3.1749999999999989
 32
0.0
 13
432.39531249999999
 23
3.1749999999999989
 33
0.0
210
0.0
220
0.0
230
1.0
  0
SOLID
  5
B9D
  8
0
  6
CONTINUOUS
 62
     7
 10
-431.20468749999998
 20
7.9375
 30
0.0
 11
-432.39531249999999
 21
7.9375
 31
0.0
 12
-432.39531249999999
 22
3.1749999999999989
 32
0.0
 13
-432.39531249999999
 23
3.1749999999999989
 33
0.0
210
0.0
220
0.0
230
-1.0
  0
SOLID
  5
B9E
  8
0
  6
CONTINUOUS
 62
     7
 10
431.20468749999998
 20
3.1749999999999989
 30
0.0
 11
431.20468749999998
 21
3.1749999999999989
 31
0.0
 12
432.39531249999999
 22
3.1749999999999989
 32
0.0
 13
432.39531249999999
 23
3.1749999999999989
 33
0.0
210
0.0
220
0.0
230
1.0
  0
LINE
  5
B9F
  8
0
  6
CONTINUOUS
 62
     7
 10
431.80000000000001
 20
12.699999999999999
 30
0.0
 11
429.41874999999987
 21
7.9375
 31
0.0
  0
LINE
  5
BA0
  8
0
  6
CONTINUOUS
 62
     7
 10
434.18124999999992
 20
7.9375
 30
0.0
 11
431.80000000000001
 21
12.699999999999999
 31
0.0
  0
LINE
  5
BA1
  8
0
  6
CONTINUOUS
 62
     7
 10
429.41874999999987
 20
7.9375
 30
0.0
 11
431.20468749999998
 21
7.9375
 31
0.0
  0
LINE
  5
BA2
  8
0
  6
CONTINUOUS
 62
     7
 10
432.39531249999999
 20
7.9375
 30
0.0
 11
434.18124999999992
 21
7.9375
 31
0.0
  0
LINE
  5
BA3
  8
0
  6
CONTINUOUS
 62
     7
 10
431.20468749999998
 20
7.9375
 30
0.0
 11
431.20468749999998
 21
3.1749999999999989
 31
0.0
  0
LINE
  5
BA4
  8
0
  6
CONTINUOUS
 62
     7
 10
432.39531249999999
 20
7.9375
 30
0.0
 11
432.39531249999999
 21
3.1749999999999989
 31
0.0
  0
LINE
  5
BA5
  8
0
  6
CONTINUOUS
 62
     7
 10
431.20468749999998
 20
3.1749999999999989
 30
0.0
 11
432.39531249999999
 21
3.1749999999999989
 31
0.0
  0
ENDBLK
  5
BA7
  8
0
  0
BLOCK
  8
0
  2
*U16
 70
     1
 10
0.0
 20
0.0
 30
0.0
  3
*U16
  1

  0
SOLID
  5
BB2
  8
0
  6
CONTINUOUS
 62
     7
 10
431.20468749999998
 20
555.625
 30
0.0
 11
431.20468749999998
 21
555.625
 31
0.0
 12
432.39531249999999
 22
555.625
 32
0.0
 13
432.39531249999999
 23
555.625
 33
0.0
210
0.0
220
0.0
230
1.0
  0
SOLID
  5
BB3
  8
0
  6
CONTINUOUS
 62
     7
 10
431.20468749999998
 20
555.625
 30
0.0
 11
431.20468749999998
 21
550.86249999999995
 31
0.0
 12
432.39531249999999
 22
550.86249999999995
 32
0.0
 13
432.39531249999999
 23
550.86249999999995
 33
0.0
210
0.0
220
0.0
230
1.0
  0
SOLID
  5
BB4
  8
0
  6
CONTINUOUS
 62
     7
 10
-431.20468749999998
 20
555.625
 30
0.0
 11
-432.39531249999999
 21
555.625
 31
0.0
 12
-432.39531249999999
 22
550.86249999999995
 32
0.0
 13
-432.39531249999999
 23
550.86249999999995
 33
0.0
210
0.0
220
0.0
230
-1.0
  0
SOLID
  5
BB5
  8
0
  6
CONTINUOUS
 62
     7
 10
429.41874999999987
 20
550.86249999999995
 30
0.0
 11
429.41874999999987
 21
550.86249999999995
 31
0.0
 12
431.20468749999998
 22
550.86249999999995
 32
0.0
 13
431.20468749999998
 23
550.86249999999995
 33
0.0
210
0.0
220
0.0
230
1.0
  0
SOLID
  5
BB6
  8
0
  6
CONTINUOUS
 62
     7
 10
432.39531249999999
 20
550.86249999999995
 30
0.0
 11
432.39531249999999
 21
550.86249999999995
 31
0.0
 12
434.18124999999992
 22
550.86249999999995
 32
0.0
 13
434.18124999999992
 23
550.86249999999995
 33
0.0
210
0.0
220
0.0
230
1.0
  0
SOLID
  5
BB7
  8
0
  6
CONTINUOUS
 62
     7
 10
-429.41874999999987
 20
550.86249999999995
 30
0.0
 11
-434.18124999999992
 21
550.86249999999995
 31
0.0
 12
-431.80000000000001
 22
546.10000000000002
 32
0.0
 13
-431.80000000000001
 23
546.10000000000002
 33
0.0
210
0.0
220
0.0
230
-1.0
  0
LINE
  5
BB8
  8
0
  6
CONTINUOUS
 62
     7
 10
431.20468749999998
 20
555.625
 30
0.0
 11
432.39531249999999
 21
555.625
 31
0.0
  0
LINE
  5
BB9
  8
0
  6
CONTINUOUS
 62
     7
 10
431.20468749999998
 20
555.625
 30
0.0
 11
431.20468749999998
 21
550.86249999999995
 31
0.0
  0
LINE
  5
BBA
  8
0
  6
CONTINUOUS
 62
     7
 10
432.39531249999999
 20
555.625
 30
0.0
 11
432.39531249999999
 21
550.86249999999995
 31
0.0
  0
LINE
  5
BBB
  8
0
  6
CONTINUOUS
 62
     7
 10
429.41874999999987
 20
550.86249999999995
 30
0.0
 11
431.20468749999998
 21
550.86249999999995
 31
0.0
  0
LINE
  5
BBC
  8
0
  6
CONTINUOUS
 62
     7
 10
432.39531249999999
 20
550.86249999999995
 30
0.0
 11
434.18124999999992
 21
550.86249999999995
 31
0.0
  0
LINE
  5
BBD
  8
0
  6
CONTINUOUS
 62
     7
 10
434.18124999999992
 20
550.86249999999995
 30
0.0
 11
431.80000000000001
 21
546.10000000000002
 31
0.0
  0
LINE
  5
BBE
  8
0
  6
CONTINUOUS
 62
     7
 10
431.80000000000001
 20
546.10000000000002
 30
0.0
 11
429.41874999999987
 21
550.86249999999995
 31
0.0
  0
ENDBLK
  5
BC0
  8
0
  0
BLOCK
  8
0
  2
*U17
 70
     1
 10
0.0
 20
0.0
 30
0.0
  3
*U17
  1

  0
SOLID
  5
BCB
  8
0
  6
CONTINUOUS
 62
     7
 10
7.9375
 20
281.78125
 30
0.0
 11
7.9375
 21
279.99531250000001
 31
0.0
 12
11.50937499999994
 22
279.99531250000001
 32
0.0
 13
11.50937499999994
 23
279.99531250000001
 33
0.0
210
0.0
220
0.0
230
1.0
  0
SOLID
  5
BCC
  8
0
  6
CONTINUOUS
 62
     7
 10
3.1749999999999989
 20
279.99531250000001
 30
0.0
 11
3.1749999999999989
 21
279.99531250000001
 31
0.0
 12
7.9375
 22
279.99531250000001
 32
0.0
 13
7.9375
 23
279.99531250000001
 33
0.0
210
0.0
220
0.0
230
1.0
  0
SOLID
  5
BCD
  8
0
  6
CONTINUOUS
 62
     7
 10
3.1749999999999989
 20
279.99531250000001
 30
0.0
 11
3.1749999999999989
 21
279.39999999999998
 31
0.0
 12
12.699999999999999
 22
279.39999999999998
 32
0.0
 13
12.699999999999999
 23
279.39999999999998
 33
0.0
210
0.0
220
0.0
230
1.0
  0
SOLID
  5
BCE
  8
0
  6
CONTINUOUS
 62
     7
 10
-3.1749999999999989
 20
279.99531250000001
 30
0.0
 11
-11.50937499999994
 21
279.99531250000001
 31
0.0
 12
-12.699999999999999
 22
279.39999999999998
 32
0.0
 13
-12.699999999999999
 23
279.39999999999998
 33
0.0
210
0.0
220
0.0
230
-1.0
  0
SOLID
  5
BCF
  8
0
  6
CONTINUOUS
 62
     7
 10
3.1749999999999989
 20
279.39999999999998
 30
0.0
 11
3.1749999999999989
 21
278.8046875
 31
0.0
 12
11.509375000000031
 22
278.8046875
 32
0.0
 13
11.509375000000031
 23
278.8046875
 33
0.0
  0
SOLID
  5
BD0
  8
0
  6
CONTINUOUS
 62
     7
 10
-3.1749999999999989
 20
279.39999999999998
 30
0.0
 11
-12.699999999999999
 21
279.39999999999998
 31
0.0
 12
-11.509375000000031
 22
278.8046875
 32
0.0
 13
-11.509375000000031
 23
278.8046875
 33
0.0
210
0.0
220
0.0
230
-1.0
  0
SOLID
  5
BD1
  8
0
  6
CONTINUOUS
 62
     7
 10
3.1749999999999989
 20
278.8046875
 30
0.0
 11
3.1749999999999989
 21
278.8046875
 31
0.0
 12
7.9375
 22
278.8046875
 32
0.0
 13
7.9375
 23
278.8046875
 33
0.0
210
0.0
220
0.0
230
1.0
  0
SOLID
  5
BD2
  8
0
  6
CONTINUOUS
 62
     7
 10
-7.9375
 20
278.8046875
 30
0.0
 11
-11.509375000000031
 21
278.8046875
 31
0.0
 12
-7.9375
 22
277.01875000000001
 32
0.0
 13
-7.9375
 23
277.01875000000001
 33
0.0
210
0.0
220
0.0
230
-1.0
  0
LINE
  5
BD3
  8
0
  6
CONTINUOUS
 62
     7
 10
7.9375
 20
281.78125
 30
0.0
 11
7.9375
 21
279.99531250000001
 31
0.0
  0
LINE
  5
BD4
  8
0
  6
CONTINUOUS
 62
     7
 10
11.50937499999994
 20
279.99531250000001
 30
0.0
 11
7.9375
 21
281.78125
 31
0.0
  0
LINE
  5
BD5
  8
0
  6
CONTINUOUS
 62
     7
 10
3.1749999999999989
 20
279.99531250000001
 30
0.0
 11
7.9375
 21
279.99531250000001
 31
0.0
  0
LINE
  5
BD6
  8
0
  6
CONTINUOUS
 62
     7
 10
3.1749999999999989
 20
279.99531250000001
 30
0.0
 11
3.1749999999999989
 21
279.39999999999998
 31
0.0
  0
LINE
  5
BD7
  8
0
  6
CONTINUOUS
 62
     7
 10
11.50937499999994
 20
279.99531250000001
 30
0.0
 11
12.699999999999999
 21
279.39999999999998
 31
0.0
  0
LINE
  5
BD8
  8
0
  6
CONTINUOUS
 62
     7
 10
3.1749999999999989
 20
279.39999999999998
 30
0.0
 11
3.1749999999999989
 21
278.8046875
 31
0.0
  0
LINE
  5
BD9
  8
0
  6
CONTINUOUS
 62
     7
 10
12.699999999999999
 20
279.39999999999998
 30
0.0
 11
11.509375000000031
 21
278.8046875
 31
0.0
  0
LINE
  5
BDA
  8
0
  6
CONTINUOUS
 62
     7
 10
3.1749999999999989
 20
278.8046875
 30
0.0
 11
7.9375
 21
278.8046875
 31
0.0
  0
LINE
  5
BDB
  8
0
  6
CONTINUOUS
 62
     7
 10
11.509375000000031
 20
278.8046875
 30
0.0
 11
7.9375
 21
277.01875000000001
 31
0.0
  0
LINE
  5
BDC
  8
0
  6
CONTINUOUS
 62
     7
 10
7.9375
 20
277.01875000000001
 30
0.0
 11
7.9375
 21
278.8046875
 31
0.0
  0
ENDBLK
  5
BDE
  8
0
  0
BLOCK
  8
0
  2
*U18
 70
     1
 10
0.0
 20
0.0
 30
0.0
  3
*U18
  1

  0
SOLID
  5
BE9
  8
0
  6
CONTINUOUS
 62
     7
 10
855.66250000000002
 20
281.78125
 30
0.0
 11
852.09062500000005
 21
279.99531250000001
 31
0.0
 12
855.66250000000002
 22
279.99531250000001
 32
0.0
 13
855.66250000000002
 23
279.99531250000001
 33
0.0
210
0.0
220
0.0
230
1.0
  0
SOLID
  5
BEA
  8
0
  6
CONTINUOUS
 62
     7
 10
855.66250000000002
 20
279.99531250000001
 30
0.0
 11
855.66250000000002
 21
279.99531250000001
 31
0.0
 12
860.42499999999995
 22
279.99531250000001
 32
0.0
 13
860.42499999999995
 23
279.99531250000001
 33
0.0
210
0.0
220
0.0
230
1.0
  0
SOLID
  5
BEB
  8
0
  6
CONTINUOUS
 62
     7
 10
852.09062500000005
 20
279.99531250000001
 30
0.0
 11
850.89999999999998
 21
279.39999999999998
 31
0.0
 12
860.42499999999995
 22
279.39999999999998
 32
0.0
 13
860.42499999999995
 23
279.39999999999998
 33
0.0
210
0.0
220
0.0
230
1.0
  0
SOLID
  5
BEC
  8
0
  6
CONTINUOUS
 62
     7
 10
-852.09062500000005
 20
279.99531250000001
 30
0.0
 11
-860.42499999999995
 21
279.99531250000001
 31
0.0
 12
-860.42499999999995
 22
279.39999999999998
 32
0.0
 13
-860.42499999999995
 23
279.39999999999998
 33
0.0
210
0.0
220
0.0
230
-1.0
  0
SOLID
  5
BED
  8
0
  6
CONTINUOUS
 62
     7
 10
850.89999999999998
 20
279.39999999999998
 30
0.0
 11
852.09062499999993
 21
278.8046875
 31
0.0
 12
860.42499999999995
 22
278.8046875
 32
0.0
 13
860.42499999999995
 23
278.8046875
 33
0.0
210
0.0
220
0.0
230
1.0
  0
SOLID
  5
BEE
  8
0
  6
CONTINUOUS
 62
     7
 10
-850.89999999999998
 20
279.39999999999998
 30
0.0
 11
-860.42499999999995
 21
279.39999999999998
 31
0.0
 12
-860.42499999999995
 22
278.8046875
 32
0.0
 13
-860.42499999999995
 23
278.8046875
 33
0.0
210
0.0
220
0.0
230
-1.0
  0
SOLID
  5
BEF
  8
0
  6
CONTINUOUS
 62
     7
 10
855.66250000000002
 20
278.8046875
 30
0.0
 11
855.66250000000002
 21
278.8046875
 31
0.0
 12
860.42499999999995
 22
278.8046875
 32
0.0
 13
860.42499999999995
 23
278.8046875
 33
0.0
210
0.0
220
0.0
230
1.0
  0
SOLID
  5
BF0
  8
0
  6
CONTINUOUS
 62
     7
 10
-852.09062499999993
 20
278.8046875
 30
0.0
 11
-855.66250000000002
 21
278.8046875
 31
0.0
 12
-855.66250000000002
 22
277.01875000000001
 32
0.0
 13
-855.66250000000002
 23
277.01875000000001
 33
0.0
210
0.0
220
0.0
230
-1.0
  0
LINE
  5
BF1
  8
0
  6
CONTINUOUS
 62
     7
 10
855.66250000000002
 20
281.78125
 30
0.0
 11
852.09062500000005
 21
279.99531250000001
 31
0.0
  0
LINE
  5
BF2
  8
0
  6
CONTINUOUS
 62
     7
 10
855.66250000000002
 20
279.99531250000001
 30
0.0
 11
855.66250000000002
 21
281.78125
 31
0.0
  0
LINE
  5
BF3
  8
0
  6
CONTINUOUS
 62
     7
 10
855.66250000000002
 20
279.99531250000001
 30
0.0
 11
860.42499999999995
 21
279.99531250000001
 31
0.0
  0
LINE
  5
BF4
  8
0
  6
CONTINUOUS
 62
     7
 10
852.09062500000005
 20
279.99531250000001
 30
0.0
 11
850.89999999999998
 21
279.39999999999998
 31
0.0
  0
LINE
  5
BF5
  8
0
  6
CONTINUOUS
 62
     7
 10
860.42499999999995
 20
279.99531250000001
 30
0.0
 11
860.42499999999995
 21
279.39999999999998
 31
0.0
  0
LINE
  5
BF6
  8
0
  6
CONTINUOUS
 62
     7
 10
850.89999999999998
 20
279.39999999999998
 30
0.0
 11
852.09062499999993
 21
278.8046875
 31
0.0
  0
LINE
  5
BF7
  8
0
  6
CONTINUOUS
 62
     7
 10
860.42499999999995
 20
279.39999999999998
 30
0.0
 11
860.42499999999995
 21
278.8046875
 31
0.0
  0
LINE
  5
BF8
  8
0
  6
CONTINUOUS
 62
     7
 10
855.66250000000002
 20
278.8046875
 30
0.0
 11
860.42499999999995
 21
278.8046875
 31
0.0
  0
LINE
  5
BF9
  8
0
  6
CONTINUOUS
 62
     7
 10
855.66250000000002
 20
278.8046875
 30
0.0
 11
855.66250000000002
 21
277.01875000000001
 31
0.0
  0
LINE
  5
BFA
  8
0
  6
CONTINUOUS
 62
     7
 10
855.66250000000002
 20
277.01875000000001
 30
0.0
 11
852.09062499999993
 21
278.8046875
 31
0.0
  0
ENDBLK
  5
BFC
  8
0
  0
ENDSEC
  0
SECTION
  2
ENTITIES
  0
TEXT
  5
2E8
  8
0
  6
CONTINUOUS
 62
     5
 10
718.73533333329999
 20
52.07
 30
0.0
 40
2.54
  1
 
 41
0.8
  7
TEXTSTYLE_3
  0
TEXT
  5
2F1
  8
0
  6
CONTINUOUS
 62
     5
 10
773.49350000000015
 20
89.534999999999997
 30
0.0
 40
2.54
  1
 
 41
0.95
 72
     1
 11
774.70000000000005
 21
89.534999999999997
 31
0.0
  0
POLYLINE
  5
351
  8
0
  6
CONTINUOUS
 62
     7
 66
     1
 10
0.0
 20
0.0
 30
0.0
  0
VERTEX
  5
BFD
  8
0
  6
CONTINUOUS
 62
     7
 10
-59.5620516802108
 20
83.631903614799995
 30
0.0
  0
VERTEX
  5
BFE
  8
0
  6
CONTINUOUS
 62
     7
 10
-59.516003763210811
 20
83.0301346002
 30
0.0
  0
VERTEX
  5
BFF
  8
0
  6
CONTINUOUS
 62
     7
 10
-59.427129773610801
 20
82.080322362800018
 30
0.0
  0
VERTEX
  5
C00
  8
0
  6
CONTINUOUS
 62
     7
 10
-59.318674556210823
 20
81.133296097400006
 30
0.0
  0
VERTEX
  5
C01
  8
0
  6
CONTINUOUS
 62
     7
 10
-59.1907394140108
 20
80.189516877000017
 30
0.0
  0
VERTEX
  5
C02
  8
0
  6
CONTINUOUS
 62
     7
 10
-59.043418739410811
 20
79.249322612400022
 30
0.0
  0
VERTEX
  5
C03
  8
0
  6
CONTINUOUS
 62
     7
 10
-58.876787551610818
 20
78.312929825599994
 30
0.0
  0
VERTEX
  5
C04
  8
0
  6
CONTINUOUS
 62
     7
 10
-58.690951311410792
 20
77.380731854000004
 30
0.0
  0
VERTEX
  5
C05
  8
0
  6
CONTINUOUS
 62
     7
 10
-58.486023669610802
 20
76.453120298599998
 30
0.0
  0
VERTEX
  5
C06
  8
0
  6
CONTINUOUS
 62
     7
 10
-58.262081850810802
 20
75.530308754200007
 30
0.0
  0
VERTEX
  5
C07
  8
0
  6
CONTINUOUS
 62
     7
 10
-58.019244087610808
 20
74.612683824000015
 30
0.0
  0
VERTEX
  5
C08
  8
0
  6
CONTINUOUS
 62
     7
 10
-57.757636851810823
 20
73.700630716400013
 30
0.0
  0
VERTEX
  5
C09
  8
0
  6
CONTINUOUS
 62
     7
 10
-57.477340053410813
 20
72.794361840400001
 30
0.0
  0
VERTEX
  5
C0A
  8
0
  6
CONTINUOUS
 62
     7
 10
-57.178483163610821
 20
71.894253219600003
 30
0.0
  0
VERTEX
  5
C0B
  8
0
  6
CONTINUOUS
 62
     7
 10
-56.861206855010799
 20
71.000688612200008
 30
0.0
  0
VERTEX
  5
C0C
  8
0
  6
CONTINUOUS
 62
     7
 10
-56.525599561410807
 20
70.113893782800005
 30
0.0
  0
VERTEX
  5
C0D
  8
0
  6
CONTINUOUS
 62
     7
 10
-56.171804781610803
 20
69.2342402628
 30
0.0
  0
VERTEX
  5
C0E
  8
0
  6
CONTINUOUS
 62
     7
 10
-55.799976794010803
 20
68.362104396000007
 30
0.0
  0
VERTEX
  5
C0F
  8
0
  6
CONTINUOUS
 62
     7
 10
-55.410213973010833
 20
67.497721329800015
 30
0.0
  0
VERTEX
  5
C10
  8
0
  6
CONTINUOUS
 62
     7
 10
-55.002674540810801
 20
66.641457518200014
 30
0.0
  0
VERTEX
  5
C11
  8
0
  6
CONTINUOUS
 62
     7
 10
-54.577527209410817
 20
65.793682328800003
 30
0.0
  0
VERTEX
  5
C12
  8
0
  6
CONTINUOUS
 62
     7
 10
-54.134881521610822
 20
64.954637726599984
 30
0.0
  0
VERTEX
  5
C13
  8
0
  6
CONTINUOUS
 62
     7
 10
-53.674805012010808
 20
64.124497869400017
 30
0.0
  0
VERTEX
  5
C14
  8
0
  6
CONTINUOUS
 62
     7
 10
-53.197579878010799
 20
63.303816380000001
 30
0.0
  0
VERTEX
  5
C15
  8
0
  6
CONTINUOUS
 62
     7
 10
-52.7036689770108
 20
62.493387000600002
 30
0.0
  0
VERTEX
  5
C16
  8
0
  6
CONTINUOUS
 62
     7
 10
-52.192883510010802
 20
61.692912122599999
 30
0.0
  0
VERTEX
  5
C17
  8
0
  6
CONTINUOUS
 62
     7
 10
-51.665842047210823
 20
60.90337293120001
 30
0.0
  0
VERTEX
  5
C18
  8
0
  6
CONTINUOUS
 62
     7
 10
-51.124399256210808
 20
60.127362162600008
 30
0.0
  0
VERTEX
  5
C19
  8
0
  6
CONTINUOUS
 62
     7
 10
-50.568841535610801
 20
59.364969264000003
 30
0.0
  0
VERTEX
  5
C1A
  8
0
  6
CONTINUOUS
 62
     7
 10
-49.999645814010819
 20
58.616537816400012
 30
0.0
  0
VERTEX
  5
C1B
  8
0
  6
CONTINUOUS
 62
     7
 10
-49.419257744010821
 20
57.884808784199997
 30
0.0
  0
VERTEX
  5
C1C
  8
0
  6
CONTINUOUS
 62
     7
 10
-48.828289412010797
 20
57.169928291000019
 30
0.0
  0
VERTEX
  5
C1D
  8
0
  6
CONTINUOUS
 62
     7
 10
-48.227207736010833
 20
56.4718551992
 30
0.0
  0
VERTEX
  5
C1E
  8
0
  6
CONTINUOUS
 62
     7
 10
-47.618525072810833
 20
55.792790234599998
 30
0.0
  0
VERTEX
  5
C1F
  8
0
  6
CONTINUOUS
 62
     7
 10
-47.003001739810827
 20
55.132748967600008
 30
0.0
  0
VERTEX
  5
C20
  8
0
  6
CONTINUOUS
 62
     7
 10
-46.381166289010821
 20
54.49149163460001
 30
0.0
  0
VERTEX
  5
C21
  8
0
  6
CONTINUOUS
 62
     7
 10
-45.755399302010801
 20
53.870596088200017
 30
0.0
  0
VERTEX
  5
C22
  8
0
  6
CONTINUOUS
 62
     7
 10
-45.126436907410799
 20
53.269841981599988
 30
0.0
  0
VERTEX
  5
C23
  8
0
  6
CONTINUOUS
 62
     7
 10
-44.494931100010803
 20
52.688931229799998
 30
0.0
  0
VERTEX
  5
C24
  8
0
  6
CONTINUOUS
 62
     7
 10
-43.863296261810802
 20
52.129106610200012
 30
0.0
  0
VERTEX
  5
C25
  8
0
  6
CONTINUOUS
 62
     7
 10
-43.23263136221081
 20
51.590292013800003
 30
0.0
  0
VERTEX
  5
C26
  8
0
  6
CONTINUOUS
 62
     7
 10
-42.603271075210813
 20
51.071757155400007
 30
0.0
  0
VERTEX
  5
C27
  8
0
  6
CONTINUOUS
 62
     7
 10
-41.976560834210801
 20
50.573614380999999
 30
0.0
  0
VERTEX
  5
C28
  8
0
  6
CONTINUOUS
 62
     7
 10
-41.353643575410807
 20
50.095759827600013
 30
0.0
  0
VERTEX
  5
C29
  8
0
  6
CONTINUOUS
 62
     7
 10
-40.734706138410807
 20
49.637356895600021
 30
0.0
  0
VERTEX
  5
C2A
  8
0
  6
CONTINUOUS
 62
     7
 10
-40.11962031921081
 20
49.197408246200013
 30
0.0
  0
VERTEX
  5
C2B
  8
0
  6
CONTINUOUS
 62
     7
 10
-39.508995312410811
 20
48.775500692799987
 30
0.0
  0
VERTEX
  5
C2C
  8
0
  6
CONTINUOUS
 62
     7
 10
-38.903331501810811
 20
48.371156294600013
 30
0.0
  0
VERTEX
  5
C2D
  8
0
  6
CONTINUOUS
 62
     7
 10
-38.30224627681082
 20
47.983351811600009
 30
0.0
  0
VERTEX
  5
C2E
  8
0
  6
CONTINUOUS
 62
     7
 10
-37.706093908410821
 20
47.6116031034
 30
0.0
  0
VERTEX
  5
C2F
  8
0
  6
CONTINUOUS
 62
     7
 10
-37.11543887161082
 20
47.255569134799998
 30
0.0
  0
VERTEX
  5
C30
  8
0
  6
CONTINUOUS
 62
     7
 10
-36.5301400866108
 20
46.91450436880001
 30
0.0
  0
VERTEX
  5
C31
  8
0
  6
CONTINUOUS
 62
     7
 10
-35.950167626610813
 20
46.587777718200009
 30
0.0
  0
VERTEX
  5
C32
  8
0
  6
CONTINUOUS
 62
     7
 10
-35.376322500210819
 20
46.275242808000002
 30
0.0
  0
VERTEX
  5
C33
  8
0
  6
CONTINUOUS
 62
     7
 10
-34.809684709210813
 20
45.976874636799998
 30
0.0
  0
VERTEX
  5
C34
  8
0
  6
CONTINUOUS
 62
     7
 10
-34.250583451810833
 20
45.692231752399998
 30
0.0
  0
VERTEX
  5
C35
  8
0
  6
CONTINUOUS
 62
     7
 10
-33.69939491721081
 20
45.420907753400002
 30
0.0
  0
VERTEX
  5
C36
  8
0
  6
CONTINUOUS
 62
     7
 10
-33.157275712010801
 20
45.162869574799998
 30
0.0
  0
VERTEX
  5
C37
  8
0
  6
CONTINUOUS
 62
     7
 10
-32.624663613210799
 20
44.917717952399997
 30
0.0
  0
VERTEX
  5
C38
  8
0
  6
CONTINUOUS
 62
     7
 10
-32.101754621610809
 20
44.684953295400021
 30
0.0
  0
VERTEX
  5
C39
  8
0
  6
CONTINUOUS
 62
     7
 10
-31.589340858210821
 20
44.464347444399998
 30
0.0
  0
VERTEX
  5
C3A
  8
0
  6
CONTINUOUS
 62
     7
 10
-31.08804596041082
 20
44.255587852199987
 30
0.0
  0
VERTEX
  5
C3B
  8
0
  6
CONTINUOUS
 62
     7
 10
-30.597796106010811
 20
44.058080930999999
 30
0.0
  0
VERTEX
  5
C3C
  8
0
  6
CONTINUOUS
 62
     7
 10
-30.118313462810821
 20
43.871186887599997
 30
0.0
  0
VERTEX
  5
C3D
  8
0
  6
CONTINUOUS
 62
     7
 10
-29.650011216010821
 20
43.694562050199998
 30
0.0
  0
VERTEX
  5
C3E
  8
0
  6
CONTINUOUS
 62
     7
 10
-29.192918116010819
 20
43.527728448200008
 30
0.0
  0
VERTEX
  5
C3F
  8
0
  6
CONTINUOUS
 62
     7
 10
-28.746138854210809
 20
43.369908661200007
 30
0.0
  0
VERTEX
  5
C40
  8
0
  6
CONTINUOUS
 62
     7
 10
-28.309872343210831
 20
43.220754782199997
 30
0.0
  0
VERTEX
  5
C41
  8
0
  6
CONTINUOUS
 62
     7
 10
-27.88426060021084
 20
43.079910013599999
 30
0.0
  0
VERTEX
  5
C42
  8
0
  6
CONTINUOUS
 62
     7
 10
-27.468282403810811
 20
42.946662652400022
 30
0.0
  0
VERTEX
  5
C43
  8
0
  6
CONTINUOUS
 62
     7
 10
-27.06219653341083
 20
42.820749492200001
 30
0.0
  0
VERTEX
  5
C44
  8
0
  6
CONTINUOUS
 62
     7
 10
-26.666005101610839
 20
42.701835368000019
 30
0.0
  0
VERTEX
  5
C45
  8
0
  6
CONTINUOUS
 62
     7
 10
-26.27826477941079
 20
42.589185608000001
 30
0.0
  0
VERTEX
  5
C46
  8
0
  6
CONTINUOUS
 62
     7
 10
-25.89961091541079
 20
42.482706502400021
 30
0.0
  0
VERTEX
  5
C47
  8
0
  6
CONTINUOUS
 62
     7
 10
-25.529601661210791
 20
42.3820032502
 30
0.0
  0
VERTEX
  5
C48
  8
0
  6
CONTINUOUS
 62
     7
 10
-25.165132498010792
 20
42.286017061199999
 30
0.0
  0
VERTEX
  5
C49
  8
0
  6
CONTINUOUS
 62
     7
 10
-24.806086676010811
 20
42.194552106600007
 30
0.0
  0
VERTEX
  5
C4A
  8
0
  6
CONTINUOUS
 62
     7
 10
-24.452696202210799
 20
42.107505728800021
 30
0.0
  0
VERTEX
  5
C4B
  8
0
  6
CONTINUOUS
 62
     7
 10
-24.102333248810801
 20
42.024103053999987
 30
0.0
  0
VERTEX
  5
C4C
  8
0
  6
CONTINUOUS
 62
     7
 10
-23.753917367610821
 20
41.944007892000002
 30
0.0
  0
VERTEX
  5
C4D
  8
0
  6
CONTINUOUS
 62
     7
 10
-23.40858859501083
 20
41.867404353200008
 30
0.0
  0
VERTEX
  5
C4E
  8
0
  6
CONTINUOUS
 62
     7
 10
-23.067030928410819
 20
41.794346079000007
 30
0.0
  0
VERTEX
  5
C4F
  8
0
  6
CONTINUOUS
 62
     7
 10
-22.72852518181082
 20
41.724583663600008
 30
0.0
  0
VERTEX
  5
C50
  8
0
  6
CONTINUOUS
 62
     7
 10
-22.393843361610841
 20
41.658182118200017
 30
0.0
  0
VERTEX
  5
C51
  8
0
  6
CONTINUOUS
 62
     7
 10
-22.065919311010809
 20
41.595589541799988
 30
0.0
  0
VERTEX
  5
C52
  8
0
  6
CONTINUOUS
 62
     7
 10
-21.745255403810798
 20
41.536733258800012
 30
0.0
  0
VERTEX
  5
C53
  8
0
  6
CONTINUOUS
 62
     7
 10
-21.4314180298108
 20
41.48136940240002
 30
0.0
  0
VERTEX
  5
C54
  8
0
  6
CONTINUOUS
 62
     7
 10
-21.125953968610808
 20
41.429600034000003
 30
0.0
  0
VERTEX
  5
C55
  8
0
  6
CONTINUOUS
 62
     7
 10
-20.829467495210789
 20
41.381340495000018
 30
0.0
  0
VERTEX
  5
C56
  8
0
  6
CONTINUOUS
 62
     7
 10
-20.541417921410812
 20
41.336321694199988
 30
0.0
  0
VERTEX
  5
C57
  8
0
  6
CONTINUOUS
 62
     7
 10
-20.26163727061083
 20
41.294349537800002
 30
0.0
  0
VERTEX
  5
C58
  8
0
  6
CONTINUOUS
 62
     7
 10
-19.990268981010779
 20
41.255283904000009
 30
0.0
  0
VERTEX
  5
C59
  8
0
  6
CONTINUOUS
 62
     7
 10
-19.727213641410799
 20
41.218954266399997
 30
0.0
  0
VERTEX
  5
C5A
  8
0
  6
CONTINUOUS
 62
     7
 10
-19.471934589410811
 20
41.185141402400014
 30
0.0
  0
VERTEX
  5
C5B
  8
0
  6
CONTINUOUS
 62
     7
 10
-19.224473644610839
 20
41.153715087000002
 30
0.0
  0
VERTEX
  5
C5C
  8
0
  6
CONTINUOUS
 62
     7
 10
-18.984816709210801
 20
41.124542434400013
 30
0.0
  0
VERTEX
  5
C5D
  8
0
  6
CONTINUOUS
 62
     7
 10
-18.752339268010811
 20
41.097426004800013
 30
0.0
  0
VERTEX
  5
C5E
  8
0
  6
CONTINUOUS
 62
     7
 10
-18.527083204010811
 20
41.072258001800009
 30
0.0
  0
VERTEX
  5
C5F
  8
0
  6
CONTINUOUS
 62
     7
 10
-18.309022432610789
 20
41.048926769799998
 30
0.0
  0
VERTEX
  5
C60
  8
0
  6
CONTINUOUS
 62
     7
 10
-18.097427612610829
 20
41.027254696800007
 30
0.0
  0
VERTEX
  5
C61
  8
0
  6
CONTINUOUS
 62
     7
 10
-17.693855842810819
 20
40.988546931800009
 30
0.0
  0
SEQEND
  5
C62
  8
0
  6
CONTINUOUS
 62
     7
  0
LINE
  5
352
  8
0
  6
CONTINUOUS
 62
     7
 10
-59.562118338810819
 20
83.632854427400019
 30
0.0
 11
-70.134849103810794
 21
234.8299485206
 31
0.0
  0
LINE
  5
356
  8
0
  6
CONTINUOUS
 62
     7
 10
51.33143505238916
 20
38.128227656999996
 30
0.0
 11
51.364812751189163
 21
38.106844500199998
 31
0.0
  0
LINE
  5
357
  8
0
  6
CONTINUOUS
 62
     7
 10
51.861422059989188
 20
37.784048402000003
 30
0.0
 11
51.364812716389167
 21
38.10684447560002
 31
0.0
  0
LINE
  5
358
  8
0
  6
CONTINUOUS
 62
     7
 10
-87.394706047810814
 20
243.50947074140001
 30
0.0
 11
-83.666309451210822
 21
239.78107414479999
 31
0.0
  0
LINE
  5
35A
  8
0
  6
CONTINUOUS
 62
     7
 10
-103.7180967924108
 20
247.14899883699999
 30
0.0
 11
-110.0219443698108
 21
243.50947074140001
 31
0.0
  0
LINE
  5
35C
  8
0
  6
CONTINUOUS
 62
     7
 10
516.67243821638908
 20
57.157158707600018
 30
0.0
 11
504.97805563018909
 21
54.525922625600003
 31
0.0
  0
LINE
  5
35D
  8
0
  6
CONTINUOUS
 62
     7
 10
64.978055630189203
 20
34.525922625600003
 30
0.0
 11
53.4237076063892
 21
37.125650931000003
 31
0.0
  0
LINE
  5
360
  8
0
  6
CONTINUOUS
 62
     7
 10
64.978055630189203
 20
34.525922625600003
 30
0.0
 11
154.9780556301892
 21
34.525922625600003
 31
0.0
  0
LINE
  5
364
  8
0
  6
CONTINUOUS
 62
     7
 10
49.83306255438918
 20
38.589736661200021
 30
0.0
 11
49.846752975789173
 21
38.589234186600009
 31
0.0
  0
LINE
  5
365
  8
0
  6
CONTINUOUS
 62
     7
 10
-15.10713434661079
 20
40.820131606599993
 30
0.0
 11
49.8330623739892
 21
38.589736668200011
 31
0.0
  0
LINE
  5
366
  8
0
  6
CONTINUOUS
 62
     7
 10
-15.384140031210791
 20
40.831764399800022
 30
0.0
 11
-15.10713434661079
 21
40.820131606599993
 31
0.0
  0
LINE
  5
367
  8
0
  6
CONTINUOUS
 62
     7
 10
49.846752975789173
 20
38.589234186600009
 30
0.0
 11
49.867941634589208
 21
38.588332989600019
 31
0.0
  0
LINE
  5
369
  8
0
  6
CONTINUOUS
 62
     7
 10
-15.67202693081083
 20
40.84543782139999
 30
0.0
 11
-15.384140031210791
 21
40.831764399800022
 31
0.0
  0
LINE
  5
36A
  8
0
  6
CONTINUOUS
 62
     7
 10
49.867941634589208
 20
38.588332989600019
 30
0.0
 11
49.89036479058916
 21
38.587215735199997
 31
0.0
  0
LINE
  5
36B
  8
0
  6
CONTINUOUS
 62
     7
 10
-15.971671141610839
 20
40.861407663400001
 30
0.0
 11
-15.67202693081083
 21
40.84543782139999
 31
0.0
  0
LINE
  5
36C
  8
0
  6
CONTINUOUS
 62
     7
 10
49.89036479058916
 20
38.587215735199997
 30
0.0
 11
49.913826881789191
 21
38.585866480000021
 31
0.0
  0
LINE
  5
36D
  8
0
  6
CONTINUOUS
 62
     7
 10
-16.284007408010829
 20
40.879964593400011
 30
0.0
 11
-15.971671141610839
 21
40.861407663400001
 31
0.0
  0
LINE
  5
36E
  8
0
  6
CONTINUOUS
 62
     7
 10
-16.610649584610819
 20
40.901481548000021
 30
0.0
 11
-16.284007408010829
 21
40.879964593400011
 31
0.0
  0
LINE
  5
36F
  8
0
  6
CONTINUOUS
 62
     7
 10
49.913826881789191
 20
38.585866480000021
 30
0.0
 11
49.93820451658916
 21
38.584269075200012
 31
0.0
  0
LINE
  5
370
  8
0
  6
CONTINUOUS
 62
     7
 10
-16.952907427610789
 20
40.926366138399992
 30
0.0
 11
-16.610649584610819
 21
40.901481548000021
 31
0.0
  0
LINE
  5
371
  8
0
  6
CONTINUOUS
 62
     7
 10
49.93820451658916
 20
38.584269075200012
 30
0.0
 11
49.963420989789199
 21
38.58240673260002
 31
0.0
  0
LINE
  5
372
  8
0
  6
CONTINUOUS
 62
     7
 10
-17.313009509210811
 20
40.955157800800009
 30
0.0
 11
-16.952907427610789
 21
40.926366138399992
 31
0.0
  0
POLYLINE
  5
373
  8
0
  6
CONTINUOUS
 62
     7
 66
     1
 10
0.0
 20
0.0
 30
0.0
  0
VERTEX
  5
C63
  8
0
  6
CONTINUOUS
 62
     7
 10
49.963420989789199
 20
38.58240673260002
 30
0.0
  0
VERTEX
  5
C64
  8
0
  6
CONTINUOUS
 62
     7
 10
49.989392931189172
 20
38.580264968600012
 30
0.0
  0
VERTEX
  5
C65
  8
0
  6
CONTINUOUS
 62
     7
 10
50.002631628189192
 20
38.57908577660001
 30
0.0
  0
VERTEX
  5
C66
  8
0
  6
CONTINUOUS
 62
     7
 10
50.01603022978918
 20
38.577832110200013
 30
0.0
  0
VERTEX
  5
C67
  8
0
  6
CONTINUOUS
 62
     7
 10
50.029586463189162
 20
38.576501950600012
 30
0.0
  0
VERTEX
  5
C68
  8
0
  6
CONTINUOUS
 62
     7
 10
50.043265238989193
 20
38.575096733000009
 30
0.0
  0
VERTEX
  5
C69
  8
0
  6
CONTINUOUS
 62
     7
 10
50.057067458389213
 20
38.573614566600007
 30
0.0
  0
VERTEX
  5
C6A
  8
0
  6
CONTINUOUS
 62
     7
 10
50.070991256589188
 20
38.57205383500002
 30
0.0
  0
VERTEX
  5
C6B
  8
0
  6
CONTINUOUS
 62
     7
 10
50.084997476589201
 20
38.570417378800023
 30
0.0
  0
VERTEX
  5
C6C
  8
0
  6
CONTINUOUS
 62
     7
 10
50.09908167758919
 20
38.568704460600003
 30
0.0
  0
VERTEX
  5
C6D
  8
0
  6
CONTINUOUS
 62
     7
 10
50.1132473741892
 20
38.566913388000017
 30
0.0
  0
VERTEX
  5
C6E
  8
0
  6
CONTINUOUS
 62
     7
 10
50.127467432589192
 20
38.565046483800018
 30
0.0
  0
VERTEX
  5
C6F
  8
0
  6
CONTINUOUS
 62
     7
 10
50.141727119989177
 20
38.563104866800018
 30
0.0
  0
VERTEX
  5
C70
  8
0
  6
CONTINUOUS
 62
     7
 10
50.156040290389171
 20
38.561085831400021
 30
0.0
  0
VERTEX
  5
C71
  8
0
  6
CONTINUOUS
 62
     7
 10
50.170422692989177
 20
38.55898610720002
 30
0.0
  0
VERTEX
  5
C72
  8
0
  6
CONTINUOUS
 62
     7
 10
50.184873701789172
 20
38.556804612000008
 30
0.0
  0
VERTEX
  5
C73
  8
0
  6
CONTINUOUS
 62
     7
 10
50.199392918789208
 20
38.554540224000021
 30
0.0
  0
VERTEX
  5
C74
  8
0
  6
CONTINUOUS
 62
     7
 10
50.21399634558918
 20
38.552189133200017
 30
0.0
  0
VERTEX
  5
C75
  8
0
  6
CONTINUOUS
 62
     7
 10
50.228683446389191
 20
38.549749976000022
 30
0.0
  0
VERTEX
  5
C76
  8
0
  6
CONTINUOUS
 62
     7
 10
50.243453575989172
 20
38.547221399400001
 30
0.0
  0
VERTEX
  5
C77
  8
0
  6
CONTINUOUS
 62
     7
 10
50.258322469189181
 20
38.544599112000007
 30
0.0
  0
VERTEX
  5
C78
  8
0
  6
CONTINUOUS
 62
     7
 10
50.2732894503892
 20
38.541881495000013
 30
0.0
  0
VERTEX
  5
C79
  8
0
  6
CONTINUOUS
 62
     7
 10
50.288353827989162
 20
38.539066921800021
 30
0.0
  0
VERTEX
  5
C7A
  8
0
  6
CONTINUOUS
 62
     7
 10
50.303531196589176
 20
38.536150581399987
 30
0.0
  0
VERTEX
  5
C7B
  8
0
  6
CONTINUOUS
 62
     7
 10
50.318820782389189
 20
38.533130577200012
 30
0.0
  0
VERTEX
  5
C7C
  8
0
  6
CONTINUOUS
 62
     7
 10
50.334221771789203
 20
38.530005005000021
 30
0.0
  0
VERTEX
  5
C7D
  8
0
  6
CONTINUOUS
 62
     7
 10
50.349749568189168
 20
38.526768521400022
 30
0.0
  0
VERTEX
  5
C7E
  8
0
  6
CONTINUOUS
 62
     7
 10
50.365404646989191
 20
38.523418640800003
 30
0.0
  0
VERTEX
  5
C7F
  8
0
  6
CONTINUOUS
 62
     7
 10
50.381184684189179
 20
38.519953450000003
 30
0.0
  0
VERTEX
  5
C80
  8
0
  6
CONTINUOUS
 62
     7
 10
50.397100745189157
 20
38.516367992400014
 30
0.0
  0
VERTEX
  5
C81
  8
0
  6
CONTINUOUS
 62
     7
 10
50.413156579389181
 20
38.512658724200008
 30
0.0
  0
VERTEX
  5
C82
  8
0
  6
CONTINUOUS
 62
     7
 10
50.429346311189192
 20
38.50882427480002
 30
0.0
  0
VERTEX
  5
C83
  8
0
  6
CONTINUOUS
 62
     7
 10
50.445666485389211
 20
38.504862766200013
 30
0.0
  0
VERTEX
  5
C84
  8
0
  6
CONTINUOUS
 62
     7
 10
50.4621170107892
 20
38.5007715072
 30
0.0
  0
VERTEX
  5
C85
  8
0
  6
CONTINUOUS
 62
     7
 10
50.47869567858919
 20
38.496548304800001
 30
0.0
  0
VERTEX
  5
C86
  8
0
  6
CONTINUOUS
 62
     7
 10
50.495395840989197
 20
38.492192139600007
 30
0.0
  0
VERTEX
  5
C87
  8
0
  6
CONTINUOUS
 62
     7
 10
50.512216287389208
 20
38.487700637200021
 30
0.0
  0
VERTEX
  5
C88
  8
0
  6
CONTINUOUS
 62
     7
 10
50.529155774189178
 20
38.483071411600008
 30
0.0
  0
VERTEX
  5
C89
  8
0
  6
CONTINUOUS
 62
     7
 10
50.546207601389199
 20
38.478303599200018
 30
0.0
  0
VERTEX
  5
C8A
  8
0
  6
CONTINUOUS
 62
     7
 10
50.563370483189203
 20
38.473394890200012
 30
0.0
  0
VERTEX
  5
C8B
  8
0
  6
CONTINUOUS
 62
     7
 10
50.580643098189171
 20
38.468342966600012
 30
0.0
  0
VERTEX
  5
C8C
  8
0
  6
CONTINUOUS
 62
     7
 10
50.598018697189161
 20
38.4631471326
 30
0.0
  0
VERTEX
  5
C8D
  8
0
  6
CONTINUOUS
 62
     7
 10
50.615495534189172
 20
38.457805272199998
 30
0.0
  0
VERTEX
  5
C8E
  8
0
  6
CONTINUOUS
 62
     7
 10
50.63307260198917
 20
38.452315030400001
 30
0.0
  0
VERTEX
  5
C8F
  8
0
  6
CONTINUOUS
 62
     7
 10
50.650744260189178
 20
38.446675519000003
 30
0.0
  0
VERTEX
  5
C90
  8
0
  6
CONTINUOUS
 62
     7
 10
50.668507590989179
 20
38.440885053000017
 30
0.0
  0
VERTEX
  5
C91
  8
0
  6
CONTINUOUS
 62
     7
 10
50.686362608589199
 20
38.434940987400012
 30
0.0
  0
VERTEX
  5
C92
  8
0
  6
CONTINUOUS
 62
     7
 10
50.704308042589162
 20
38.428841062200007
 30
0.0
  0
VERTEX
  5
C93
  8
0
  6
CONTINUOUS
 62
     7
 10
50.722341996189179
 20
38.42258321540001
 30
0.0
  0
VERTEX
  5
C94
  8
0
  6
CONTINUOUS
 62
     7
 10
50.740463248189201
 20
38.416165139200018
 30
0.0
  0
VERTEX
  5
C95
  8
0
  6
CONTINUOUS
 62
     7
 10
50.758671478589179
 20
38.409584171200009
 30
0.0
  0
VERTEX
  5
C96
  8
0
  6
CONTINUOUS
 62
     7
 10
50.776965028589188
 20
38.402838095600011
 30
0.0
  0
VERTEX
  5
C97
  8
0
  6
CONTINUOUS
 62
     7
 10
50.795342202789193
 20
38.395924695199987
 30
0.0
  0
VERTEX
  5
C98
  8
0
  6
CONTINUOUS
 62
     7
 10
50.813802553189191
 20
38.388841255000017
 30
0.0
  0
VERTEX
  5
C99
  8
0
  6
CONTINUOUS
 62
     7
 10
50.832344298789167
 20
38.381585532600013
 30
0.0
  0
VERTEX
  5
C9A
  8
0
  6
CONTINUOUS
 62
     7
 10
50.850965620589193
 20
38.374155286200022
 30
0.0
  0
VERTEX
  5
C9B
  8
0
  6
CONTINUOUS
 62
     7
 10
50.869665934589193
 20
38.366547751799999
 30
0.0
  0
VERTEX
  5
C9C
  8
0
  6
CONTINUOUS
 62
     7
 10
50.888443332589191
 20
38.358760664800002
 30
0.0
  0
VERTEX
  5
C9D
  8
0
  6
CONTINUOUS
 62
     7
 10
50.907295865789202
 20
38.350791762800021
 30
0.0
  0
VERTEX
  5
C9E
  8
0
  6
CONTINUOUS
 62
     7
 10
50.92622280798917
 20
38.342638237200021
 30
0.0
  0
VERTEX
  5
C9F
  8
0
  6
CONTINUOUS
 62
     7
 10
50.945222116789182
 20
38.33429780580002
 30
0.0
  0
VERTEX
  5
CA0
  8
0
  6
CONTINUOUS
 62
     7
 10
50.964291708389162
 20
38.325768190800012
 30
0.0
  0
VERTEX
  5
CA1
  8
0
  6
CONTINUOUS
 62
     7
 10
50.9834307071892
 20
38.317046543400011
 30
0.0
  0
VERTEX
  5
CA2
  8
0
  6
CONTINUOUS
 62
     7
 10
51.002636931389191
 20
38.308130569400021
 30
0.0
  0
VERTEX
  5
CA3
  8
0
  6
CONTINUOUS
 62
     7
 10
51.021908155789163
 20
38.299017980200013
 30
0.0
  0
VERTEX
  5
CA4
  8
0
  6
CONTINUOUS
 62
     7
 10
51.041243348989212
 20
38.289705892200011
 30
0.0
  0
VERTEX
  5
CA5
  8
0
  6
CONTINUOUS
 62
     7
 10
51.0606401827892
 20
38.2801920048
 30
0.0
  0
VERTEX
  5
CA6
  8
0
  6
CONTINUOUS
 62
     7
 10
51.080096285589207
 20
38.27047402460002
 30
0.0
  0
VERTEX
  5
CA7
  8
0
  6
CONTINUOUS
 62
     7
 10
51.099610466989191
 20
38.260549037200008
 30
0.0
  0
VERTEX
  5
CA8
  8
0
  6
CONTINUOUS
 62
     7
 10
51.119180247989163
 20
38.250414740800011
 30
0.0
  0
VERTEX
  5
CA9
  8
0
  6
CONTINUOUS
 62
     7
 10
51.138803102589179
 20
38.24006884420001
 30
0.0
  0
VERTEX
  5
CAA
  8
0
  6
CONTINUOUS
 62
     7
 10
51.158477670989207
 20
38.229508409800019
 30
0.0
  0
VERTEX
  5
CAB
  8
0
  6
CONTINUOUS
 62
     7
 10
51.178201316789171
 20
38.218731142199999
 30
0.0
  0
VERTEX
  5
CAC
  8
0
  6
CONTINUOUS
 62
     7
 10
51.197971354589178
 20
38.207734758399987
 30
0.0
  0
VERTEX
  5
CAD
  8
0
  6
CONTINUOUS
 62
     7
 10
51.217786248589157
 20
38.196516304800006
 30
0.0
  0
VERTEX
  5
CAE
  8
0
  6
CONTINUOUS
 62
     7
 10
51.237643198789222
 20
38.185073499400012
 30
0.0
  0
VERTEX
  5
CAF
  8
0
  6
CONTINUOUS
 62
     7
 10
51.257539355189181
 20
38.173404075200011
 30
0.0
  0
VERTEX
  5
CB0
  8
0
  6
CONTINUOUS
 62
     7
 10
51.277472998789158
 20
38.1615050698
 30
0.0
  0
VERTEX
  5
CB1
  8
0
  6
CONTINUOUS
 62
     7
 10
51.297441160989187
 20
38.149374222200009
 30
0.0
  0
VERTEX
  5
CB2
  8
0
  6
CONTINUOUS
 62
     7
 10
51.317440820989191
 20
38.137009289399998
 30
0.0
  0
VERTEX
  5
CB3
  8
0
  6
CONTINUOUS
 62
     7
 10
51.331435049589167
 20
38.128227652600003
 30
0.0
  0
SEQEND
  5
CB4
  8
0
  6
CONTINUOUS
 62
     7
  0
LINE
  5
374
  8
0
  6
CONTINUOUS
 62
     7
 10
-17.693855842810819
 20
40.988546931800009
 30
0.0
 11
-17.313009509210811
 21
40.955157800800009
 31
0.0
  0
LINE
  5
375
  8
0
  6
CONTINUOUS
 62
     7
 10
154.9780556301892
 20
34.525922625600003
 30
0.0
 11
166.53240365398921
 21
37.125650931000003
 31
0.0
  0
POLYLINE
  5
376
  8
0
  6
CONTINUOUS
 62
     7
 66
     1
 10
0.0
 20
0.0
 30
0.0
  0
VERTEX
  5
CB5
  8
0
  6
CONTINUOUS
 62
     7
 10
238.61701840958921
 20
41.087079216999989
 30
0.0
  0
VERTEX
  5
CB6
  8
0
  6
CONTINUOUS
 62
     7
 10
238.8317425435892
 20
41.111662207199998
 30
0.0
  0
VERTEX
  5
CB7
  8
0
  6
CONTINUOUS
 62
     7
 10
239.05320694738921
 20
41.138055429000019
 30
0.0
  0
VERTEX
  5
CB8
  8
0
  6
CONTINUOUS
 62
     7
 10
239.28143531998921
 20
41.166362378600013
 30
0.0
  0
VERTEX
  5
CB9
  8
0
  6
CONTINUOUS
 62
     7
 10
239.5173666317892
 20
41.196811081199989
 30
0.0
  0
VERTEX
  5
CBA
  8
0
  6
CONTINUOUS
 62
     7
 10
239.76103957618921
 20
41.229529837800023
 30
0.0
  0
VERTEX
  5
CBB
  8
0
  6
CONTINUOUS
 62
     7
 10
240.0123849047892
 20
41.264637143599991
 30
0.0
  0
VERTEX
  5
CBC
  8
0
  6
CONTINUOUS
 62
     7
 10
240.27217416478911
 20
41.302379296399998
 30
0.0
  0
VERTEX
  5
CBD
  8
0
  6
CONTINUOUS
 62
     7
 10
240.5407083727892
 20
41.342953168400022
 30
0.0
  0
VERTEX
  5
CBE
  8
0
  6
CONTINUOUS
 62
     7
 10
240.81763935398919
 20
41.386464886200002
 30
0.0
  0
VERTEX
  5
CBF
  8
0
  6
CONTINUOUS
 62
     7
 10
241.1027620477891
 20
41.433041937000013
 30
0.0
  0
VERTEX
  5
CC0
  8
0
  6
CONTINUOUS
 62
     7
 10
241.39629431038921
 20
41.482885678400002
 30
0.0
  0
VERTEX
  5
CC1
  8
0
  6
CONTINUOUS
 62
     7
 10
241.69795871158919
 20
41.53612020700001
 30
0.0
  0
VERTEX
  5
CC2
  8
0
  6
CONTINUOUS
 62
     7
 10
242.00680961558919
 20
41.592743381199988
 30
0.0
  0
VERTEX
  5
CC3
  8
0
  6
CONTINUOUS
 62
     7
 10
242.3230338703892
 20
41.652951760400008
 30
0.0
  0
VERTEX
  5
CC4
  8
0
  6
CONTINUOUS
 62
     7
 10
242.6463756285892
 20
41.716863410400002
 30
0.0
  0
VERTEX
  5
CC5
  8
0
  6
CONTINUOUS
 62
     7
 10
242.97523277178919
 20
41.784312968199998
 30
0.0
  0
VERTEX
  5
CC6
  8
0
  6
CONTINUOUS
 62
     7
 10
243.3092950451892
 20
41.855370785600002
 30
0.0
  0
VERTEX
  5
CC7
  8
0
  6
CONTINUOUS
 62
     7
 10
243.64880243918921
 20
41.930224708600001
 30
0.0
  0
VERTEX
  5
CC8
  8
0
  6
CONTINUOUS
 62
     7
 10
243.99298479078911
 20
42.008839090200013
 30
0.0
  0
VERTEX
  5
CC9
  8
0
  6
CONTINUOUS
 62
     7
 10
244.34108807318921
 20
42.091160971800001
 30
0.0
  0
VERTEX
  5
CCA
  8
0
  6
CONTINUOUS
 62
     7
 10
244.69378797298921
 20
42.177471522799998
 30
0.0
  0
VERTEX
  5
CCB
  8
0
  6
CONTINUOUS
 62
     7
 10
245.05244844178929
 20
42.26825473280001
 30
0.0
  0
VERTEX
  5
CCC
  8
0
  6
CONTINUOUS
 62
     7
 10
245.41673914018921
 20
42.363594737400007
 30
0.0
  0
VERTEX
  5
CCD
  8
0
  6
CONTINUOUS
 62
     7
 10
245.78687260798921
 20
42.463718480600022
 30
0.0
  0
VERTEX
  5
CCE
  8
0
  6
CONTINUOUS
 62
     7
 10
246.16499577978919
 20
42.569415314800011
 30
0.0
  0
VERTEX
  5
CCF
  8
0
  6
CONTINUOUS
 62
     7
 10
246.5510472527892
 20
42.680912623599987
 30
0.0
  0
VERTEX
  5
CD0
  8
0
  6
CONTINUOUS
 62
     7
 10
246.9449097553892
 20
42.798427561999993
 30
0.0
  0
VERTEX
  5
CD1
  8
0
  6
CONTINUOUS
 62
     7
 10
247.34860414958919
 20
42.922851721800008
 30
0.0
  0
VERTEX
  5
CD2
  8
0
  6
CONTINUOUS
 62
     7
 10
247.7621669357892
 20
43.054527739600012
 30
0.0
  0
VERTEX
  5
CD3
  8
0
  6
CONTINUOUS
 62
     7
 10
248.1853056943892
 20
43.193704024600009
 30
0.0
  0
VERTEX
  5
CD4
  8
0
  6
CONTINUOUS
 62
     7
 10
248.61950200698911
 20
43.341243712800001
 30
0.0
  0
VERTEX
  5
CD5
  8
0
  6
CONTINUOUS
 62
     7
 10
249.0646138181892
 20
43.497513772399991
 30
0.0
  0
VERTEX
  5
CD6
  8
0
  6
CONTINUOUS
 62
     7
 10
249.52043823138919
 20
43.662871742599997
 30
0.0
  0
VERTEX
  5
CD7
  8
0
  6
CONTINUOUS
 62
     7
 10
249.9883150299892
 20
43.838273681600008
 30
0.0
  0
VERTEX
  5
CD8
  8
0
  6
CONTINUOUS
 62
     7
 10
250.46838617158909
 20
44.024293988200007
 30
0.0
  0
VERTEX
  5
CD9
  8
0
  6
CONTINUOUS
 62
     7
 10
250.96004759458921
 20
44.221237721800001
 30
0.0
  0
VERTEX
  5
CDA
  8
0
  6
CONTINUOUS
 62
     7
 10
251.46347382818919
 20
44.42973366559999
 30
0.0
  0
VERTEX
  5
CDB
  8
0
  6
CONTINUOUS
 62
     7
 10
251.9788211887892
 20
44.650442333000001
 30
0.0
  0
VERTEX
  5
CDC
  8
0
  6
CONTINUOUS
 62
     7
 10
252.50535929758919
 20
44.883666774999988
 30
0.0
  0
VERTEX
  5
CDD
  8
0
  6
CONTINUOUS
 62
     7
 10
253.0419146149892
 20
45.129494038600001
 30
0.0
  0
VERTEX
  5
CDE
  8
0
  6
CONTINUOUS
 62
     7
 10
253.58828989078921
 20
45.388442447800003
 30
0.0
  0
VERTEX
  5
CDF
  8
0
  6
CONTINUOUS
 62
     7
 10
254.14403145058921
 20
45.660924380400012
 30
0.0
  0
VERTEX
  5
CE0
  8
0
  6
CONTINUOUS
 62
     7
 10
254.70759210118919
 20
45.946794217600001
 30
0.0
  0
VERTEX
  5
CE1
  8
0
  6
CONTINUOUS
 62
     7
 10
255.27857996578911
 20
46.246451595400003
 30
0.0
  0
VERTEX
  5
CE2
  8
0
  6
CONTINUOUS
 62
     7
 10
255.85667754238921
 20
46.560345053600003
 30
0.0
  0
VERTEX
  5
CE3
  8
0
  6
CONTINUOUS
 62
     7
 10
256.4404708301891
 20
46.888311124400012
 30
0.0
  0
VERTEX
  5
CE4
  8
0
  6
CONTINUOUS
 62
     7
 10
257.02901701598921
 20
47.230394214400008
 30
0.0
  0
VERTEX
  5
CE5
  8
0
  6
CONTINUOUS
 62
     7
 10
257.62250404118907
 20
47.587292541000011
 30
0.0
  0
VERTEX
  5
CE6
  8
0
  6
CONTINUOUS
 62
     7
 10
258.22119449998922
 20
47.959806893999989
 30
0.0
  0
VERTEX
  5
CE7
  8
0
  6
CONTINUOUS
 62
     7
 10
258.82447477338923
 20
48.348231897999987
 30
0.0
  0
VERTEX
  5
CE8
  8
0
  6
CONTINUOUS
 62
     7
 10
259.43205222258922
 20
48.753074411400007
 30
0.0
  0
VERTEX
  5
CE9
  8
0
  6
CONTINUOUS
 62
     7
 10
260.04458605478919
 20
49.17553464460002
 30
0.0
  0
VERTEX
  5
CEA
  8
0
  6
CONTINUOUS
 62
     7
 10
260.66157549298919
 20
49.616093543800012
 30
0.0
  0
VERTEX
  5
CEB
  8
0
  6
CONTINUOUS
 62
     7
 10
261.28240707378922
 20
50.075164708599999
 30
0.0
  0
VERTEX
  5
CEC
  8
0
  6
CONTINUOUS
 62
     7
 10
261.90746115298919
 20
50.553944771200008
 30
0.0
  0
VERTEX
  5
CED
  8
0
  6
CONTINUOUS
 62
     7
 10
262.53664066178919
 20
51.053367820800013
 30
0.0
  0
VERTEX
  5
CEE
  8
0
  6
CONTINUOUS
 62
     7
 10
263.16868258618922
 20
51.573473565600011
 30
0.0
  0
VERTEX
  5
CEF
  8
0
  6
CONTINUOUS
 62
     7
 10
263.80217026398918
 20
52.114116494199997
 30
0.0
  0
VERTEX
  5
CF0
  8
0
  6
CONTINUOUS
 62
     7
 10
264.43684624998917
 20
52.676120073800007
 30
0.0
  0
VERTEX
  5
CF1
  8
0
  6
CONTINUOUS
 62
     7
 10
265.07150316338908
 20
53.259493544200012
 30
0.0
  0
VERTEX
  5
CF2
  8
0
  6
CONTINUOUS
 62
     7
 10
265.7033953497891
 20
53.862698780000017
 30
0.0
  0
VERTEX
  5
CF3
  8
0
  6
CONTINUOUS
 62
     7
 10
266.33186768438918
 20
54.486020974600002
 30
0.0
  0
VERTEX
  5
CF4
  8
0
  6
CONTINUOUS
 62
     7
 10
266.95619170278923
 20
55.129677606800023
 30
0.0
  0
VERTEX
  5
CF5
  8
0
  6
CONTINUOUS
 62
     7
 10
267.57370732038919
 20
55.791774257200011
 30
0.0
  0
VERTEX
  5
CF6
  8
0
  6
CONTINUOUS
 62
     7
 10
268.18380625398908
 20
56.472409757000001
 30
0.0
  0
VERTEX
  5
CF7
  8
0
  6
CONTINUOUS
 62
     7
 10
268.78585819958909
 20
57.17165575420001
 30
0.0
  0
VERTEX
  5
CF8
  8
0
  6
CONTINUOUS
 62
     7
 10
269.3774041545891
 20
57.887321979400006
 30
0.0
  0
VERTEX
  5
CF9
  8
0
  6
CONTINUOUS
 62
     7
 10
269.95794081138922
 20
58.619349329999999
 30
0.0
  0
VERTEX
  5
CFA
  8
0
  6
CONTINUOUS
 62
     7
 10
270.52694594078918
 20
59.367646562999987
 30
0.0
  0
VERTEX
  5
CFB
  8
0
  6
CONTINUOUS
 62
     7
 10
271.08219986158917
 20
60.129731246600016
 30
0.0
  0
VERTEX
  5
CFC
  8
0
  6
CONTINUOUS
 62
     7
 10
271.62324551998921
 20
60.905266247200018
 30
0.0
  0
VERTEX
  5
CFD
  8
0
  6
CONTINUOUS
 62
     7
 10
272.1497976873892
 20
61.69414226739999
 30
0.0
  0
VERTEX
  5
CFE
  8
0
  6
CONTINUOUS
 62
     7
 10
272.6601682323892
 20
62.494009112400022
 30
0.0
  0
VERTEX
  5
CFF
  8
0
  6
CONTINUOUS
 62
     7
 10
273.15377871958918
 20
63.303963473200007
 30
0.0
  0
VERTEX
  5
D00
  8
0
  6
CONTINUOUS
 62
     7
 10
273.63076650318919
 20
64.124234081800012
 30
0.0
  0
VERTEX
  5
D01
  8
0
  6
CONTINUOUS
 62
     7
 10
274.09068064498922
 20
64.954060564000002
 30
0.0
  0
VERTEX
  5
D02
  8
0
  6
CONTINUOUS
 62
     7
 10
274.5332438981892
 20
65.792915365200002
 30
0.0
  0
VERTEX
  5
D03
  8
0
  6
CONTINUOUS
 62
     7
 10
274.95836995958922
 20
66.640606539400011
 30
0.0
  0
VERTEX
  5
D04
  8
0
  6
CONTINUOUS
 62
     7
 10
275.3659257675892
 20
67.496859263400012
 30
0.0
  0
VERTEX
  5
D05
  8
0
  6
CONTINUOUS
 62
     7
 10
275.75573807798918
 20
68.36130642080002
 30
0.0
  0
VERTEX
  5
D06
  8
0
  6
CONTINUOUS
 62
     7
 10
276.12764398218923
 20
69.23358346980001
 30
0.0
  0
VERTEX
  5
D07
  8
0
  6
CONTINUOUS
 62
     7
 10
276.48152573018922
 20
70.113419528000009
 30
0.0
  0
VERTEX
  5
D08
  8
0
  6
CONTINUOUS
 62
     7
 10
276.81722658398922
 20
71.000439012000015
 30
0.0
  0
VERTEX
  5
D09
  8
0
  6
CONTINUOUS
 62
     7
 10
277.13460052118921
 20
71.894270965600015
 30
0.0
  0
VERTEX
  5
D0A
  8
0
  6
CONTINUOUS
 62
     7
 10
277.43354423138919
 20
72.794651647600006
 30
0.0
  0
VERTEX
  5
D0B
  8
0
  6
CONTINUOUS
 62
     7
 10
277.71391687478922
 20
73.701196993600007
 30
0.0
  0
VERTEX
  5
D0C
  8
0
  6
CONTINUOUS
 62
     7
 10
277.97558880898919
 20
74.613530628600017
 30
0.0
  0
VERTEX
  5
D0D
  8
0
  6
CONTINUOUS
 62
     7
 10
278.21847001278923
 20
75.531400567000006
 30
0.0
  0
VERTEX
  5
D0E
  8
0
  6
CONTINUOUS
 62
     7
 10
278.44243630218921
 20
76.454420674800019
 30
0.0
  0
VERTEX
  5
D0F
  8
0
  6
CONTINUOUS
 62
     7
 10
278.64737176398921
 20
77.38220350360001
 30
0.0
  0
VERTEX
  5
D10
  8
0
  6
CONTINUOUS
 62
     7
 10
278.83319401238919
 20
78.314494914199983
 30
0.0
  0
VERTEX
  5
D11
  8
0
  6
CONTINUOUS
 62
     7
 10
278.99979424818929
 20
79.250902216599997
 30
0.0
  0
VERTEX
  5
D12
  8
0
  6
CONTINUOUS
 62
     7
 10
279.14707190838919
 20
80.191031194600015
 30
0.0
  0
VERTEX
  5
D13
  8
0
  6
CONTINUOUS
 62
     7
 10
279.27495188238908
 20
81.134624467400016
 30
0.0
  0
VERTEX
  5
D14
  8
0
  6
CONTINUOUS
 62
     7
 10
279.38334584878919
 20
82.08132993480001
 30
0.0
  0
VERTEX
  5
D15
  8
0
  6
CONTINUOUS
 62
     7
 10
279.47216196978923
 20
83.030699439599999
 30
0.0
  0
VERTEX
  5
D16
  8
0
  6
CONTINUOUS
 62
     7
 10
279.51816293938919
 20
83.63190360820002
 30
0.0
  0
SEQEND
  5
D17
  8
0
  6
CONTINUOUS
 62
     7
  0
LINE
  5
377
  8
0
  6
CONTINUOUS
 62
     7
 10
238.20706792658919
 20
41.042884825399987
 30
0.0
 11
238.61701840958921
 21
41.087079216999989
 31
0.0
  0
LINE
  5
378
  8
0
  6
CONTINUOUS
 62
     7
 10
237.8208009065892
 20
41.004512643200002
 30
0.0
 11
238.20706792658919
 21
41.042884825399987
 31
0.0
  0
LINE
  5
379
  8
0
  6
CONTINUOUS
 62
     7
 10
237.45605272778911
 20
40.971167081600008
 30
0.0
 11
237.8208009065892
 21
41.004512643200002
 31
0.0
  0
LINE
  5
37A
  8
0
  6
CONTINUOUS
 62
     7
 10
237.1114513257892
 20
40.942220509999999
 30
0.0
 11
237.45605272778911
 21
40.971167081600008
 31
0.0
  0
LINE
  5
37B
  8
0
  6
CONTINUOUS
 62
     7
 10
236.7850966619892
 20
40.91707816020002
 30
0.0
 11
237.1114513257892
 21
40.942220509999999
 31
0.0
  0
LINE
  5
37C
  8
0
  6
CONTINUOUS
 62
     7
 10
236.47515183978919
 20
40.895227948599988
 30
0.0
 11
236.7850966619892
 21
40.91707816020002
 31
0.0
  0
LINE
  5
37D
  8
0
  6
CONTINUOUS
 62
     7
 10
236.18043268618919
 20
40.87626666280002
 30
0.0
 11
236.47515183978919
 21
40.895227948599988
 31
0.0
  0
LINE
  5
37E
  8
0
  6
CONTINUOUS
 62
     7
 10
520.02835211678905
 20
58.585681937600008
 30
0.0
 11
520.05406149018916
 21
58.587281211400011
 31
0.0
  0
LINE
  5
380
  8
0
  6
CONTINUOUS
 62
     7
 10
235.89909615398921
 20
40.859801451799989
 30
0.0
 11
236.18043268618919
 21
40.87626666280002
 31
0.0
  0
LINE
  5
381
  8
0
  6
CONTINUOUS
 62
     7
 10
235.63041128258919
 20
40.845552290000001
 30
0.0
 11
235.89909615398921
 21
40.859801451799989
 31
0.0
  0
LINE
  5
382
  8
0
  6
CONTINUOUS
 62
     7
 10
520.05406149018916
 20
58.587281211400011
 30
0.0
 11
520.07866032558923
 21
58.588604083200011
 31
0.0
  0
LINE
  5
383
  8
0
  6
CONTINUOUS
 62
     7
 10
170.05334822198921
 20
38.586525717199997
 30
0.0
 11
170.0787519725892
 21
38.587884239800019
 31
0.0
  0
LINE
  5
385
  8
0
  6
CONTINUOUS
 62
     7
 10
235.37370303718919
 20
40.833269934599997
 30
0.0
 11
235.63041128258919
 21
40.845552290000001
 31
0.0
  0
POLYLINE
  5
386
  8
0
  6
CONTINUOUS
 62
     7
 66
     1
 10
0.0
 20
0.0
 30
0.0
  0
VERTEX
  5
D18
  8
0
  6
CONTINUOUS
 62
     7
 10
547.09990563138922
 20
59.537125789599997
 30
0.0
  0
VERTEX
  5
D19
  8
0
  6
CONTINUOUS
 62
     7
 10
547.49837186358923
 20
59.555023403200011
 30
0.0
  0
VERTEX
  5
D1A
  8
0
  6
CONTINUOUS
 62
     7
 10
547.90594393058905
 20
59.576787272000018
 30
0.0
  0
VERTEX
  5
D1B
  8
0
  6
CONTINUOUS
 62
     7
 10
548.32271145178913
 20
59.602671962000016
 30
0.0
  0
VERTEX
  5
D1C
  8
0
  6
CONTINUOUS
 62
     7
 10
548.74858600798916
 20
59.632929070800003
 30
0.0
  0
VERTEX
  5
D1D
  8
0
  6
CONTINUOUS
 62
     7
 10
549.18330348518907
 20
59.667799592600012
 30
0.0
  0
VERTEX
  5
D1E
  8
0
  6
CONTINUOUS
 62
     7
 10
549.62702931878914
 20
59.707562728600003
 30
0.0
  0
VERTEX
  5
D1F
  8
0
  6
CONTINUOUS
 62
     7
 10
550.07956365858922
 20
59.752473727600012
 30
0.0
  0
VERTEX
  5
D20
  8
0
  6
CONTINUOUS
 62
     7
 10
550.54008937738922
 20
59.802717601599987
 30
0.0
  0
VERTEX
  5
D21
  8
0
  6
CONTINUOUS
 62
     7
 10
551.00916151598915
 20
59.858624783799989
 30
0.0
  0
VERTEX
  5
D22
  8
0
  6
CONTINUOUS
 62
     7
 10
551.48615199618916
 20
59.920396916200019
 30
0.0
  0
VERTEX
  5
D23
  8
0
  6
CONTINUOUS
 62
     7
 10
551.96847135038922
 20
59.987932327799989
 30
0.0
  0
VERTEX
  5
D24
  8
0
  6
CONTINUOUS
 62
     7
 10
552.45589831858922
 20
60.061394872800008
 30
0.0
  0
VERTEX
  5
D25
  8
0
  6
CONTINUOUS
 62
     7
 10
552.94856439398905
 20
60.141002819800008
 30
0.0
  0
VERTEX
  5
D26
  8
0
  6
CONTINUOUS
 62
     7
 10
553.44442056638923
 20
60.226597116000022
 30
0.0
  0
VERTEX
  5
D27
  8
0
  6
CONTINUOUS
 62
     7
 10
553.94263316118906
 20
60.318162345600001
 30
0.0
  0
VERTEX
  5
D28
  8
0
  6
CONTINUOUS
 62
     7
 10
554.44393570318914
 20
60.415963869400002
 30
0.0
  0
VERTEX
  5
D29
  8
0
  6
CONTINUOUS
 62
     7
 10
554.94862672598924
 20
60.520212081600022
 30
0.0
  0
VERTEX
  5
D2A
  8
0
  6
CONTINUOUS
 62
     7
 10
555.45605695478923
 20
60.630923473600014
 30
0.0
  0
VERTEX
  5
D2B
  8
0
  6
CONTINUOUS
 62
     7
 10
555.96673444018916
 20
60.748361785999997
 30
0.0
  0
VERTEX
  5
D2C
  8
0
  6
CONTINUOUS
 62
     7
 10
556.48266014618923
 20
60.873190168999997
 30
0.0
  0
VERTEX
  5
D2D
  8
0
  6
CONTINUOUS
 62
     7
 10
557.00371097878906
 20
61.005622824200003
 30
0.0
  0
VERTEX
  5
D2E
  8
0
  6
CONTINUOUS
 62
     7
 10
557.52979009558919
 20
61.145883483999988
 30
0.0
  0
VERTEX
  5
D2F
  8
0
  6
CONTINUOUS
 62
     7
 10
558.06288457898916
 20
61.294795354600012
 30
0.0
  0
VERTEX
  5
D30
  8
0
  6
CONTINUOUS
 62
     7
 10
558.60295851798924
 20
61.452690778800012
 30
0.0
  0
VERTEX
  5
D31
  8
0
  6
CONTINUOUS
 62
     7
 10
559.14973307118919
 20
61.61983788660001
 30
0.0
  0
VERTEX
  5
D32
  8
0
  6
CONTINUOUS
 62
     7
 10
559.70477262658915
 20
61.797105387599998
 30
0.0
  0
VERTEX
  5
D33
  8
0
  6
CONTINUOUS
 62
     7
 10
560.26786277378915
 20
61.984860270799999
 30
0.0
  0
VERTEX
  5
D34
  8
0
  6
CONTINUOUS
 62
     7
 10
560.83879510558916
 20
62.183478916599988
 30
0.0
  0
VERTEX
  5
D35
  8
0
  6
CONTINUOUS
 62
     7
 10
561.41907761078915
 20
62.393981599200004
 30
0.0
  0
VERTEX
  5
D36
  8
0
  6
CONTINUOUS
 62
     7
 10
562.00849241318917
 20
62.616838424200012
 30
0.0
  0
VERTEX
  5
D37
  8
0
  6
CONTINUOUS
 62
     7
 10
562.6066959647892
 20
62.852483217400021
 30
0.0
  0
VERTEX
  5
D38
  8
0
  6
CONTINUOUS
 62
     7
 10
563.21493117658918
 20
63.102021105400013
 30
0.0
  0
VERTEX
  5
D39
  8
0
  6
CONTINUOUS
 62
     7
 10
563.83305291078921
 20
63.366069364200001
 30
0.0
  0
VERTEX
  5
D3A
  8
0
  6
CONTINUOUS
 62
     7
 10
564.46047520018919
 20
63.645074029400007
 30
0.0
  0
VERTEX
  5
D3B
  8
0
  6
CONTINUOUS
 62
     7
 10
565.0977025161892
 20
63.939994956000021
 30
0.0
  0
VERTEX
  5
D3C
  8
0
  6
CONTINUOUS
 62
     7
 10
565.74479126878907
 20
64.2516547054
 30
0.0
  0
VERTEX
  5
D3D
  8
0
  6
CONTINUOUS
 62
     7
 10
566.40076929658915
 20
64.580405557999995
 30
0.0
  0
VERTEX
  5
D3E
  8
0
  6
CONTINUOUS
 62
     7
 10
567.06455517018924
 20
64.926518033800022
 30
0.0
  0
VERTEX
  5
D3F
  8
0
  6
CONTINUOUS
 62
     7
 10
567.73583822518924
 20
65.290654427000021
 30
0.0
  0
VERTEX
  5
D40
  8
0
  6
CONTINUOUS
 62
     7
 10
568.41388675338908
 20
65.673266199600022
 30
0.0
  0
VERTEX
  5
D41
  8
0
  6
CONTINUOUS
 62
     7
 10
569.09699521998914
 20
66.07421847980001
 30
0.0
  0
VERTEX
  5
D42
  8
0
  6
CONTINUOUS
 62
     7
 10
569.78475496178908
 20
66.494087600399993
 30
0.0
  0
VERTEX
  5
D43
  8
0
  6
CONTINUOUS
 62
     7
 10
570.47644234758923
 20
66.933270910600015
 30
0.0
  0
VERTEX
  5
D44
  8
0
  6
CONTINUOUS
 62
     7
 10
571.16992733518907
 20
67.391214849199997
 30
0.0
  0
VERTEX
  5
D45
  8
0
  6
CONTINUOUS
 62
     7
 10
571.86468484098918
 20
67.868335514199984
 30
0.0
  0
VERTEX
  5
D46
  8
0
  6
CONTINUOUS
 62
     7
 10
572.56007283578924
 20
68.364975335400004
 30
0.0
  0
VERTEX
  5
D47
  8
0
  6
CONTINUOUS
 62
     7
 10
573.25387083298915
 20
68.880281904400022
 30
0.0
  0
VERTEX
  5
D48
  8
0
  6
CONTINUOUS
 62
     7
 10
573.94549861998905
 20
69.414505898800002
 30
0.0
  0
VERTEX
  5
D49
  8
0
  6
CONTINUOUS
 62
     7
 10
574.63438409678918
 20
69.967904790400013
 30
0.0
  0
VERTEX
  5
D4A
  8
0
  6
CONTINUOUS
 62
     7
 10
575.31842913218918
 20
70.539438688800004
 30
0.0
  0
VERTEX
  5
D4B
  8
0
  6
CONTINUOUS
 62
     7
 10
575.99707025018915
 20
71.129223693200004
 30
0.0
  0
VERTEX
  5
D4C
  8
0
  6
CONTINUOUS
 62
     7
 10
576.66977341538916
 20
71.737397715400022
 30
0.0
  0
VERTEX
  5
D4D
  8
0
  6
CONTINUOUS
 62
     7
 10
577.33461200798911
 20
72.362762633399996
 30
0.0
  0
VERTEX
  5
D4E
  8
0
  6
CONTINUOUS
 62
     7
 10
577.99108045038918
 20
73.005323415800007
 30
0.0
  0
VERTEX
  5
D4F
  8
0
  6
CONTINUOUS
 62
     7
 10
578.63867907718907
 20
73.665084034399996
 30
0.0
  0
VERTEX
  5
D50
  8
0
  6
CONTINUOUS
 62
     7
 10
579.27563410558923
 20
74.340663960200004
 30
0.0
  0
VERTEX
  5
D51
  8
0
  6
CONTINUOUS
 62
     7
 10
579.90137561178915
 20
75.031805705200014
 30
0.0
  0
VERTEX
  5
D52
  8
0
  6
CONTINUOUS
 62
     7
 10
580.51560726018909
 20
75.738538231000007
 30
0.0
  0
VERTEX
  5
D53
  8
0
  6
CONTINUOUS
 62
     7
 10
581.1170997925891
 20
76.459764511200007
 30
0.0
  0
VERTEX
  5
D54
  8
0
  6
CONTINUOUS
 62
     7
 10
581.70537887118905
 20
77.195175039199995
 30
0.0
  0
VERTEX
  5
D55
  8
0
  6
CONTINUOUS
 62
     7
 10
582.28016449078905
 20
77.944686441599998
 30
0.0
  0
VERTEX
  5
D56
  8
0
  6
CONTINUOUS
 62
     7
 10
582.84061681818923
 20
78.707445773200021
 30
0.0
  0
VERTEX
  5
D57
  8
0
  6
CONTINUOUS
 62
     7
 10
583.38638358518915
 20
79.483180376800021
 30
0.0
  0
VERTEX
  5
D58
  8
0
  6
CONTINUOUS
 62
     7
 10
583.91715047778905
 20
80.271656772800014
 30
0.0
  0
VERTEX
  5
D59
  8
0
  6
CONTINUOUS
 62
     7
 10
584.43221442998913
 20
81.072013383599995
 30
0.0
  0
VERTEX
  5
D5A
  8
0
  6
CONTINUOUS
 62
     7
 10
584.93122890518919
 20
81.883853851600009
 30
0.0
  0
VERTEX
  5
D5B
  8
0
  6
CONTINUOUS
 62
     7
 10
585.41397521678914
 20
82.706969514000008
 30
0.0
  0
VERTEX
  5
D5C
  8
0
  6
CONTINUOUS
 62
     7
 10
585.88000513818918
 20
83.540733669800005
 30
0.0
  0
VERTEX
  5
D5D
  8
0
  6
CONTINUOUS
 62
     7
 10
586.32904718598922
 20
84.384777790599983
 30
0.0
  0
VERTEX
  5
D5E
  8
0
  6
CONTINUOUS
 62
     7
 10
586.76087804658914
 20
85.238803999800012
 30
0.0
  0
VERTEX
  5
D5F
  8
0
  6
CONTINUOUS
 62
     7
 10
587.17516289398907
 20
86.102264449200021
 30
0.0
  0
VERTEX
  5
D60
  8
0
  6
CONTINUOUS
 62
     7
 10
587.57168070338923
 20
86.974801156200016
 30
0.0
  0
VERTEX
  5
D61
  8
0
  6
CONTINUOUS
 62
     7
 10
587.95022122438922
 20
87.856058935199997
 30
0.0
  0
VERTEX
  5
D62
  8
0
  6
CONTINUOUS
 62
     7
 10
588.31050111998923
 20
88.745474357000006
 30
0.0
  0
VERTEX
  5
D63
  8
0
  6
CONTINUOUS
 62
     7
 10
588.65233288618924
 20
89.642667428999985
 30
0.0
  0
VERTEX
  5
D64
  8
0
  6
CONTINUOUS
 62
     7
 10
588.97554104998915
 20
90.547265076600013
 30
0.0
  0
VERTEX
  5
D65
  8
0
  6
CONTINUOUS
 62
     7
 10
589.27989546278923
 20
91.458698167199984
 30
0.0
  0
VERTEX
  5
D66
  8
0
  6
CONTINUOUS
 62
     7
 10
589.56524298858915
 20
92.376567651800002
 30
0.0
  0
VERTEX
  5
D67
  8
0
  6
CONTINUOUS
 62
     7
 10
589.8314438903891
 20
93.300487607400015
 30
0.0
  0
VERTEX
  5
D68
  8
0
  6
CONTINUOUS
 62
     7
 10
590.07832191218915
 20
94.229896291799989
 30
0.0
  0
VERTEX
  5
D69
  8
0
  6
CONTINUOUS
 62
     7
 10
590.30576092998911
 20
95.164389686199996
 30
0.0
  0
VERTEX
  5
D6A
  8
0
  6
CONTINUOUS
 62
     7
 10
590.51365368618906
 20
96.103563100800017
 30
0.0
  0
VERTEX
  5
D6B
  8
0
  6
CONTINUOUS
 62
     7
 10
590.70187021038919
 20
97.046844772199975
 30
0.0
  0
VERTEX
  5
D6C
  8
0
  6
CONTINUOUS
 62
     7
 10
590.87033010498908
 20
97.993821959600012
 30
0.0
  0
VERTEX
  5
D6D
  8
0
  6
CONTINUOUS
 62
     7
 10
591.01896189518914
 20
98.944081933200025
 30
0.0
  0
VERTEX
  5
D6E
  8
0
  6
CONTINUOUS
 62
     7
 10
591.14768230598906
 20
99.897046737199986
 30
0.0
  0
VERTEX
  5
D6F
  8
0
  6
CONTINUOUS
 62
     7
 10
591.25644164378923
 20
100.8522446386
 30
0.0
  0
VERTEX
  5
D70
  8
0
  6
CONTINUOUS
 62
     7
 10
591.34521249938916
 20
101.80931209320001
 30
0.0
  0
VERTEX
  5
D71
  8
0
  6
CONTINUOUS
 62
     7
 10
591.38793111758923
 20
102.3708335508
 30
0.0
  0
SEQEND
  5
D72
  8
0
  6
CONTINUOUS
 62
     7
  0
LINE
  5
387
  8
0
  6
CONTINUOUS
 62
     7
 10
520.07866032558923
 20
58.588604083200011
 30
0.0
 11
520.10185872958914
 21
58.589666119200018
 31
0.0
  0
LINE
  5
388
  8
0
  6
CONTINUOUS
 62
     7
 10
170.0787519725892
 20
38.587884239800019
 30
0.0
 11
170.10242275038911
 21
38.588955729200002
 31
0.0
  0
LINE
  5
389
  8
0
  6
CONTINUOUS
 62
     7
 10
235.1279053681892
 20
40.822714453400003
 30
0.0
 11
235.37370303718919
 21
40.833269934599997
 31
0.0
  0
LINE
  5
38A
  8
0
  6
CONTINUOUS
 62
     7
 10
520.10185872958914
 20
58.589666119200018
 30
0.0
 11
520.12225884218924
 21
58.590451374200001
 31
0.0
  0
LINE
  5
38B
  8
0
  6
CONTINUOUS
 62
     7
 10
170.10242275038911
 20
38.588955729200002
 30
0.0
 11
170.12304854338919
 21
38.58973665580001
 31
0.0
  0
LINE
  5
38C
  8
0
  6
CONTINUOUS
 62
     7
 10
234.79436061378919
 20
40.810248126200001
 30
0.0
 11
235.1279053681892
 21
40.822714453400003
 31
0.0
  0
LINE
  5
38D
  8
0
  6
CONTINUOUS
 62
     7
 10
520.12225965658922
 20
58.5904514076
 30
0.0
 11
547.09990563138922
 21
59.537125789599997
 31
0.0
  0
LINE
  5
38E
  8
0
  6
CONTINUOUS
 62
     7
 10
170.1230488783892
 20
38.589736668
 30
0.0
 11
234.79392303818921
 21
40.810231523800013
 31
0.0
  0
LINE
  5
391
  8
0
  6
CONTINUOUS
 62
     7
 10
414.97805563018909
 20
54.525922625600003
 30
0.0
 11
504.97805563018909
 21
54.525922625600003
 31
0.0
  0
LINE
  5
395
  8
0
  6
CONTINUOUS
 62
     7
 10
399.84530650478911
 20
58.590027597999999
 30
0.0
 11
399.86821048738921
 21
58.589048685199991
 31
0.0
  0
LINE
  5
396
  8
0
  6
CONTINUOUS
 62
     7
 10
399.86821048738921
 20
58.589048685199991
 30
0.0
 11
399.89296092718922
 21
58.587793590799997
 31
0.0
  0
POLYLINE
  5
398
  8
0
  6
CONTINUOUS
 62
     7
 66
     1
 10
0.0
 20
0.0
 30
0.0
  0
VERTEX
  5
D73
  8
0
  6
CONTINUOUS
 62
     7
 10
399.89296092718922
 20
58.587793590799997
 30
0.0
  0
VERTEX
  5
D74
  8
0
  6
CONTINUOUS
 62
     7
 10
399.91908463058911
 20
58.58624631899999
 30
0.0
  0
VERTEX
  5
D75
  8
0
  6
CONTINUOUS
 62
     7
 10
399.93260059718921
 20
58.585355965000019
 30
0.0
  0
VERTEX
  5
D76
  8
0
  6
CONTINUOUS
 62
     7
 10
399.94620907898923
 20
58.584397563200007
 30
0.0
  0
VERTEX
  5
D77
  8
0
  6
CONTINUOUS
 62
     7
 10
399.9598430775892
 20
58.583374965600001
 30
0.0
  0
VERTEX
  5
D78
  8
0
  6
CONTINUOUS
 62
     7
 10
399.97356884778918
 20
58.582282331000009
 30
0.0
  0
VERTEX
  5
D79
  8
0
  6
CONTINUOUS
 62
     7
 10
399.98738103838917
 20
58.581118781999997
 30
0.0
  0
VERTEX
  5
D7A
  8
0
  6
CONTINUOUS
 62
     7
 10
400.0012691291891
 20
58.579883997199993
 30
0.0
  0
VERTEX
  5
D7B
  8
0
  6
CONTINUOUS
 62
     7
 10
400.01524282018909
 20
58.578575899000008
 30
0.0
  0
VERTEX
  5
D7C
  8
0
  6
CONTINUOUS
 62
     7
 10
400.02932705118923
 20
58.57719067659999
 30
0.0
  0
VERTEX
  5
D7D
  8
0
  6
CONTINUOUS
 62
     7
 10
400.04352724078922
 20
58.57572608520001
 30
0.0
  0
VERTEX
  5
D7E
  8
0
  6
CONTINUOUS
 62
     7
 10
400.05783698898921
 20
58.574181058000022
 30
0.0
  0
VERTEX
  5
D7F
  8
0
  6
CONTINUOUS
 62
     7
 10
400.07226344138911
 20
58.572553068000019
 30
0.0
  0
VERTEX
  5
D80
  8
0
  6
CONTINUOUS
 62
     7
 10
400.08680604778908
 20
58.570840349799987
 30
0.0
  0
VERTEX
  5
D81
  8
0
  6
CONTINUOUS
 62
     7
 10
400.1014642525891
 20
58.569041124199998
 30
0.0
  0
VERTEX
  5
D82
  8
0
  6
CONTINUOUS
 62
     7
 10
400.11624513938909
 20
58.567152602800007
 30
0.0
  0
VERTEX
  5
D83
  8
0
  6
CONTINUOUS
 62
     7
 10
400.13114821058917
 20
58.565172852800004
 30
0.0
  0
VERTEX
  5
D84
  8
0
  6
CONTINUOUS
 62
     7
 10
400.1461727091891
 20
58.563099959400013
 30
0.0
  0
VERTEX
  5
D85
  8
0
  6
CONTINUOUS
 62
     7
 10
400.16132526838919
 20
58.560930917200011
 30
0.0
  0
VERTEX
  5
D86
  8
0
  6
CONTINUOUS
 62
     7
 10
400.17660419898908
 20
58.558663808000013
 30
0.0
  0
VERTEX
  5
D87
  8
0
  6
CONTINUOUS
 62
     7
 10
400.19200976918921
 20
58.556296410599998
 30
0.0
  0
VERTEX
  5
D88
  8
0
  6
CONTINUOUS
 62
     7
 10
400.20755147338917
 20
58.553824972800008
 30
0.0
  0
VERTEX
  5
D89
  8
0
  6
CONTINUOUS
 62
     7
 10
400.22322708858911
 20
58.55124746040002
 30
0.0
  0
VERTEX
  5
D8A
  8
0
  6
CONTINUOUS
 62
     7
 10
400.23903721218909
 20
58.548561362800001
 30
0.0
  0
VERTEX
  5
D8B
  8
0
  6
CONTINUOUS
 62
     7
 10
400.25499546218907
 20
58.545761796400001
 30
0.0
  0
VERTEX
  5
D8C
  8
0
  6
CONTINUOUS
 62
     7
 10
400.27110087638908
 20
58.542846212199997
 30
0.0
  0
VERTEX
  5
D8D
  8
0
  6
CONTINUOUS
 62
     7
 10
400.28735252718923
 20
58.539812029000011
 30
0.0
  0
VERTEX
  5
D8E
  8
0
  6
CONTINUOUS
 62
     7
 10
400.30376395178911
 20
58.536653814600008
 30
0.0
  0
VERTEX
  5
D8F
  8
0
  6
CONTINUOUS
 62
     7
 10
400.3203340707891
 20
58.533368711799987
 30
0.0
  0
VERTEX
  5
D90
  8
0
  6
CONTINUOUS
 62
     7
 10
400.33706176838911
 20
58.529953841000008
 30
0.0
  0
VERTEX
  5
D91
  8
0
  6
CONTINUOUS
 62
     7
 10
400.35396037278912
 20
58.526403213400009
 30
0.0
  0
VERTEX
  5
D92
  8
0
  6
CONTINUOUS
 62
     7
 10
400.3710289263891
 20
58.522713588399988
 30
0.0
  0
VERTEX
  5
D93
  8
0
  6
CONTINUOUS
 62
     7
 10
400.3882658365892
 20
58.518881826200008
 30
0.0
  0
VERTEX
  5
D94
  8
0
  6
CONTINUOUS
 62
     7
 10
400.40568330658908
 20
58.514901561800002
 30
0.0
  0
VERTEX
  5
D95
  8
0
  6
CONTINUOUS
 62
     7
 10
400.4232842127891
 20
58.5107682704
 30
0.0
  0
VERTEX
  5
D96
  8
0
  6
CONTINUOUS
 62
     7
 10
400.44106271518922
 20
58.506479404600007
 30
0.0
  0
VERTEX
  5
D97
  8
0
  6
CONTINUOUS
 62
     7
 10
400.45901780778922
 20
58.502031273800021
 30
0.0
  0
VERTEX
  5
D98
  8
0
  6
CONTINUOUS
 62
     7
 10
400.47715119118908
 20
58.497419433999987
 30
0.0
  0
VERTEX
  5
D99
  8
0
  6
CONTINUOUS
 62
     7
 10
400.4954578693891
 20
58.492641081000009
 30
0.0
  0
VERTEX
  5
D9A
  8
0
  6
CONTINUOUS
 62
     7
 10
400.51392674978922
 20
58.487695112000011
 30
0.0
  0
VERTEX
  5
D9B
  8
0
  6
CONTINUOUS
 62
     7
 10
400.53255617958911
 20
58.482578016799998
 30
0.0
  0
VERTEX
  5
D9C
  8
0
  6
CONTINUOUS
 62
     7
 10
400.55134427898912
 20
58.477286310600022
 30
0.0
  0
VERTEX
  5
D9D
  8
0
  6
CONTINUOUS
 62
     7
 10
400.5702796299891
 20
58.4718192622
 30
0.0
  0
VERTEX
  5
D9E
  8
0
  6
CONTINUOUS
 62
     7
 10
400.5893602501892
 20
58.466173554199997
 30
0.0
  0
VERTEX
  5
D9F
  8
0
  6
CONTINUOUS
 62
     7
 10
400.60858435738919
 20
58.460345779000022
 30
0.0
  0
VERTEX
  5
DA0
  8
0
  6
CONTINUOUS
 62
     7
 10
400.62794085818922
 20
58.45433541860001
 30
0.0
  0
VERTEX
  5
DA1
  8
0
  6
CONTINUOUS
 62
     7
 10
400.6474260171891
 20
58.448139830000002
 30
0.0
  0
VERTEX
  5
DA2
  8
0
  6
CONTINUOUS
 62
     7
 10
400.66703958958908
 20
58.441755246200017
 30
0.0
  0
VERTEX
  5
DA3
  8
0
  6
CONTINUOUS
 62
     7
 10
400.68677571718922
 20
58.435179710600011
 30
0.0
  0
VERTEX
  5
DA4
  8
0
  6
CONTINUOUS
 62
     7
 10
400.70663100758918
 20
58.428410506200009
 30
0.0
  0
VERTEX
  5
DA5
  8
0
  6
CONTINUOUS
 62
     7
 10
400.72660458858911
 20
58.421444041400001
 30
0.0
  0
VERTEX
  5
DA6
  8
0
  6
CONTINUOUS
 62
     7
 10
400.74669432158919
 20
58.414277115600008
 30
0.0
  0
VERTEX
  5
DA7
  8
0
  6
CONTINUOUS
 62
     7
 10
400.76689789838912
 20
58.406906561200003
 30
0.0
  0
VERTEX
  5
DA8
  8
0
  6
CONTINUOUS
 62
     7
 10
400.7872130113891
 20
58.399329186399989
 30
0.0
  0
VERTEX
  5
DA9
  8
0
  6
CONTINUOUS
 62
     7
 10
400.80763743298911
 20
58.391541742399987
 30
0.0
  0
VERTEX
  5
DAA
  8
0
  6
CONTINUOUS
 62
     7
 10
400.82816870458919
 20
58.383541039199997
 30
0.0
  0
VERTEX
  5
DAB
  8
0
  6
CONTINUOUS
 62
     7
 10
400.84880430718908
 20
58.375323887200011
 30
0.0
  0
VERTEX
  5
DAC
  8
0
  6
CONTINUOUS
 62
     7
 10
400.86954182738918
 20
58.366887027399997
 30
0.0
  0
VERTEX
  5
DAD
  8
0
  6
CONTINUOUS
 62
     7
 10
400.89037862058922
 20
58.358227268200011
 30
0.0
  0
VERTEX
  5
DAE
  8
0
  6
CONTINUOUS
 62
     7
 10
400.9113119785892
 20
58.349341419799991
 30
0.0
  0
VERTEX
  5
DAF
  8
0
  6
CONTINUOUS
 62
     7
 10
400.93233929478907
 20
58.34022622400002
 30
0.0
  0
VERTEX
  5
DB0
  8
0
  6
CONTINUOUS
 62
     7
 10
400.95345773078913
 20
58.330878495600011
 30
0.0
  0
VERTEX
  5
DB1
  8
0
  6
CONTINUOUS
 62
     7
 10
400.97466438258908
 20
58.321295055999997
 30
0.0
  0
VERTEX
  5
DB2
  8
0
  6
CONTINUOUS
 62
     7
 10
400.9959564433891
 20
58.311472657000003
 30
0.0
  0
VERTEX
  5
DB3
  8
0
  6
CONTINUOUS
 62
     7
 10
401.0173308741891
 20
58.301408131399988
 30
0.0
  0
VERTEX
  5
DB4
  8
0
  6
CONTINUOUS
 62
     7
 10
401.03878456838908
 20
58.291098321200003
 30
0.0
  0
VERTEX
  5
DB5
  8
0
  6
CONTINUOUS
 62
     7
 10
401.06031451358922
 20
58.280539998800009
 30
0.0
  0
VERTEX
  5
DB6
  8
0
  6
CONTINUOUS
 62
     7
 10
401.08191746338917
 20
58.269730025600012
 30
0.0
  0
VERTEX
  5
DB7
  8
0
  6
CONTINUOUS
 62
     7
 10
401.10359010298919
 20
58.258665275800013
 30
0.0
  0
VERTEX
  5
DB8
  8
0
  6
CONTINUOUS
 62
     7
 10
401.1253292095891
 20
58.247342553200014
 30
0.0
  0
VERTEX
  5
DB9
  8
0
  6
CONTINUOUS
 62
     7
 10
401.14713132418922
 20
58.235758758600007
 30
0.0
  0
VERTEX
  5
DBA
  8
0
  6
CONTINUOUS
 62
     7
 10
401.1689929161891
 20
58.2239108112
 30
0.0
  0
VERTEX
  5
DBB
  8
0
  6
CONTINUOUS
 62
     7
 10
401.19091054258922
 20
58.211795559400002
 30
0.0
  0
VERTEX
  5
DBC
  8
0
  6
CONTINUOUS
 62
     7
 10
401.21288052598908
 20
58.199409957199997
 30
0.0
  0
VERTEX
  5
DBD
  8
0
  6
CONTINUOUS
 62
     7
 10
401.23489911478919
 20
58.186750980399999
 30
0.0
  0
VERTEX
  5
DBE
  8
0
  6
CONTINUOUS
 62
     7
 10
401.25696264158921
 20
58.173815535200021
 30
0.0
  0
VERTEX
  5
DBF
  8
0
  6
CONTINUOUS
 62
     7
 10
401.27906720458913
 20
58.160600641600013
 30
0.0
  0
VERTEX
  5
DC0
  8
0
  6
CONTINUOUS
 62
     7
 10
401.30120882638909
 20
58.147103345800019
 30
0.0
  0
VERTEX
  5
DC1
  8
0
  6
CONTINUOUS
 62
     7
 10
401.32551961398912
 20
58.131978820600011
 30
0.0
  0
SEQEND
  5
DC2
  8
0
  6
CONTINUOUS
 62
     7
  0
LINE
  5
39A
  8
0
  6
CONTINUOUS
 62
     7
 10
403.28367304398921
 20
57.157158707600018
 30
0.0
 11
414.97805563018909
 21
54.525922625600003
 31
0.0
  0
LINE
  5
39D
  8
0
  6
CONTINUOUS
 62
     7
 10
401.32551961878909
 20
58.131978825999987
 30
0.0
 11
401.36360681138922
 21
58.107628376400022
 31
0.0
  0
LINE
  5
39E
  8
0
  6
CONTINUOUS
 62
     7
 10
401.36360676498907
 20
58.107628343800002
 30
0.0
 11
401.98176842198922
 21
57.705823266799989
 31
0.0
  0
LINE
  5
3A8
  8
0
  6
CONTINUOUS
 62
     7
 10
279.5182295947892
 20
83.632854362799989
 30
0.0
 11
290.22105829258828
 21
236.690435573088
 31
0.0
  0
LINE
  5
3C5
  8
0
  6
CONTINUOUS
 62
     7
 10
639.97805563018915
 20
243.50947074140001
 30
0.0
 11
-110.0219443698108
 21
243.50947074140001
 31
0.0
  0
LINE
  5
3C7
  8
0
  6
CONTINUOUS
 62
     7
 10
-102.2180967924108
 20
247.55092262560001
 30
0.0
 11
632.17420805298923
 21
247.55092262560001
 31
0.0
  0
POLYLINE
  5
3C9
  8
0
  6
CONTINUOUS
 62
     7
 66
     1
 10
0.0
 20
0.0
 30
0.0
  0
VERTEX
  5
DC3
  8
0
  6
CONTINUOUS
 62
     7
 10
328.56818014638918
 20
102.37083356300001
 30
0.0
  0
VERTEX
  5
DC4
  8
0
  6
CONTINUOUS
 62
     7
 10
328.6112762165892
 20
101.8047248262
 30
0.0
  0
VERTEX
  5
DC5
  8
0
  6
CONTINUOUS
 62
     7
 10
328.70059662218921
 20
100.8432788564
 30
0.0
  0
VERTEX
  5
DC6
  8
0
  6
CONTINUOUS
 62
     7
 10
328.81006501998922
 20
99.883916002999996
 30
0.0
  0
VERTEX
  5
DC7
  8
0
  6
CONTINUOUS
 62
     7
 10
328.93963735038909
 20
98.927031212000003
 30
0.0
  0
VERTEX
  5
DC8
  8
0
  6
CONTINUOUS
 62
     7
 10
329.08925397318922
 20
97.973072383000016
 30
0.0
  0
VERTEX
  5
DC9
  8
0
  6
CONTINUOUS
 62
     7
 10
329.25883405438918
 20
97.022539285600004
 30
0.0
  0
VERTEX
  5
DCA
  8
0
  6
CONTINUOUS
 62
     7
 10
329.44829842038922
 20
96.075847563999986
 30
0.0
  0
VERTEX
  5
DCB
  8
0
  6
CONTINUOUS
 62
     7
 10
329.6575586595892
 20
95.133413815800026
 30
0.0
  0
VERTEX
  5
DCC
  8
0
  6
CONTINUOUS
 62
     7
 10
329.88649667918918
 20
94.195734442200006
 30
0.0
  0
VERTEX
  5
DCD
  8
0
  6
CONTINUOUS
 62
     7
 10
330.13500253218922
 20
93.263216352600011
 30
0.0
  0
VERTEX
  5
DCE
  8
0
  6
CONTINUOUS
 62
     7
 10
330.40295644698921
 20
92.336269028800018
 30
0.0
  0
VERTEX
  5
DCF
  8
0
  6
CONTINUOUS
 62
     7
 10
330.69020191238923
 20
91.415385928400013
 30
0.0
  0
VERTEX
  5
DD0
  8
0
  6
CONTINUOUS
 62
     7
 10
330.99660598678918
 20
90.50094140020002
 30
0.0
  0
VERTEX
  5
DD1
  8
0
  6
CONTINUOUS
 62
     7
 10
331.32201133538922
 20
89.593356436600004
 30
0.0
  0
VERTEX
  5
DD2
  8
0
  6
CONTINUOUS
 62
     7
 10
331.6661966743892
 20
88.693184012399996
 30
0.0
  0
VERTEX
  5
DD3
  8
0
  6
CONTINUOUS
 62
     7
 10
332.02899598598918
 20
87.800784772599997
 30
0.0
  0
VERTEX
  5
DD4
  8
0
  6
CONTINUOUS
 62
     7
 10
332.4102165625892
 20
86.916563037000003
 30
0.0
  0
VERTEX
  5
DD5
  8
0
  6
CONTINUOUS
 62
     7
 10
332.80956084858917
 20
86.041120876999997
 30
0.0
  0
VERTEX
  5
DD6
  8
0
  6
CONTINUOUS
 62
     7
 10
333.22681814878922
 20
85.174817738400009
 30
0.0
  0
VERTEX
  5
DD7
  8
0
  6
CONTINUOUS
 62
     7
 10
333.66176611198921
 20
84.318017386600019
 30
0.0
  0
VERTEX
  5
DD8
  8
0
  6
CONTINUOUS
 62
     7
 10
334.1140498101891
 20
83.471306505000001
 30
0.0
  0
VERTEX
  5
DD9
  8
0
  6
CONTINUOUS
 62
     7
 10
334.58344342298921
 20
82.634985271000005
 30
0.0
  0
VERTEX
  5
DDA
  8
0
  6
CONTINUOUS
 62
     7
 10
335.0696710833891
 20
81.809427349800018
 30
0.0
  0
VERTEX
  5
DDB
  8
0
  6
CONTINUOUS
 62
     7
 10
335.57225688098907
 20
80.995299750000015
 30
0.0
  0
VERTEX
  5
DDC
  8
0
  6
CONTINUOUS
 62
     7
 10
336.0909748669892
 20
80.192815245000006
 30
0.0
  0
VERTEX
  5
DDD
  8
0
  6
CONTINUOUS
 62
     7
 10
336.62547357538921
 20
79.402369538800002
 30
0.0
  0
VERTEX
  5
DDE
  8
0
  6
CONTINUOUS
 62
     7
 10
337.17502136458921
 20
78.624854148599994
 30
0.0
  0
VERTEX
  5
DDF
  8
0
  6
CONTINUOUS
 62
     7
 10
337.73929519898923
 20
77.860503419200001
 30
0.0
  0
VERTEX
  5
DE0
  8
0
  6
CONTINUOUS
 62
     7
 10
338.31793569538922
 20
77.10958827120001
 30
0.0
  0
VERTEX
  5
DE1
  8
0
  6
CONTINUOUS
 62
     7
 10
338.91007338918922
 20
76.372984425400006
 30
0.0
  0
VERTEX
  5
DE2
  8
0
  6
CONTINUOUS
 62
     7
 10
339.51541181638908
 20
75.650781744200003
 30
0.0
  0
VERTEX
  5
DE3
  8
0
  6
CONTINUOUS
 62
     7
 10
340.13347451458918
 20
74.943277512999998
 30
0.0
  0
VERTEX
  5
DE4
  8
0
  6
CONTINUOUS
 62
     7
 10
340.76302280498919
 20
74.251561381599998
 30
0.0
  0
VERTEX
  5
DE5
  8
0
  6
CONTINUOUS
 62
     7
 10
341.40372921998909
 20
73.575624879200006
 30
0.0
  0
VERTEX
  5
DE6
  8
0
  6
CONTINUOUS
 62
     7
 10
342.05503724458919
 20
72.915696458799999
 30
0.0
  0
VERTEX
  5
DE7
  8
0
  6
CONTINUOUS
 62
     7
 10
342.71523528278919
 20
72.273078232200021
 30
0.0
  0
VERTEX
  5
DE8
  8
0
  6
CONTINUOUS
 62
     7
 10
343.38382607918908
 20
71.647760316599999
 30
0.0
  0
VERTEX
  5
DE9
  8
0
  6
CONTINUOUS
 62
     7
 10
344.06029484638918
 20
71.039742802000006
 30
0.0
  0
VERTEX
  5
DEA
  8
0
  6
CONTINUOUS
 62
     7
 10
344.74276731358918
 20
70.450168496800018
 30
0.0
  0
VERTEX
  5
DEB
  8
0
  6
CONTINUOUS
 62
     7
 10
345.43080463618918
 20
69.878823997200016
 30
0.0
  0
VERTEX
  5
DEC
  8
0
  6
CONTINUOUS
 62
     7
 10
346.1237502937891
 20
69.32567674660001
 30
0.0
  0
VERTEX
  5
DED
  8
0
  6
CONTINUOUS
 62
     7
 10
346.81926866818918
 20
68.791939102000015
 30
0.0
  0
VERTEX
  5
DEE
  8
0
  6
CONTINUOUS
 62
     7
 10
347.51682994678907
 20
68.277303786199994
 30
0.0
  0
VERTEX
  5
DEF
  8
0
  6
CONTINUOUS
 62
     7
 10
348.21579274978922
 20
67.781548356800016
 30
0.0
  0
VERTEX
  5
DF0
  8
0
  6
CONTINUOUS
 62
     7
 10
348.91351878498921
 20
67.305778348800004
 30
0.0
  0
VERTEX
  5
DF1
  8
0
  6
CONTINUOUS
 62
     7
 10
349.6092781437892
 20
66.849658382800015
 30
0.0
  0
VERTEX
  5
DF2
  8
0
  6
CONTINUOUS
 62
     7
 10
350.30258811018911
 20
66.412694256799995
 30
0.0
  0
VERTEX
  5
DF3
  8
0
  6
CONTINUOUS
 62
     7
 10
350.9910762727892
 20
65.995530946399995
 30
0.0
  0
VERTEX
  5
DF4
  8
0
  6
CONTINUOUS
 62
     7
 10
351.67368361698908
 20
65.597903366400004
 30
0.0
  0
VERTEX
  5
DF5
  8
0
  6
CONTINUOUS
 62
     7
 10
352.35028568338919
 20
65.219003157600014
 30
0.0
  0
VERTEX
  5
DF6
  8
0
  6
CONTINUOUS
 62
     7
 10
353.01988102378908
 20
64.858535781400008
 30
0.0
  0
VERTEX
  5
DF7
  8
0
  6
CONTINUOUS
 62
     7
 10
353.68173331318923
 20
64.516045708800021
 30
0.0
  0
VERTEX
  5
DF8
  8
0
  6
CONTINUOUS
 62
     7
 10
354.33554076798919
 20
64.190861532000014
 30
0.0
  0
VERTEX
  5
DF9
  8
0
  6
CONTINUOUS
 62
     7
 10
354.9809854119892
 20
63.882348125000021
 30
0.0
  0
VERTEX
  5
DFA
  8
0
  6
CONTINUOUS
 62
     7
 10
355.61755474478917
 20
63.589982302600021
 30
0.0
  0
VERTEX
  5
DFB
  8
0
  6
CONTINUOUS
 62
     7
 10
356.2448878357892
 20
63.3131833164
 30
0.0
  0
VERTEX
  5
DFC
  8
0
  6
CONTINUOUS
 62
     7
 10
356.8629416539892
 20
63.051255683199997
 30
0.0
  0
VERTEX
  5
DFD
  8
0
  6
CONTINUOUS
 62
     7
 10
357.47121558518921
 20
62.80372292040002
 30
0.0
  0
VERTEX
  5
DFE
  8
0
  6
CONTINUOUS
 62
     7
 10
358.06948774518918
 20
62.570005870400003
 30
0.0
  0
VERTEX
  5
DFF
  8
0
  6
CONTINUOUS
 62
     7
 10
358.65818490458918
 20
62.349307976200009
 30
0.0
  0
VERTEX
  5
E00
  8
0
  6
CONTINUOUS
 62
     7
 10
359.23642797158908
 20
62.141350467000002
 30
0.0
  0
VERTEX
  5
E01
  8
0
  6
CONTINUOUS
 62
     7
 10
359.8045125213892
 20
61.945435357400022
 30
0.0
  0
VERTEX
  5
E02
  8
0
  6
CONTINUOUS
 62
     7
 10
360.36470191478918
 20
61.760273356800013
 30
0.0
  0
VERTEX
  5
E03
  8
0
  6
CONTINUOUS
 62
     7
 10
360.91665442698923
 20
61.585532016600013
 30
0.0
  0
VERTEX
  5
E04
  8
0
  6
CONTINUOUS
 62
     7
 10
361.4602947463892
 20
61.420800226400011
 30
0.0
  0
VERTEX
  5
E05
  8
0
  6
CONTINUOUS
 62
     7
 10
361.99837506478917
 20
61.264879996000012
 30
0.0
  0
VERTEX
  5
E06
  8
0
  6
CONTINUOUS
 62
     7
 10
362.5309702755892
 20
61.1174549614
 30
0.0
  0
VERTEX
  5
E07
  8
0
  6
CONTINUOUS
 62
     7
 10
363.05772298258921
 20
60.978334893200007
 30
0.0
  0
VERTEX
  5
E08
  8
0
  6
CONTINUOUS
 62
     7
 10
363.58080911898918
 20
60.846700084399991
 30
0.0
  0
VERTEX
  5
E09
  8
0
  6
CONTINUOUS
 62
     7
 10
364.10074753518921
 20
60.7222329672
 30
0.0
  0
VERTEX
  5
E0A
  8
0
  6
CONTINUOUS
 62
     7
 10
364.61682933698921
 20
60.604919101400007
 30
0.0
  0
VERTEX
  5
E0B
  8
0
  6
CONTINUOUS
 62
     7
 10
365.12942835198919
 20
60.494489283200011
 30
0.0
  0
VERTEX
  5
E0C
  8
0
  6
CONTINUOUS
 62
     7
 10
365.63908457718918
 20
60.390664763799997
 30
0.0
  0
VERTEX
  5
E0D
  8
0
  6
CONTINUOUS
 62
     7
 10
366.1451125203892
 20
60.293425266000007
 30
0.0
  0
VERTEX
  5
E0E
  8
0
  6
CONTINUOUS
 62
     7
 10
366.64605354158908
 20
60.202859318999998
 30
0.0
  0
VERTEX
  5
E0F
  8
0
  6
CONTINUOUS
 62
     7
 10
367.14195544478918
 20
60.118748245400013
 30
0.0
  0
VERTEX
  5
E10
  8
0
  6
CONTINUOUS
 62
     7
 10
367.63263969178922
 20
60.040916057600022
 30
0.0
  0
VERTEX
  5
E11
  8
0
  6
CONTINUOUS
 62
     7
 10
368.11630026758922
 20
59.969416529
 30
0.0
  0
VERTEX
  5
E12
  8
0
  6
CONTINUOUS
 62
     7
 10
368.59290729098922
 20
59.903998545400007
 30
0.0
  0
VERTEX
  5
E13
  8
0
  6
CONTINUOUS
 62
     7
 10
369.06238185238919
 20
59.844422674800001
 30
0.0
  0
VERTEX
  5
E14
  8
0
  6
CONTINUOUS
 62
     7
 10
369.52283863318911
 20
59.790654781000001
 30
0.0
  0
VERTEX
  5
E15
  8
0
  6
CONTINUOUS
 62
     7
 10
369.97369542538922
 20
59.742460507600008
 30
0.0
  0
VERTEX
  5
E16
  8
0
  6
CONTINUOUS
 62
     7
 10
370.41545243418921
 20
59.699491893399987
 30
0.0
  0
VERTEX
  5
E17
  8
0
  6
CONTINUOUS
 62
     7
 10
370.84785041298909
 20
59.661491898999998
 30
0.0
  0
VERTEX
  5
E18
  8
0
  6
CONTINUOUS
 62
     7
 10
371.27074308878917
 20
59.628193839800019
 30
0.0
  0
VERTEX
  5
E19
  8
0
  6
CONTINUOUS
 62
     7
 10
371.68423605378922
 20
59.599317580199987
 30
0.0
  0
VERTEX
  5
E1A
  8
0
  6
CONTINUOUS
 62
     7
 10
372.08845505738918
 20
59.574593560400011
 30
0.0
  0
VERTEX
  5
E1B
  8
0
  6
CONTINUOUS
 62
     7
 10
372.4834396901893
 20
59.553768311800013
 30
0.0
  0
VERTEX
  5
E1C
  8
0
  6
CONTINUOUS
 62
     7
 10
372.86914464898922
 20
59.536600420000013
 30
0.0
  0
VERTEX
  5
E1D
  8
0
  6
CONTINUOUS
 62
     7
 10
399.84530650478911
 20
58.590027597999999
 30
0.0
  0
SEQEND
  5
E1E
  8
0
  6
CONTINUOUS
 62
     7
  0
LINE
  5
3CA
  8
0
  6
CONTINUOUS
 62
     7
 10
328.5680530951891
 20
102.37264870600001
 30
0.0
 11
319.17563847240717
 21
236.69043557308609
 31
0.0
  0
LINE
  5
3CE
  8
0
  6
CONTINUOUS
 62
     7
 10
168.09468920038921
 20
37.784048402000003
 30
0.0
 11
168.5912985439891
 21
38.10684447560002
 31
0.0
  0
LINE
  5
3CF
  8
0
  6
CONTINUOUS
 62
     7
 10
168.62540118778921
 20
38.12868523520001
 30
0.0
 11
168.59129850898921
 21
38.106844497800012
 31
0.0
  0
LINE
  5
3D0
  8
0
  6
CONTINUOUS
 62
     7
 10
168.62540118778921
 20
38.12868523520001
 30
0.0
 11
168.6632510059892
 21
38.152176013400009
 31
0.0
  0
POLYLINE
  5
3D2
  8
0
  6
CONTINUOUS
 62
     7
 66
     1
 10
0.0
 20
0.0
 30
0.0
  0
VERTEX
  5
E1F
  8
0
  6
CONTINUOUS
 62
     7
 10
168.6632510059892
 20
38.152176013400009
 30
0.0
  0
VERTEX
  5
E20
  8
0
  6
CONTINUOUS
 62
     7
 10
168.68187436978911
 20
38.163451054000006
 30
0.0
  0
VERTEX
  5
E21
  8
0
  6
CONTINUOUS
 62
     7
 10
168.7005421045892
 20
38.174568821400023
 30
0.0
  0
VERTEX
  5
E22
  8
0
  6
CONTINUOUS
 62
     7
 10
168.71924922898921
 20
38.185527486200023
 30
0.0
  0
VERTEX
  5
E23
  8
0
  6
CONTINUOUS
 62
     7
 10
168.7379942509892
 20
38.196327354800019
 30
0.0
  0
VERTEX
  5
E24
  8
0
  6
CONTINUOUS
 62
     7
 10
168.75677568818921
 20
38.206968747000019
 30
0.0
  0
VERTEX
  5
E25
  8
0
  6
CONTINUOUS
 62
     7
 10
168.7755885001892
 20
38.217450023600009
 30
0.0
  0
VERTEX
  5
E26
  8
0
  6
CONTINUOUS
 62
     7
 10
168.79443118218919
 20
38.227771605000022
 30
0.0
  0
VERTEX
  5
E27
  8
0
  6
CONTINUOUS
 62
     7
 10
168.81330224058911
 20
38.237933924600021
 30
0.0
  0
VERTEX
  5
E28
  8
0
  6
CONTINUOUS
 62
     7
 10
168.8321965837892
 20
38.24793553340001
 30
0.0
  0
VERTEX
  5
E29
  8
0
  6
CONTINUOUS
 62
     7
 10
168.8511127007892
 20
38.257776965600023
 30
0.0
  0
VERTEX
  5
E2A
  8
0
  6
CONTINUOUS
 62
     7
 10
168.87004909338921
 20
38.267458767000022
 30
0.0
  0
VERTEX
  5
E2B
  8
0
  6
CONTINUOUS
 62
     7
 10
168.88900062698909
 20
38.276979679000021
 30
0.0
  0
VERTEX
  5
E2C
  8
0
  6
CONTINUOUS
 62
     7
 10
168.90796579078921
 20
38.28634034800001
 30
0.0
  0
VERTEX
  5
E2D
  8
0
  6
CONTINUOUS
 62
     7
 10
168.92694308758911
 20
38.295541432000022
 30
0.0
  0
VERTEX
  5
E2E
  8
0
  6
CONTINUOUS
 62
     7
 10
168.94592734878921
 20
38.304581861000003
 30
0.0
  0
VERTEX
  5
E2F
  8
0
  6
CONTINUOUS
 62
     7
 10
168.9649170691892
 20
38.313462392399998
 30
0.0
  0
VERTEX
  5
E30
  8
0
  6
CONTINUOUS
 62
     7
 10
168.98391075958921
 20
38.322183794799997
 30
0.0
  0
VERTEX
  5
E31
  8
0
  6
CONTINUOUS
 62
     7
 10
169.0029032245892
 20
38.330745185400019
 30
0.0
  0
VERTEX
  5
E32
  8
0
  6
CONTINUOUS
 62
     7
 10
169.02189297138921
 20
38.339147431000022
 30
0.0
  0
VERTEX
  5
E33
  8
0
  6
CONTINUOUS
 62
     7
 10
169.0408785237891
 20
38.3473914084
 30
0.0
  0
VERTEX
  5
E34
  8
0
  6
CONTINUOUS
 62
     7
 10
169.05985466778921
 20
38.355476419799999
 30
0.0
  0
VERTEX
  5
E35
  8
0
  6
CONTINUOUS
 62
     7
 10
169.07881992838921
 20
38.363403439000002
 30
0.0
  0
VERTEX
  5
E36
  8
0
  6
CONTINUOUS
 62
     7
 10
169.09777284878919
 20
38.371173448999997
 30
0.0
  0
VERTEX
  5
E37
  8
0
  6
CONTINUOUS
 62
     7
 10
169.1167082029892
 20
38.37878593420001
 30
0.0
  0
VERTEX
  5
E38
  8
0
  6
CONTINUOUS
 62
     7
 10
169.13562454018921
 20
38.386241972600011
 30
0.0
  0
VERTEX
  5
E39
  8
0
  6
CONTINUOUS
 62
     7
 10
169.15452042798921
 20
38.393542650400008
 30
0.0
  0
VERTEX
  5
E3A
  8
0
  6
CONTINUOUS
 62
     7
 10
169.17339063558919
 20
38.400687631400018
 30
0.0
  0
VERTEX
  5
E3B
  8
0
  6
CONTINUOUS
 62
     7
 10
169.1922337413892
 20
38.407678094400012
 30
0.0
  0
VERTEX
  5
E3C
  8
0
  6
CONTINUOUS
 62
     7
 10
169.2110483423892
 20
38.414515225800017
 30
0.0
  0
VERTEX
  5
E3D
  8
0
  6
CONTINUOUS
 62
     7
 10
169.22982921018911
 20
38.421198864200022
 30
0.0
  0
VERTEX
  5
E3E
  8
0
  6
CONTINUOUS
 62
     7
 10
169.2485749505891
 20
38.427730284600017
 30
0.0
  0
VERTEX
  5
E3F
  8
0
  6
CONTINUOUS
 62
     7
 10
169.26728420178921
 20
38.434110771600018
 30
0.0
  0
VERTEX
  5
E40
  8
0
  6
CONTINUOUS
 62
     7
 10
169.28595176058911
 20
38.44034034080002
 30
0.0
  0
VERTEX
  5
E41
  8
0
  6
CONTINUOUS
 62
     7
 10
169.3045762733891
 20
38.446420361200012
 30
0.0
  0
VERTEX
  5
E42
  8
0
  6
CONTINUOUS
 62
     7
 10
169.32315641578921
 20
38.452352208600018
 30
0.0
  0
VERTEX
  5
E43
  8
0
  6
CONTINUOUS
 62
     7
 10
169.3416870121892
 20
38.458136068599998
 30
0.0
  0
VERTEX
  5
E44
  8
0
  6
CONTINUOUS
 62
     7
 10
169.36016678598909
 20
38.463773409400012
 30
0.0
  0
VERTEX
  5
E45
  8
0
  6
CONTINUOUS
 62
     7
 10
169.37859442298921
 20
38.469265683600021
 30
0.0
  0
VERTEX
  5
E46
  8
0
  6
CONTINUOUS
 62
     7
 10
169.39696467638919
 20
38.474613211399998
 30
0.0
  0
VERTEX
  5
E47
  8
0
  6
CONTINUOUS
 62
     7
 10
169.4152762847892
 20
38.479817537000002
 30
0.0
  0
VERTEX
  5
E48
  8
0
  6
CONTINUOUS
 62
     7
 10
169.43352801258919
 20
38.4848802084
 30
0.0
  0
VERTEX
  5
E49
  8
0
  6
CONTINUOUS
 62
     7
 10
169.45171464338921
 20
38.489801704800023
 30
0.0
  0
VERTEX
  5
E4A
  8
0
  6
CONTINUOUS
 62
     7
 10
169.4698349637892
 20
38.494583651800021
 30
0.0
  0
VERTEX
  5
E4B
  8
0
  6
CONTINUOUS
 62
     7
 10
169.4878877915892
 20
38.499227677000022
 30
0.0
  0
VERTEX
  5
E4C
  8
0
  6
CONTINUOUS
 62
     7
 10
169.5058679525892
 20
38.503734415600007
 30
0.0
  0
VERTEX
  5
E4D
  8
0
  6
CONTINUOUS
 62
     7
 10
169.52377428798911
 20
38.508105569000008
 30
0.0
  0
VERTEX
  5
E4E
  8
0
  6
CONTINUOUS
 62
     7
 10
169.5416056687892
 20
38.512342839000013
 30
0.0
  0
VERTEX
  5
E4F
  8
0
  6
CONTINUOUS
 62
     7
 10
169.55935696678921
 20
38.516447008800007
 30
0.0
  0
VERTEX
  5
E50
  8
0
  6
CONTINUOUS
 62
     7
 10
169.5770270819892
 20
38.5204198502
 30
0.0
  0
VERTEX
  5
E51
  8
0
  6
CONTINUOUS
 62
     7
 10
169.59461493978921
 20
38.524263132999998
 30
0.0
  0
VERTEX
  5
E52
  8
0
  6
CONTINUOUS
 62
     7
 10
169.6121154543892
 20
38.527977780400022
 30
0.0
  0
VERTEX
  5
E53
  8
0
  6
CONTINUOUS
 62
     7
 10
169.62952759178921
 20
38.531565629399999
 30
0.0
  0
VERTEX
  5
E54
  8
0
  6
CONTINUOUS
 62
     7
 10
169.64685032998921
 20
38.535028511200011
 30
0.0
  0
VERTEX
  5
E55
  8
0
  6
CONTINUOUS
 62
     7
 10
169.66407860958921
 20
38.538367477400023
 30
0.0
  0
VERTEX
  5
E56
  8
0
  6
CONTINUOUS
 62
     7
 10
169.68121145558911
 20
38.5415844236
 30
0.0
  0
VERTEX
  5
E57
  8
0
  6
CONTINUOUS
 62
     7
 10
169.69824790938921
 20
38.544681238400017
 30
0.0
  0
VERTEX
  5
E58
  8
0
  6
CONTINUOUS
 62
     7
 10
169.71518294678921
 20
38.547659096800011
 30
0.0
  0
VERTEX
  5
E59
  8
0
  6
CONTINUOUS
 62
     7
 10
169.7320165515892
 20
38.5505200968
 30
0.0
  0
VERTEX
  5
E5A
  8
0
  6
CONTINUOUS
 62
     7
 10
169.74874693378911
 20
38.553266017800013
 30
0.0
  0
VERTEX
  5
E5B
  8
0
  6
CONTINUOUS
 62
     7
 10
169.76536641298921
 20
38.555897733000002
 30
0.0
  0
VERTEX
  5
E5C
  8
0
  6
CONTINUOUS
 62
     7
 10
169.7818761647892
 20
38.558417586399997
 30
0.0
  0
VERTEX
  5
E5D
  8
0
  6
CONTINUOUS
 62
     7
 10
169.79827332318911
 20
38.560827279800009
 30
0.0
  0
VERTEX
  5
E5E
  8
0
  6
CONTINUOUS
 62
     7
 10
169.81454413358921
 20
38.563127039199998
 30
0.0
  0
VERTEX
  5
E5F
  8
0
  6
CONTINUOUS
 62
     7
 10
169.83068785538919
 20
38.565319095000007
 30
0.0
  0
VERTEX
  5
E60
  8
0
  6
CONTINUOUS
 62
     7
 10
169.84670363038919
 20
38.567405643800022
 30
0.0
  0
VERTEX
  5
E61
  8
0
  6
CONTINUOUS
 62
     7
 10
169.86257750698911
 20
38.569387268200018
 30
0.0
  0
VERTEX
  5
E62
  8
0
  6
CONTINUOUS
 62
     7
 10
169.87830868458909
 20
38.571266351600002
 30
0.0
  0
VERTEX
  5
E63
  8
0
  6
CONTINUOUS
 62
     7
 10
169.89389647498911
 20
38.573045269600023
 30
0.0
  0
VERTEX
  5
E64
  8
0
  6
CONTINUOUS
 62
     7
 10
169.9093270859891
 20
38.574724983800003
 30
0.0
  0
VERTEX
  5
E65
  8
0
  6
CONTINUOUS
 62
     7
 10
169.92460018218921
 20
38.576308065400013
 30
0.0
  0
VERTEX
  5
E66
  8
0
  6
CONTINUOUS
 62
     7
 10
169.93971473278921
 20
38.577796985600003
 30
0.0
  0
VERTEX
  5
E67
  8
0
  6
CONTINUOUS
 62
     7
 10
169.95465589758919
 20
38.579192942399999
 30
0.0
  0
VERTEX
  5
E68
  8
0
  6
CONTINUOUS
 62
     7
 10
169.96943722858919
 20
38.580499830000008
 30
0.0
  0
VERTEX
  5
E69
  8
0
  6
CONTINUOUS
 62
     7
 10
169.98404394518909
 20
38.581718938199998
 30
0.0
  0
VERTEX
  5
E6A
  8
0
  6
CONTINUOUS
 62
     7
 10
169.99841865278921
 20
38.582848560800016
 30
0.0
  0
VERTEX
  5
E6B
  8
0
  6
CONTINUOUS
 62
     7
 10
170.01257494498921
 20
38.583893112800013
 30
0.0
  0
VERTEX
  5
E6C
  8
0
  6
CONTINUOUS
 62
     7
 10
170.0264980381892
 20
38.584854795000012
 30
0.0
  0
VERTEX
  5
E6D
  8
0
  6
CONTINUOUS
 62
     7
 10
170.04008784138921
 20
38.585730718400022
 30
0.0
  0
VERTEX
  5
E6E
  8
0
  6
CONTINUOUS
 62
     7
 10
170.05334822198921
 20
38.586525717199997
 30
0.0
  0
SEQEND
  5
E6F
  8
0
  6
CONTINUOUS
 62
     7
  0
LINE
  5
3D7
  8
0
  6
CONTINUOUS
 62
     7
 10
639.97805563018915
 20
243.50947074140001
 30
0.0
 11
633.67420805298923
 21
247.14899883699999
 31
0.0
  0
LINE
  5
3D9
  8
0
  6
CONTINUOUS
 62
     7
 10
617.35081730818911
 20
243.50947074140001
 30
0.0
 11
613.62242071158914
 21
239.78107414479999
 31
0.0
  0
LINE
  5
3DA
  8
0
  6
CONTINUOUS
 62
     7
 10
518.59250449518913
 20
58.107628343800002
 30
0.0
 11
517.97434283838913
 21
57.705823266799989
 31
0.0
  0
LINE
  5
3DB
  8
0
  6
CONTINUOUS
 62
     7
 10
518.59250445778923
 20
58.107628368600018
 30
0.0
 11
518.62987944338909
 21
58.131530863800009
 31
0.0
  0
LINE
  5
3DC
  8
0
  6
CONTINUOUS
 62
     7
 10
518.62987944338909
 20
58.131530863800009
 30
0.0
 11
518.65739553838921
 21
58.148636252599999
 31
0.0
  0
POLYLINE
  5
3DD
  8
0
  6
CONTINUOUS
 62
     7
 66
     1
 10
0.0
 20
0.0
 30
0.0
  0
VERTEX
  5
E70
  8
0
  6
CONTINUOUS
 62
     7
 10
518.65739553838921
 20
58.148636252599999
 30
0.0
  0
VERTEX
  5
E71
  8
0
  6
CONTINUOUS
 62
     7
 10
518.67520672258922
 20
58.159490583999997
 30
0.0
  0
VERTEX
  5
E72
  8
0
  6
CONTINUOUS
 62
     7
 10
518.69305784898916
 20
58.170199931200017
 30
0.0
  0
VERTEX
  5
E73
  8
0
  6
CONTINUOUS
 62
     7
 10
518.71094470458922
 20
58.1807627986
 30
0.0
  0
VERTEX
  5
E74
  8
0
  6
CONTINUOUS
 62
     7
 10
518.72886596438923
 20
58.191179470799987
 30
0.0
  0
VERTEX
  5
E75
  8
0
  6
CONTINUOUS
 62
     7
 10
518.74682031218924
 20
58.201450243000011
 30
0.0
  0
VERTEX
  5
E76
  8
0
  6
CONTINUOUS
 62
     7
 10
518.76480348938924
 20
58.211573772799987
 30
0.0
  0
VERTEX
  5
E77
  8
0
  6
CONTINUOUS
 62
     7
 10
518.78281416318907
 20
58.221550437199987
 30
0.0
  0
VERTEX
  5
E78
  8
0
  6
CONTINUOUS
 62
     7
 10
518.80085101038924
 20
58.231380623400007
 30
0.0
  0
VERTEX
  5
E79
  8
0
  6
CONTINUOUS
 62
     7
 10
518.81890973298914
 20
58.241063142199998
 30
0.0
  0
VERTEX
  5
E7A
  8
0
  6
CONTINUOUS
 62
     7
 10
518.83698899498916
 20
58.25059846260001
 30
0.0
  0
VERTEX
  5
E7B
  8
0
  6
CONTINUOUS
 62
     7
 10
518.85508747118922
 20
58.259987063400011
 30
0.0
  0
VERTEX
  5
E7C
  8
0
  6
CONTINUOUS
 62
     7
 10
518.87320083098905
 20
58.269227908000012
 30
0.0
  0
VERTEX
  5
E7D
  8
0
  6
CONTINUOUS
 62
     7
 10
518.89132774018924
 20
58.278321556400023
 30
0.0
  0
VERTEX
  5
E7E
  8
0
  6
CONTINUOUS
 62
     7
 10
518.90946687578924
 20
58.287268578400017
 30
0.0
  0
VERTEX
  5
E7F
  8
0
  6
CONTINUOUS
 62
     7
 10
518.92761388098916
 20
58.296068088800013
 30
0.0
  0
VERTEX
  5
E80
  8
0
  6
CONTINUOUS
 62
     7
 10
518.94576742758909
 20
58.304720738000007
 30
0.0
  0
VERTEX
  5
E81
  8
0
  6
CONTINUOUS
 62
     7
 10
518.96392620038921
 20
58.313227185000009
 30
0.0
  0
VERTEX
  5
E82
  8
0
  6
CONTINUOUS
 62
     7
 10
518.98208582198913
 20
58.321586695200011
 30
0.0
  0
VERTEX
  5
E83
  8
0
  6
CONTINUOUS
 62
     7
 10
519.00024497538914
 20
58.329800007599999
 30
0.0
  0
VERTEX
  5
E84
  8
0
  6
CONTINUOUS
 62
     7
 10
519.01840235678924
 20
58.337867869200011
 30
0.0
  0
VERTEX
  5
E85
  8
0
  6
CONTINUOUS
 62
     7
 10
519.03655357498906
 20
58.345789694200022
 30
0.0
  0
VERTEX
  5
E86
  8
0
  6
CONTINUOUS
 62
     7
 10
519.0546973277892
 20
58.353566308400019
 30
0.0
  0
VERTEX
  5
E87
  8
0
  6
CONTINUOUS
 62
     7
 10
519.07283232798909
 20
58.361198544799997
 30
0.0
  0
VERTEX
  5
E88
  8
0
  6
CONTINUOUS
 62
     7
 10
519.09095417538924
 20
58.368685964799987
 30
0.0
  0
VERTEX
  5
E89
  8
0
  6
CONTINUOUS
 62
     7
 10
519.10906158758905
 20
58.376029478199989
 30
0.0
  0
VERTEX
  5
E8A
  8
0
  6
CONTINUOUS
 62
     7
 10
519.12715329818923
 20
58.383230002999987
 30
0.0
  0
VERTEX
  5
E8B
  8
0
  6
CONTINUOUS
 62
     7
 10
519.14522490338913
 20
58.390287244000007
 30
0.0
  0
VERTEX
  5
E8C
  8
0
  6
CONTINUOUS
 62
     7
 10
519.16327514478905
 20
58.397202194000009
 30
0.0
  0
VERTEX
  5
E8D
  8
0
  6
CONTINUOUS
 62
     7
 10
519.18130278018918
 20
58.403975852199999
 30
0.0
  0
VERTEX
  5
E8E
  8
0
  6
CONTINUOUS
 62
     7
 10
519.19930340778922
 20
58.410608065399991
 30
0.0
  0
VERTEX
  5
E8F
  8
0
  6
CONTINUOUS
 62
     7
 10
519.21727579698916
 20
58.417099905800001
 30
0.0
  0
VERTEX
  5
E90
  8
0
  6
CONTINUOUS
 62
     7
 10
519.23521873358914
 20
58.42345245140001
 30
0.0
  0
VERTEX
  5
E91
  8
0
  6
CONTINUOUS
 62
     7
 10
519.25312782278922
 20
58.429665687400018
 30
0.0
  0
VERTEX
  5
E92
  8
0
  6
CONTINUOUS
 62
     7
 10
519.27100185558913
 20
58.435740760000023
 30
0.0
  0
VERTEX
  5
E93
  8
0
  6
CONTINUOUS
 62
     7
 10
519.28883965918908
 20
58.441678826200018
 30
0.0
  0
VERTEX
  5
E94
  8
0
  6
CONTINUOUS
 62
     7
 10
519.30663687778906
 20
58.447480014999996
 30
0.0
  0
VERTEX
  5
E95
  8
0
  6
CONTINUOUS
 62
     7
 10
519.32439235798915
 20
58.453145552400002
 30
0.0
  0
VERTEX
  5
E96
  8
0
  6
CONTINUOUS
 62
     7
 10
519.3421049417891
 20
58.458676660800002
 30
0.0
  0
VERTEX
  5
E97
  8
0
  6
CONTINUOUS
 62
     7
 10
519.35977025578904
 20
58.464073589200012
 30
0.0
  0
VERTEX
  5
E98
  8
0
  6
CONTINUOUS
 62
     7
 10
519.37738718558921
 20
58.469337634200002
 30
0.0
  0
VERTEX
  5
E99
  8
0
  6
CONTINUOUS
 62
     7
 10
519.39495461058914
 20
58.474470087400022
 30
0.0
  0
VERTEX
  5
E9A
  8
0
  6
CONTINUOUS
 62
     7
 10
519.41246814098906
 20
58.479471315000012
 30
0.0
  0
VERTEX
  5
E9B
  8
0
  6
CONTINUOUS
 62
     7
 10
519.42992668778913
 20
58.484342677000001
 30
0.0
  0
VERTEX
  5
E9C
  8
0
  6
CONTINUOUS
 62
     7
 10
519.44732918658906
 20
58.489085535399987
 30
0.0
  0
VERTEX
  5
E9D
  8
0
  6
CONTINUOUS
 62
     7
 10
519.4646712795892
 20
58.493700383800011
 30
0.0
  0
VERTEX
  5
E9E
  8
0
  6
CONTINUOUS
 62
     7
 10
519.48195192098922
 20
58.498188644799988
 30
0.0
  0
VERTEX
  5
E9F
  8
0
  6
CONTINUOUS
 62
     7
 10
519.49917008958914
 20
58.502551743399998
 30
0.0
  0
VERTEX
  5
EA0
  8
0
  6
CONTINUOUS
 62
     7
 10
519.51632146338909
 20
58.506790294400012
 30
0.0
  0
VERTEX
  5
EA1
  8
0
  6
CONTINUOUS
 62
     7
 10
519.53340504298922
 20
58.510905780199998
 30
0.0
  0
VERTEX
  5
EA2
  8
0
  6
CONTINUOUS
 62
     7
 10
519.55041985238915
 20
58.51489968340001
 30
0.0
  0
VERTEX
  5
EA3
  8
0
  6
CONTINUOUS
 62
     7
 10
519.56736160698915
 20
58.518772734999999
 30
0.0
  0
VERTEX
  5
EA4
  8
0
  6
CONTINUOUS
 62
     7
 10
519.58422935658905
 20
58.52252647260002
 30
0.0
  0
VERTEX
  5
EA5
  8
0
  6
CONTINUOUS
 62
     7
 10
519.60102217198914
 20
58.526162432400007
 30
0.0
  0
VERTEX
  5
EA6
  8
0
  6
CONTINUOUS
 62
     7
 10
519.61773580298905
 20
58.529681454400013
 30
0.0
  0
VERTEX
  5
EA7
  8
0
  6
CONTINUOUS
 62
     7
 10
519.63436935398909
 20
58.533085128200007
 30
0.0
  0
VERTEX
  5
EA8
  8
0
  6
CONTINUOUS
 62
     7
 10
519.6509219407892
 20
58.53637503760001
 30
0.0
  0
VERTEX
  5
EA9
  8
0
  6
CONTINUOUS
 62
     7
 10
519.66738933758916
 20
58.539552125
 30
0.0
  0
VERTEX
  5
EAA
  8
0
  6
CONTINUOUS
 62
     7
 10
519.68377071298914
 20
58.542618028000021
 30
0.0
  0
VERTEX
  5
EAB
  8
0
  6
CONTINUOUS
 62
     7
 10
519.70006522058918
 20
58.545574373199997
 30
0.0
  0
VERTEX
  5
EAC
  8
0
  6
CONTINUOUS
 62
     7
 10
519.71626862018923
 20
58.548422192600007
 30
0.0
  0
VERTEX
  5
EAD
  8
0
  6
CONTINUOUS
 62
     7
 10
519.73238135878921
 20
58.551163370799998
 30
0.0
  0
VERTEX
  5
EAE
  8
0
  6
CONTINUOUS
 62
     7
 10
519.74840141758909
 20
58.55379935740001
 30
0.0
  0
VERTEX
  5
EAF
  8
0
  6
CONTINUOUS
 62
     7
 10
519.76432086198918
 20
58.5563306958
 30
0.0
  0
VERTEX
  5
EB0
  8
0
  6
CONTINUOUS
 62
     7
 10
519.78014113118923
 20
58.558759490800007
 30
0.0
  0
VERTEX
  5
EB1
  8
0
  6
CONTINUOUS
 62
     7
 10
519.79585930278915
 20
58.561087154600017
 30
0.0
  0
VERTEX
  5
EB2
  8
0
  6
CONTINUOUS
 62
     7
 10
519.81146088018909
 20
58.563313515600008
 30
0.0
  0
VERTEX
  5
EB3
  8
0
  6
CONTINUOUS
 62
     7
 10
519.82694524518922
 20
58.565440553400009
 30
0.0
  0
VERTEX
  5
EB4
  8
0
  6
CONTINUOUS
 62
     7
 10
519.84231159758917
 20
58.567470207600003
 30
0.0
  0
VERTEX
  5
EB5
  8
0
  6
CONTINUOUS
 62
     7
 10
519.85754514018913
 20
58.569402665799998
 30
0.0
  0
VERTEX
  5
EB6
  8
0
  6
CONTINUOUS
 62
     7
 10
519.87264514398919
 20
58.571240068200012
 30
0.0
  0
VERTEX
  5
EB7
  8
0
  6
CONTINUOUS
 62
     7
 10
519.88761100418924
 20
58.572984550800022
 30
0.0
  0
VERTEX
  5
EB8
  8
0
  6
CONTINUOUS
 62
     7
 10
519.9024280931892
 20
58.574636701800017
 30
0.0
  0
VERTEX
  5
EB9
  8
0
  6
CONTINUOUS
 62
     7
 10
519.91709574758909
 20
58.576198821600002
 30
0.0
  0
VERTEX
  5
EBA
  8
0
  6
CONTINUOUS
 62
     7
 10
519.9316133967892
 20
58.57767319780001
 30
0.0
  0
VERTEX
  5
EBB
  8
0
  6
CONTINUOUS
 62
     7
 10
519.94596654258919
 20
58.579060780799999
 30
0.0
  0
VERTEX
  5
EBC
  8
0
  6
CONTINUOUS
 62
     7
 10
519.96015811458915
 20
58.580364324399987
 30
0.0
  0
VERTEX
  5
EBD
  8
0
  6
CONTINUOUS
 62
     7
 10
519.97418406198915
 20
58.581585896000007
 30
0.0
  0
VERTEX
  5
EBE
  8
0
  6
CONTINUOUS
 62
     7
 10
519.98801940098906
 20
58.582725925999988
 30
0.0
  0
VERTEX
  5
EBF
  8
0
  6
CONTINUOUS
 62
     7
 10
520.00167262278921
 20
58.583787792999999
 30
0.0
  0
VERTEX
  5
EC0
  8
0
  6
CONTINUOUS
 62
     7
 10
520.01513421058917
 20
58.584773397399999
 30
0.0
  0
VERTEX
  5
EC1
  8
0
  6
CONTINUOUS
 62
     7
 10
520.02835211678905
 20
58.585681937600008
 30
0.0
  0
SEQEND
  5
EC2
  8
0
  6
CONTINUOUS
 62
     7
  0
LINE
  5
3E0
  8
0
  6
CONTINUOUS
 62
     7
 10
591.38805812958924
 20
102.3726481974
 30
0.0
 11
600.65037485978905
 21
234.8299485206
 31
0.0
  0
ARC
  5
4CD
  8
0
  6
CONTINUOUS
 62
     7
 10
-80.696460970210808
 20
242.7509226256
 30
0.0
 40
4.2000000000000002
 50
225.0
 51
270.0
  0
ARC
  5
4CE
  8
0
  6
CONTINUOUS
 62
     7
 10
610.65257223058904
 20
242.7509226256
 30
0.0
 40
4.2000000000000002
 50
270.0
 51
315.0
  0
ARC
  5
4CF
  8
0
  6
CONTINUOUS
 62
     7
 10
632.17420711038915
 20
244.55092262560001
 30
0.0
 40
3.0
 50
59.999984410599929
 51
89.999981998899969
  0
ARC
  5
4D0
  8
0
  6
CONTINUOUS
 62
     7
 10
-102.2180967924108
 20
244.55092262560001
 30
0.0
 40
3.0
 50
90.0
 51
120.0000000000001
  0
ARC
  5
4D1
  8
0
  6
CONTINUOUS
 62
     7
 10
604.64063106078913
 20
234.55092262560001
 30
0.0
 40
4.0
 50
90.0
 51
176.0000000000002
  0
ARC
  5
4D2
  8
0
  6
CONTINUOUS
 62
     7
 10
520.22746945738913
 20
55.5922974956
 30
0.0
 40
2.999999998399999
 50
92.009414337899557
 51
122.1765570622007
  0
ARC
  5
4D3
  8
0
  6
CONTINUOUS
 62
     7
 10
515.79438943598905
 20
61.059597732000022
 30
0.0
 40
4.0
 50
282.68038349179972
 51
303.02386755580039
  0
ARC
  5
4D4
  8
0
  6
CONTINUOUS
 62
     7
 10
404.16172182438902
 20
61.059597732000022
 30
0.0
 40
4.0
 50
236.97613244419961
 51
257.31961650820028
  0
ARC
  5
4D5
  8
0
  6
CONTINUOUS
 62
     7
 10
399.72864181238918
 20
55.592297495399997
 30
0.0
 40
2.999999998199999
 50
57.839511993300562
 51
87.990585717799831
  0
ARC
  5
4D6
  8
0
  6
CONTINUOUS
 62
     7
 10
-74.125105305010806
 20
234.55092262560001
 30
0.0
 40
4.0
 50
3.9999999999997611
 51
90.0
  0
ARC
  5
4D7
  8
0
  6
CONTINUOUS
 62
     7
 10
54.477366142989183
 20
41.808577760399992
 30
0.0
 40
4.7999999999999989
 50
236.97613244419961
 51
257.31961650820028
  0
ARC
  5
4D8
  8
0
  6
CONTINUOUS
 62
     7
 10
165.47874511738911
 20
41.808577760399992
 30
0.0
 40
4.7999999999999989
 50
282.68038349179972
 51
303.02386755580039
  0
ARC
  5
4D9
  8
0
  6
CONTINUOUS
 62
     7
 10
170.2262635135892
 20
35.591513627200008
 30
0.0
 40
2.999999998399999
 50
91.971158535399894
 51
122.2504241465995
  0
POLYLINE
  8
0
  5
ECE
  62
7
  66
     1
 10
0.000000
 20
0.000000
 30
0.000000
  70
     8
  0
VERTEX
  8
0
  5
ECF
 10
518.593
 20
58.1076
 30
0.000000
  70
    32
  0
VERTEX
  8
0
  5
ED0
 10
518.592
 20
58.1076
 30
0.000000
  70
    32
  0
VERTEX
  8
0
  5
ED1
 10
518.592
 20
58.1076
 30
0.000000
  70
    32
  0
VERTEX
  8
0
  5
ED2
 10
518.592
 20
58.1076
 30
0.000000
  70
    32
  0
VERTEX
  8
0
  5
ED3
 10
518.592
 20
58.1076
 30
0.000000
  70
    32
  0
VERTEX
  8
0
  5
ED4
 10
518.591
 20
58.1076
 30
0.000000
  70
    32
  0
VERTEX
  8
0
  5
ED5
 10
518.591
 20
58.1076
 30
0.000000
  70
    32
  0
VERTEX
  8
0
  5
ED6
 10
518.591
 20
58.1076
 30
0.000000
  70
    32
  0
VERTEX
  8
0
  5
ED7
 10
518.591
 20
58.1076
 30
0.000000
  70
    32
  0
VERTEX
  8
0
  5
ED8
 10
518.590
 20
58.1076
 30
0.000000
  70
    32
  0
VERTEX
  8
0
  5
ED9
 10
518.590
 20
58.1076
 30
0.000000
  70
    32
  0
VERTEX
  8
0
  5
EDA
 10
518.590
 20
58.1076
 30
0.000000
  70
    32
  0
VERTEX
  8
0
  5
EDB
 10
518.590
 20
58.1076
 30
0.000000
  70
    32
  0
VERTEX
  8
0
  5
EDC
 10
518.589
 20
58.1076
 30
0.000000
  70
    32
  0
VERTEX
  8
0
  5
EDD
 10
518.589
 20
58.1076
 30
0.000000
  70
    32
  0
VERTEX
  8
0
  5
EDE
 10
518.589
 20
58.1076
 30
0.000000
  70
    32
  0
VERTEX
  8
0
  5
EDF
 10
518.589
 20
58.1076
 30
0.000000
  70
    32
  0
VERTEX
  8
0
  5
EE0
 10
518.588
 20
58.1076
 30
0.000000
  70
    32
  0
VERTEX
  8
0
  5
EE1
 10
518.588
 20
58.1076
 30
0.000000
  70
    32
  0
VERTEX
  8
0
  5
EE2
 10
518.588
 20
58.1076
 30
0.000000
  70
    32
  0
VERTEX
  8
0
  5
EE3
 10
518.588
 20
58.1076
 30
0.000000
  70
    32
  0
VERTEX
  8
0
  5
EE4
 10
518.587
 20
58.1076
 30
0.000000
  70
    32
  0
VERTEX
  8
0
  5
EE5
 10
518.587
 20
58.1076
 30
0.000000
  70
    32
  0
VERTEX
  8
0
  5
EE6
 10
518.587
 20
58.1076
 30
0.000000
  70
    32
  0
VERTEX
  8
0
  5
EE7
 10
518.587
 20
58.1076
 30
0.000000
  70
    32
  0
VERTEX
  8
0
  5
EE8
 10
518.586
 20
58.1076
 30
0.000000
  70
    32
  0
VERTEX
  8
0
  5
EE9
 10
518.586
 20
58.1076
 30
0.000000
  70
    32
  0
VERTEX
  8
0
  5
EEA
 10
518.586
 20
58.1076
 30
0.000000
  70
    32
  0
VERTEX
  8
0
  5
EEB
 10
518.586
 20
58.1076
 30
0.000000
  70
    32
  0
VERTEX
  8
0
  5
EEC
 10
518.586
 20
58.1076
 30
0.000000
  70
    32
  0
VERTEX
  8
0
  5
EED
 10
518.585
 20
58.1076
 30
0.000000
  70
    32
  0
VERTEX
  8
0
  5
EEE
 10
518.585
 20
58.1076
 30
0.000000
  70
    32
  0
VERTEX
  8
0
  5
EEF
 10
518.585
 20
58.1076
 30
0.000000
  70
    32
  0
VERTEX
  8
0
  5
EF0
 10
518.585
 20
58.1076
 30
0.000000
  70
    32
  0
VERTEX
  8
0
  5
EF1
 10
518.584
 20
58.1076
 30
0.000000
  70
    32
  0
VERTEX
  8
0
  5
EF2
 10
518.584
 20
58.1076
 30
0.000000
  70
    32
  0
VERTEX
  8
0
  5
EF3
 10
518.584
 20
58.1076
 30
0.000000
  70
    32
  0
VERTEX
  8
0
  5
EF4
 10
518.584
 20
58.1076
 30
0.000000
  70
    32
  0
VERTEX
  8
0
  5
EF5
 10
518.583
 20
58.1076
 30
0.000000
  70
    32
  0
VERTEX
  8
0
  5
EF6
 10
518.583
 20
58.1076
 30
0.000000
  70
    32
  0
VERTEX
  8
0
  5
EF7
 10
518.583
 20
58.1076
 30
0.000000
  70
    32
  0
VERTEX
  8
0
  5
EF8
 10
518.583
 20
58.1076
 30
0.000000
  70
    32
  0
VERTEX
  8
0
  5
EF9
 10
518.582
 20
58.1076
 30
0.000000
  70
    32
  0
VERTEX
  8
0
  5
EFA
 10
518.582
 20
58.1076
 30
0.000000
  70
    32
  0
VERTEX
  8
0
  5
EFB
 10
518.582
 20
58.1076
 30
0.000000
  70
    32
  0
VERTEX
  8
0
  5
EFC
 10
518.582
 20
58.1076
 30
0.000000
  70
    32
  0
VERTEX
  8
0
  5
EFD
 10
518.581
 20
58.1076
 30
0.000000
  70
    32
  0
VERTEX
  8
0
  5
EFE
 10
518.581
 20
58.1076
 30
0.000000
  70
    32
  0
VERTEX
  8
0
  5
EFF
 10
518.581
 20
58.1076
 30
0.000000
  70
    32
  0
VERTEX
  8
0
  5
F00
 10
518.581
 20
58.1076
 30
0.000000
  70
    32
  0
VERTEX
  8
0
  5
F01
 10
518.580
 20
58.1076
 30
0.000000
  70
    32
  0
VERTEX
  8
0
  5
F02
 10
518.580
 20
58.1076
 30
0.000000
  70
    32
  0
VERTEX
  8
0
  5
F03
 10
518.580
 20
58.1076
 30
0.000000
  70
    32
  0
VERTEX
  8
0
  5
F04
 10
518.580
 20
58.1076
 30
0.000000
  70
    32
  0
VERTEX
  8
0
  5
F05
 10
518.580
 20
58.1076
 30
0.000000
  70
    32
  0
VERTEX
  8
0
  5
F06
 10
518.579
 20
58.1076
 30
0.000000
  70
    32
  0
VERTEX
  8
0
  5
F07
 10
518.579
 20
58.1076
 30
0.000000
  70
    32
  0
VERTEX
  8
0
  5
F08
 10
518.579
 20
58.1076
 30
0.000000
  70
    32
  0
VERTEX
  8
0
  5
F09
 10
518.579
 20
58.1076
 30
0.000000
  70
    32
  0
VERTEX
  8
0
  5
F0A
 10
518.578
 20
58.1076
 30
0.000000
  70
    32
  0
VERTEX
  8
0
  5
F0B
 10
518.578
 20
58.1076
 30
0.000000
  70
    32
  0
VERTEX
  8
0
  5
F0C
 10
518.578
 20
58.1076
 30
0.000000
  70
    32
  0
VERTEX
  8
0
  5
F0D
 10
518.578
 20
58.1076
 30
0.000000
  70
    32
  0
VERTEX
  8
0
  5
F0E
 10
518.577
 20
58.1076
 30
0.000000
  70
    32
  0
VERTEX
  8
0
  5
F0F
 10
518.577
 20
58.1076
 30
0.000000
  70
    32
  0
VERTEX
  8
0
  5
F10
 10
518.577
 20
58.1076
 30
0.000000
  70
    32
  0
VERTEX
  8
0
  5
F11
 10
518.577
 20
58.1076
 30
0.000000
  70
    32
  0
VERTEX
  8
0
  5
F12
 10
518.576
 20
58.1076
 30
0.000000
  70
    32
  0
VERTEX
  8
0
  5
F13
 10
518.576
 20
58.1076
 30
0.000000
  70
    32
  0
VERTEX
  8
0
  5
F14
 10
518.576
 20
58.1076
 30
0.000000
  70
    32
  0
VERTEX
  8
0
  5
F15
 10
518.576
 20
58.1076
 30
0.000000
  70
    32
  0
VERTEX
  8
0
  5
F16
 10
518.575
 20
58.1076
 30
0.000000
  70
    32
  0
VERTEX
  8
0
  5
F17
 10
518.575
 20
58.1076
 30
0.000000
  70
    32
  0
VERTEX
  8
0
  5
F18
 10
518.575
 20
58.1076
 30
0.000000
  70
    32
  0
VERTEX
  8
0
  5
F19
 10
518.575
 20
58.1076
 30
0.000000
  70
    32
  0
VERTEX
  8
0
  5
F1A
 10
518.574
 20
58.1076
 30
0.000000
  70
    32
  0
VERTEX
  8
0
  5
F1B
 10
518.574
 20
58.1076
 30
0.000000
  70
    32
  0
VERTEX
  8
0
  5
F1C
 10
518.574
 20
58.1076
 30
0.000000
  70
    32
  0
VERTEX
  8
0
  5
F1D
 10
518.574
 20
58.1076
 30
0.000000
  70
    32
  0
VERTEX
  8
0
  5
F1E
 10
518.574
 20
58.1076
 30
0.000000
  70
    32
  0
VERTEX
  8
0
  5
F1F
 10
518.573
 20
58.1076
 30
0.000000
  70
    32
  0
VERTEX
  8
0
  5
F20
 10
518.573
 20
58.1076
 30
0.000000
  70
    32
  0
VERTEX
  8
0
  5
F21
 10
518.573
 20
58.1076
 30
0.000000
  70
    32
  0
VERTEX
  8
0
  5
F22
 10
518.573
 20
58.1076
 30
0.000000
  70
    32
  0
VERTEX
  8
0
  5
F23
 10
518.572
 20
58.1076
 30
0.000000
  70
    32
  0
VERTEX
  8
0
  5
F24
 10
518.572
 20
58.1076
 30
0.000000
  70
    32
  0
VERTEX
  8
0
  5
F25
 10
518.572
 20
58.1076
 30
0.000000
  70
    32
  0
VERTEX
  8
0
  5
F26
 10
518.572
 20
58.1076
 30
0.000000
  70
    32
  0
VERTEX
  8
0
  5
F27
 10
518.571
 20
58.1076
 30
0.000000
  70
    32
  0
VERTEX
  8
0
  5
F28
 10
518.571
 20
58.1076
 30
0.000000
  70
    32
  0
VERTEX
  8
0
  5
F29
 10
518.571
 20
58.1075
 30
0.000000
  70
    32
  0
VERTEX
  8
0
  5
F2A
 10
518.571
 20
58.1075
 30
0.000000
  70
    32
  0
VERTEX
  8
0
  5
F2B
 10
518.570
 20
58.1075
 30
0.000000
  70
    32
  0
VERTEX
  8
0
  5
F2C
 10
518.570
 20
58.1075
 30
0.000000
  70
    32
  0
VERTEX
  8
0
  5
F2D
 10
518.570
 20
58.1075
 30
0.000000
  70
    32
  0
VERTEX
  8
0
  5
F2E
 10
518.570
 20
58.1075
 30
0.000000
  70
    32
  0
VERTEX
  8
0
  5
F2F
 10
518.569
 20
58.1075
 30
0.000000
  70
    32
  0
VERTEX
  8
0
  5
F30
 10
518.569
 20
58.1075
 30
0.000000
  70
    32
  0
VERTEX
  8
0
  5
F31
 10
518.569
 20
58.1075
 30
0.000000
  70
    32
  0
VERTEX
  8
0
  5
F32
 10
518.569
 20
58.1075
 30
0.000000
  70
    32
  0
VERTEX
  8
0
  5
F33
 10
518.568
 20
58.1075
 30
0.000000
  70
    32
  0
VERTEX
  8
0
  5
F34
 10
518.568
 20
58.1075
 30
0.000000
  70
    32
  0
VERTEX
  8
0
  5
F35
 10
518.568
 20
58.1075
 30
0.000000
  70
    32
  0
VERTEX
  8
0
  5
F36
 10
518.568
 20
58.1075
 30
0.000000
  70
    32
  0
VERTEX
  8
0
  5
F37
 10
518.567
 20
58.1075
 30
0.000000
  70
    32
  0
VERTEX
  8
0
  5
F38
 10
518.567
 20
58.1075
 30
0.000000
  70
    32
  0
VERTEX
  8
0
  5
F39
 10
518.567
 20
58.1075
 30
0.000000
  70
    32
  0
VERTEX
  8
0
  5
F3A
 10
518.567
 20
58.1075
 30
0.000000
  70
    32
  0
VERTEX
  8
0
  5
F3B
 10
518.567
 20
58.1075
 30
0.000000
  70
    32
  0
VERTEX
  8
0
  5
F3C
 10
518.566
 20
58.1075
 30
0.000000
  70
    32
  0
VERTEX
  8
0
  5
F3D
 10
518.566
 20
58.1075
 30
0.000000
  70
    32
  0
VERTEX
  8
0
  5
F3E
 10
518.566
 20
58.1075
 30
0.000000
  70
    32
  0
VERTEX
  8
0
  5
F3F
 10
518.566
 20
58.1075
 30
0.000000
  70
    32
  0
VERTEX
  8
0
  5
F40
 10
518.565
 20
58.1075
 30
0.000000
  70
    32
  0
VERTEX
  8
0
  5
F41
 10
518.565
 20
58.1075
 30
0.000000
  70
    32
  0
VERTEX
  8
0
  5
F42
 10
518.565
 20
58.1075
 30
0.000000
  70
    32
  0
VERTEX
  8
0
  5
F43
 10
518.565
 20
58.1075
 30
0.000000
  70
    32
  0
VERTEX
  8
0
  5
F44
 10
518.564
 20
58.1075
 30
0.000000
  70
    32
  0
VERTEX
  8
0
  5
F45
 10
518.564
 20
58.1075
 30
0.000000
  70
    32
  0
VERTEX
  8
0
  5
F46
 10
518.564
 20
58.1075
 30
0.000000
  70
    32
  0
VERTEX
  8
0
  5
F47
 10
518.564
 20
58.1075
 30
0.000000
  70
    32
  0
VERTEX
  8
0
  5
F48
 10
518.563
 20
58.1075
 30
0.000000
  70
    32
  0
VERTEX
  8
0
  5
F49
 10
518.563
 20
58.1075
 30
0.000000
  70
    32
  0
VERTEX
  8
0
  5
F4A
 10
518.563
 20
58.1075
 30
0.000000
  70
    32
  0
VERTEX
  8
0
  5
F4B
 10
518.563
 20
58.1075
 30
0.000000
  70
    32
  0
VERTEX
  8
0
  5
F4C
 10
518.562
 20
58.1075
 30
0.000000
  70
    32
  0
VERTEX
  8
0
  5
F4D
 10
518.562
 20
58.1075
 30
0.000000
  70
    32
  0
VERTEX
  8
0
  5
F4E
 10
518.562
 20
58.1075
 30
0.000000
  70
    32
  0
SEQEND
  8
0
  5
F4F
  0
POLYLINE
  8
0
  5
F50
  62
7
  66
     1
 10
0.000000
 20
0.000000
 30
0.000000
  70
     8
  0
VERTEX
  8
0
  5
F51
 10
518.562
 20
58.1075
 30
0.000000
  70
    32
  0
VERTEX
  8
0
  5
F52
 10
518.562
 20
58.1075
 30
0.000000
  70
    32
  0
VERTEX
  8
0
  5
F53
 10
518.561
 20
58.1075
 30
0.000000
  70
    32
  0
VERTEX
  8
0
  5
F54
 10
518.561
 20
58.1075
 30
0.000000
  70
    32
  0
VERTEX
  8
0
  5
F55
 10
518.561
 20
58.1075
 30
0.000000
  70
    32
  0
VERTEX
  8
0
  5
F56
 10
518.560
 20
58.1075
 30
0.000000
  70
    32
  0
VERTEX
  8
0
  5
F57
 10
518.560
 20
58.1075
 30
0.000000
  70
    32
  0
VERTEX
  8
0
  5
F58
 10
518.560
 20
58.1075
 30
0.000000
  70
    32
  0
VERTEX
  8
0
  5
F59
 10
518.560
 20
58.1075
 30
0.000000
  70
    32
  0
VERTEX
  8
0
  5
F5A
 10
518.559
 20
58.1075
 30
0.000000
  70
    32
  0
VERTEX
  8
0
  5
F5B
 10
518.559
 20
58.1075
 30
0.000000
  70
    32
  0
VERTEX
  8
0
  5
F5C
 10
518.559
 20
58.1075
 30
0.000000
  70
    32
  0
VERTEX
  8
0
  5
F5D
 10
518.558
 20
58.1075
 30
0.000000
  70
    32
  0
VERTEX
  8
0
  5
F5E
 10
518.558
 20
58.1075
 30
0.000000
  70
    32
  0
VERTEX
  8
0
  5
F5F
 10
518.558
 20
58.1075
 30
0.000000
  70
    32
  0
VERTEX
  8
0
  5
F60
 10
518.557
 20
58.1075
 30
0.000000
  70
    32
  0
VERTEX
  8
0
  5
F61
 10
518.557
 20
58.1075
 30
0.000000
  70
    32
  0
VERTEX
  8
0
  5
F62
 10
518.557
 20
58.1075
 30
0.000000
  70
    32
  0
VERTEX
  8
0
  5
F63
 10
518.557
 20
58.1075
 30
0.000000
  70
    32
  0
VERTEX
  8
0
  5
F64
 10
518.556
 20
58.1075
 30
0.000000
  70
    32
  0
VERTEX
  8
0
  5
F65
 10
518.556
 20
58.1075
 30
0.000000
  70
    32
  0
VERTEX
  8
0
  5
F66
 10
518.556
 20
58.1075
 30
0.000000
  70
    32
  0
VERTEX
  8
0
  5
F67
 10
518.555
 20
58.1075
 30
0.000000
  70
    32
  0
VERTEX
  8
0
  5
F68
 10
518.555
 20
58.1075
 30
0.000000
  70
    32
  0
VERTEX
  8
0
  5
F69
 10
518.555
 20
58.1075
 30
0.000000
  70
    32
  0
VERTEX
  8
0
  5
F6A
 10
518.554
 20
58.1075
 30
0.000000
  70
    32
  0
VERTEX
  8
0
  5
F6B
 10
518.554
 20
58.1075
 30
0.000000
  70
    32
  0
VERTEX
  8
0
  5
F6C
 10
518.554
 20
58.1075
 30
0.000000
  70
    32
  0
VERTEX
  8
0
  5
F6D
 10
518.554
 20
58.1075
 30
0.000000
  70
    32
  0
VERTEX
  8
0
  5
F6E
 10
518.553
 20
58.1075
 30
0.000000
  70
    32
  0
VERTEX
  8
0
  5
F6F
 10
518.553
 20
58.1075
 30
0.000000
  70
    32
  0
VERTEX
  8
0
  5
F70
 10
518.553
 20
58.1075
 30
0.000000
  70
    32
  0
VERTEX
  8
0
  5
F71
 10
518.552
 20
58.1075
 30
0.000000
  70
    32
  0
VERTEX
  8
0
  5
F72
 10
518.552
 20
58.1075
 30
0.000000
  70
    32
  0
VERTEX
  8
0
  5
F73
 10
518.552
 20
58.1075
 30
0.000000
  70
    32
  0
VERTEX
  8
0
  5
F74
 10
518.551
 20
58.1075
 30
0.000000
  70
    32
  0
VERTEX
  8
0
  5
F75
 10
518.551
 20
58.1075
 30
0.000000
  70
    32
  0
VERTEX
  8
0
  5
F76
 10
518.551
 20
58.1075
 30
0.000000
  70
    32
  0
VERTEX
  8
0
  5
F77
 10
518.551
 20
58.1075
 30
0.000000
  70
    32
  0
VERTEX
  8
0
  5
F78
 10
518.550
 20
58.1075
 30
0.000000
  70
    32
  0
VERTEX
  8
0
  5
F79
 10
518.550
 20
58.1075
 30
0.000000
  70
    32
  0
VERTEX
  8
0
  5
F7A
 10
518.550
 20
58.1075
 30
0.000000
  70
    32
  0
VERTEX
  8
0
  5
F7B
 10
518.549
 20
58.1075
 30
0.000000
  70
    32
  0
VERTEX
  8
0
  5
F7C
 10
518.549
 20
58.1075
 30
0.000000
  70
    32
  0
VERTEX
  8
0
  5
F7D
 10
518.549
 20
58.1075
 30
0.000000
  70
    32
  0
VERTEX
  8
0
  5
F7E
 10
518.548
 20
58.1075
 30
0.000000
  70
    32
  0
VERTEX
  8
0
  5
F7F
 10
518.548
 20
58.1075
 30
0.000000
  70
    32
  0
VERTEX
  8
0
  5
F80
 10
518.548
 20
58.1075
 30
0.000000
  70
    32
  0
VERTEX
  8
0
  5
F81
 10
518.548
 20
58.1075
 30
0.000000
  70
    32
  0
VERTEX
  8
0
  5
F82
 10
518.547
 20
58.1075
 30
0.000000
  70
    32
  0
VERTEX
  8
0
  5
F83
 10
518.547
 20
58.1075
 30
0.000000
  70
    32
  0
VERTEX
  8
0
  5
F84
 10
518.547
 20
58.1075
 30
0.000000
  70
    32
  0
VERTEX
  8
0
  5
F85
 10
518.546
 20
58.1075
 30
0.000000
  70
    32
  0
VERTEX
  8
0
  5
F86
 10
518.546
 20
58.1075
 30
0.000000
  70
    32
  0
VERTEX
  8
0
  5
F87
 10
518.546
 20
58.1075
 30
0.000000
  70
    32
  0
VERTEX
  8
0
  5
F88
 10
518.545
 20
58.1075
 30
0.000000
  70
    32
  0
VERTEX
  8
0
  5
F89
 10
518.545
 20
58.1075
 30
0.000000
  70
    32
  0
VERTEX
  8
0
  5
F8A
 10
518.545
 20
58.1075
 30
0.000000
  70
    32
  0
VERTEX
  8
0
  5
F8B
 10
518.545
 20
58.1075
 30
0.000000
  70
    32
  0
VERTEX
  8
0
  5
F8C
 10
518.544
 20
58.1075
 30
0.000000
  70
    32
  0
VERTEX
  8
0
  5
F8D
 10
518.544
 20
58.1075
 30
0.000000
  70
    32
  0
VERTEX
  8
0
  5
F8E
 10
518.544
 20
58.1075
 30
0.000000
  70
    32
  0
VERTEX
  8
0
  5
F8F
 10
518.543
 20
58.1075
 30
0.000000
  70
    32
  0
VERTEX
  8
0
  5
F90
 10
518.543
 20
58.1075
 30
0.000000
  70
    32
  0
VERTEX
  8
0
  5
F91
 10
518.543
 20
58.1075
 30
0.000000
  70
    32
  0
VERTEX
  8
0
  5
F92
 10
518.542
 20
58.1075
 30
0.000000
  70
    32
  0
VERTEX
  8
0
  5
F93
 10
518.542
 20
58.1075
 30
0.000000
  70
    32
  0
VERTEX
  8
0
  5
F94
 10
518.542
 20
58.1075
 30
0.000000
  70
    32
  0
VERTEX
  8
0
  5
F95
 10
518.542
 20
58.1075
 30
0.000000
  70
    32
  0
VERTEX
  8
0
  5
F96
 10
518.541
 20
58.1074
 30
0.000000
  70
    32
  0
VERTEX
  8
0
  5
F97
 10
518.541
 20
58.1074
 30
0.000000
  70
    32
  0
VERTEX
  8
0
  5
F98
 10
518.541
 20
58.1074
 30
0.000000
  70
    32
  0
VERTEX
  8
0
  5
F99
 10
518.540
 20
58.1074
 30
0.000000
  70
    32
  0
VERTEX
  8
0
  5
F9A
 10
518.540
 20
58.1074
 30
0.000000
  70
    32
  0
VERTEX
  8
0
  5
F9B
 10
518.540
 20
58.1074
 30
0.000000
  70
    32
  0
VERTEX
  8
0
  5
F9C
 10
518.539
 20
58.1074
 30
0.000000
  70
    32
  0
VERTEX
  8
0
  5
F9D
 10
518.539
 20
58.1074
 30
0.000000
  70
    32
  0
VERTEX
  8
0
  5
F9E
 10
518.539
 20
58.1074
 30
0.000000
  70
    32
  0
VERTEX
  8
0
  5
F9F
 10
518.539
 20
58.1074
 30
0.000000
  70
    32
  0
VERTEX
  8
0
  5
FA0
 10
518.538
 20
58.1074
 30
0.000000
  70
    32
  0
VERTEX
  8
0
  5
FA1
 10
518.538
 20
58.1074
 30
0.000000
  70
    32
  0
VERTEX
  8
0
  5
FA2
 10
518.538
 20
58.1074
 30
0.000000
  70
    32
  0
VERTEX
  8
0
  5
FA3
 10
518.537
 20
58.1074
 30
0.000000
  70
    32
  0
VERTEX
  8
0
  5
FA4
 10
518.537
 20
58.1074
 30
0.000000
  70
    32
  0
VERTEX
  8
0
  5
FA5
 10
518.537
 20
58.1074
 30
0.000000
  70
    32
  0
VERTEX
  8
0
  5
FA6
 10
518.536
 20
58.1074
 30
0.000000
  70
    32
  0
VERTEX
  8
0
  5
FA7
 10
518.536
 20
58.1074
 30
0.000000
  70
    32
  0
VERTEX
  8
0
  5
FA8
 10
518.536
 20
58.1074
 30
0.000000
  70
    32
  0
VERTEX
  8
0
  5
FA9
 10
518.536
 20
58.1074
 30
0.000000
  70
    32
  0
VERTEX
  8
0
  5
FAA
 10
518.535
 20
58.1074
 30
0.000000
  70
    32
  0
VERTEX
  8
0
  5
FAB
 10
518.535
 20
58.1074
 30
0.000000
  70
    32
  0
VERTEX
  8
0
  5
FAC
 10
518.535
 20
58.1074
 30
0.000000
  70
    32
  0
VERTEX
  8
0
  5
FAD
 10
518.534
 20
58.1074
 30
0.000000
  70
    32
  0
VERTEX
  8
0
  5
FAE
 10
518.534
 20
58.1074
 30
0.000000
  70
    32
  0
VERTEX
  8
0
  5
FAF
 10
518.534
 20
58.1074
 30
0.000000
  70
    32
  0
VERTEX
  8
0
  5
FB0
 10
518.533
 20
58.1074
 30
0.000000
  70
    32
  0
VERTEX
  8
0
  5
FB1
 10
518.533
 20
58.1074
 30
0.000000
  70
    32
  0
VERTEX
  8
0
  5
FB2
 10
518.533
 20
58.1074
 30
0.000000
  70
    32
  0
VERTEX
  8
0
  5
FB3
 10
518.533
 20
58.1074
 30
0.000000
  70
    32
  0
VERTEX
  8
0
  5
FB4
 10
518.532
 20
58.1074
 30
0.000000
  70
    32
  0
VERTEX
  8
0
  5
FB5
 10
518.532
 20
58.1074
 30
0.000000
  70
    32
  0
VERTEX
  8
0
  5
FB6
 10
518.532
 20
58.1074
 30
0.000000
  70
    32
  0
VERTEX
  8
0
  5
FB7
 10
518.531
 20
58.1074
 30
0.000000
  70
    32
  0
VERTEX
  8
0
  5
FB8
 10
518.531
 20
58.1074
 30
0.000000
  70
    32
  0
VERTEX
  8
0
  5
FB9
 10
518.531
 20
58.1074
 30
0.000000
  70
    32
  0
VERTEX
  8
0
  5
FBA
 10
518.530
 20
58.1074
 30
0.000000
  70
    32
  0
VERTEX
  8
0
  5
FBB
 10
518.530
 20
58.1074
 30
0.000000
  70
    32
  0
VERTEX
  8
0
  5
FBC
 10
518.530
 20
58.1074
 30
0.000000
  70
    32
  0
VERTEX
  8
0
  5
FBD
 10
518.530
 20
58.1074
 30
0.000000
  70
    32
  0
VERTEX
  8
0
  5
FBE
 10
518.529
 20
58.1074
 30
0.000000
  70
    32
  0
VERTEX
  8
0
  5
FBF
 10
518.529
 20
58.1074
 30
0.000000
  70
    32
  0
VERTEX
  8
0
  5
FC0
 10
518.529
 20
58.1074
 30
0.000000
  70
    32
  0
VERTEX
  8
0
  5
FC1
 10
518.528
 20
58.1074
 30
0.000000
  70
    32
  0
VERTEX
  8
0
  5
FC2
 10
518.528
 20
58.1074
 30
0.000000
  70
    32
  0
VERTEX
  8
0
  5
FC3
 10
518.528
 20
58.1074
 30
0.000000
  70
    32
  0
VERTEX
  8
0
  5
FC4
 10
518.527
 20
58.1074
 30
0.000000
  70
    32
  0
VERTEX
  8
0
  5
FC5
 10
518.527
 20
58.1074
 30
0.000000
  70
    32
  0
VERTEX
  8
0
  5
FC6
 10
518.527
 20
58.1074
 30
0.000000
  70
    32
  0
VERTEX
  8
0
  5
FC7
 10
518.527
 20
58.1074
 30
0.000000
  70
    32
  0
VERTEX
  8
0
  5
FC8
 10
518.526
 20
58.1074
 30
0.000000
  70
    32
  0
VERTEX
  8
0
  5
FC9
 10
518.526
 20
58.1074
 30
0.000000
  70
    32
  0
VERTEX
  8
0
  5
FCA
 10
518.526
 20
58.1074
 30
0.000000
  70
    32
  0
VERTEX
  8
0
  5
FCB
 10
518.525
 20
58.1074
 30
0.000000
  70
    32
  0
VERTEX
  8
0
  5
FCC
 10
518.525
 20
58.1074
 30
0.000000
  70
    32
  0
VERTEX
  8
0
  5
FCD
 10
518.525
 20
58.1074
 30
0.000000
  70
    32
  0
VERTEX
  8
0
  5
FCE
 10
518.524
 20
58.1074
 30
0.000000
  70
    32
  0
VERTEX
  8
0
  5
FCF
 10
518.524
 20
58.1074
 30
0.000000
  70
    32
  0
VERTEX
  8
0
  5
FD0
 10
518.524
 20
58.1074
 30
0.000000
  70
    32
  0
SEQEND
  8
0
  5
FD1
  0
POLYLINE
  8
0
  5
FD2
  62
7
  66
     1
 10
0.000000
 20
0.000000
 30
0.000000
  70
     8
  0
VERTEX
  8
0
  5
FD3
 10
546.895
 20
59.5269
 30
0.000000
  70
    32
  0
VERTEX
  8
0
  5
FD4
 10
546.894
 20
59.5268
 30
0.000000
  70
    32
  0
VERTEX
  8
0
  5
FD5
 10
546.894
 20
59.5267
 30
0.000000
  70
    32
  0
VERTEX
  8
0
  5
FD6
 10
546.893
 20
59.5266
 30
0.000000
  70
    32
  0
VERTEX
  8
0
  5
FD7
 10
546.893
 20
59.5265
 30
0.000000
  70
    32
  0
VERTEX
  8
0
  5
FD8
 10
546.892
 20
59.5265
 30
0.000000
  70
    32
  0
VERTEX
  8
0
  5
FD9
 10
546.892
 20
59.5264
 30
0.000000
  70
    32
  0
VERTEX
  8
0
  5
FDA
 10
546.891
 20
59.5263
 30
0.000000
  70
    32
  0
VERTEX
  8
0
  5
FDB
 10
546.891
 20
59.5262
 30
0.000000
  70
    32
  0
VERTEX
  8
0
  5
FDC
 10
546.890
 20
59.5262
 30
0.000000
  70
    32
  0
VERTEX
  8
0
  5
FDD
 10
546.890
 20
59.5261
 30
0.000000
  70
    32
  0
VERTEX
  8
0
  5
FDE
 10
546.889
 20
59.5260
 30
0.000000
  70
    32
  0
VERTEX
  8
0
  5
FDF
 10
546.888
 20
59.5260
 30
0.000000
  70
    32
  0
VERTEX
  8
0
  5
FE0
 10
546.888
 20
59.5259
 30
0.000000
  70
    32
  0
VERTEX
  8
0
  5
FE1
 10
546.887
 20
59.5258
 30
0.000000
  70
    32
  0
VERTEX
  8
0
  5
FE2
 10
546.887
 20
59.5258
 30
0.000000
  70
    32
  0
VERTEX
  8
0
  5
FE3
 10
546.886
 20
59.5257
 30
0.000000
  70
    32
  0
VERTEX
  8
0
  5
FE4
 10
546.886
 20
59.5256
 30
0.000000
  70
    32
  0
VERTEX
  8
0
  5
FE5
 10
546.885
 20
59.5256
 30
0.000000
  70
    32
  0
VERTEX
  8
0
  5
FE6
 10
546.885
 20
59.5255
 30
0.000000
  70
    32
  0
VERTEX
  8
0
  5
FE7
 10
546.884
 20
59.5255
 30
0.000000
  70
    32
  0
VERTEX
  8
0
  5
FE8
 10
546.884
 20
59.5254
 30
0.000000
  70
    32
  0
VERTEX
  8
0
  5
FE9
 10
546.883
 20
59.5254
 30
0.000000
  70
    32
  0
VERTEX
  8
0
  5
FEA
 10
546.883
 20
59.5253
 30
0.000000
  70
    32
  0
VERTEX
  8
0
  5
FEB
 10
546.882
 20
59.5252
 30
0.000000
  70
    32
  0
VERTEX
  8
0
  5
FEC
 10
546.882
 20
59.5252
 30
0.000000
  70
    32
  0
VERTEX
  8
0
  5
FED
 10
546.881
 20
59.5251
 30
0.000000
  70
    32
  0
VERTEX
  8
0
  5
FEE
 10
546.881
 20
59.5251
 30
0.000000
  70
    32
  0
VERTEX
  8
0
  5
FEF
 10
546.880
 20
59.5250
 30
0.000000
  70
    32
  0
VERTEX
  8
0
  5
FF0
 10
546.879
 20
59.5250
 30
0.000000
  70
    32
  0
VERTEX
  8
0
  5
FF1
 10
546.879
 20
59.5250
 30
0.000000
  70
    32
  0
VERTEX
  8
0
  5
FF2
 10
546.878
 20
59.5249
 30
0.000000
  70
    32
  0
VERTEX
  8
0
  5
FF3
 10
546.878
 20
59.5249
 30
0.000000
  70
    32
  0
VERTEX
  8
0
  5
FF4
 10
546.877
 20
59.5248
 30
0.000000
  70
    32
  0
VERTEX
  8
0
  5
FF5
 10
546.877
 20
59.5248
 30
0.000000
  70
    32
  0
VERTEX
  8
0
  5
FF6
 10
546.876
 20
59.5247
 30
0.000000
  70
    32
  0
VERTEX
  8
0
  5
FF7
 10
546.876
 20
59.5247
 30
0.000000
  70
    32
  0
VERTEX
  8
0
  5
FF8
 10
546.875
 20
59.5247
 30
0.000000
  70
    32
  0
VERTEX
  8
0
  5
FF9
 10
546.875
 20
59.5246
 30
0.000000
  70
    32
  0
VERTEX
  8
0
  5
FFA
 10
546.874
 20
59.5246
 30
0.000000
  70
    32
  0
VERTEX
  8
0
  5
FFB
 10
546.874
 20
59.5246
 30
0.000000
  70
    32
  0
VERTEX
  8
0
  5
FFC
 10
546.873
 20
59.5245
 30
0.000000
  70
    32
  0
VERTEX
  8
0
  5
FFD
 10
546.873
 20
59.5245
 30
0.000000
  70
    32
  0
VERTEX
  8
0
  5
FFE
 10
546.872
 20
59.5245
 30
0.000000
  70
    32
  0
VERTEX
  8
0
  5
FFF
 10
546.872
 20
59.5244
 30
0.000000
  70
    32
  0
VERTEX
  8
0
  5
1000
 10
546.871
 20
59.5244
 30
0.000000
  70
    32
  0
VERTEX
  8
0
  5
1001
 10
546.870
 20
59.5244
 30
0.000000
  70
    32
  0
VERTEX
  8
0
  5
1002
 10
546.870
 20
59.5243
 30
0.000000
  70
    32
  0
VERTEX
  8
0
  5
1003
 10
546.869
 20
59.5243
 30
0.000000
  70
    32
  0
VERTEX
  8
0
  5
1004
 10
546.869
 20
59.5243
 30
0.000000
  70
    32
  0
VERTEX
  8
0
  5
1005
 10
546.868
 20
59.5243
 30
0.000000
  70
    32
  0
VERTEX
  8
0
  5
1006
 10
546.868
 20
59.5242
 30
0.000000
  70
    32
  0
VERTEX
  8
0
  5
1007
 10
546.867
 20
59.5242
 30
0.000000
  70
    32
  0
VERTEX
  8
0
  5
1008
 10
546.867
 20
59.5242
 30
0.000000
  70
    32
  0
VERTEX
  8
0
  5
1009
 10
546.866
 20
59.5242
 30
0.000000
  70
    32
  0
VERTEX
  8
0
  5
100A
 10
546.866
 20
59.5241
 30
0.000000
  70
    32
  0
VERTEX
  8
0
  5
100B
 10
546.865
 20
59.5241
 30
0.000000
  70
    32
  0
VERTEX
  8
0
  5
100C
 10
546.865
 20
59.5241
 30
0.000000
  70
    32
  0
VERTEX
  8
0
  5
100D
 10
546.864
 20
59.5241
 30
0.000000
  70
    32
  0
VERTEX
  8
0
  5
100E
 10
546.864
 20
59.5241
 30
0.000000
  70
    32
  0
VERTEX
  8
0
  5
100F
 10
546.863
 20
59.5240
 30
0.000000
  70
    32
  0
VERTEX
  8
0
  5
1010
 10
546.862
 20
59.5240
 30
0.000000
  70
    32
  0
VERTEX
  8
0
  5
1011
 10
546.862
 20
59.5240
 30
0.000000
  70
    32
  0
VERTEX
  8
0
  5
1012
 10
546.861
 20
59.5240
 30
0.000000
  70
    32
  0
VERTEX
  8
0
  5
1013
 10
546.861
 20
59.5240
 30
0.000000
  70
    32
  0
VERTEX
  8
0
  5
1014
 10
546.860
 20
59.5240
 30
0.000000
  70
    32
  0
VERTEX
  8
0
  5
1015
 10
546.860
 20
59.5240
 30
0.000000
  70
    32
  0
VERTEX
  8
0
  5
1016
 10
546.859
 20
59.5240
 30
0.000000
  70
    32
  0
VERTEX
  8
0
  5
1017
 10
546.859
 20
59.5239
 30
0.000000
  70
    32
  0
VERTEX
  8
0
  5
1018
 10
546.858
 20
59.5239
 30
0.000000
  70
    32
  0
VERTEX
  8
0
  5
1019
 10
546.858
 20
59.5239
 30
0.000000
  70
    32
  0
VERTEX
  8
0
  5
101A
 10
546.857
 20
59.5239
 30
0.000000
  70
    32
  0
VERTEX
  8
0
  5
101B
 10
546.857
 20
59.5239
 30
0.000000
  70
    32
  0
VERTEX
  8
0
  5
101C
 10
546.856
 20
59.5239
 30
0.000000
  70
    32
  0
VERTEX
  8
0
  5
101D
 10
546.856
 20
59.5239
 30
0.000000
  70
    32
  0
VERTEX
  8
0
  5
101E
 10
546.855
 20
59.5239
 30
0.000000
  70
    32
  0
VERTEX
  8
0
  5
101F
 10
546.854
 20
59.5239
 30
0.000000
  70
    32
  0
VERTEX
  8
0
  5
1020
 10
546.854
 20
59.5239
 30
0.000000
  70
    32
  0
VERTEX
  8
0
  5
1021
 10
546.853
 20
59.5239
 30
0.000000
  70
    32
  0
VERTEX
  8
0
  5
1022
 10
546.853
 20
59.5239
 30
0.000000
  70
    32
  0
VERTEX
  8
0
  5
1023
 10
546.852
 20
59.5239
 30
0.000000
  70
    32
  0
VERTEX
  8
0
  5
1024
 10
546.852
 20
59.5239
 30
0.000000
  70
    32
  0
VERTEX
  8
0
  5
1025
 10
546.851
 20
59.5239
 30
0.000000
  70
    32
  0
VERTEX
  8
0
  5
1026
 10
546.851
 20
59.5239
 30
0.000000
  70
    32
  0
VERTEX
  8
0
  5
1027
 10
546.850
 20
59.5239
 30
0.000000
  70
    32
  0
VERTEX
  8
0
  5
1028
 10
546.850
 20
59.5239
 30
0.000000
  70
    32
  0
VERTEX
  8
0
  5
1029
 10
546.849
 20
59.5239
 30
0.000000
  70
    32
  0
VERTEX
  8
0
  5
102A
 10
546.849
 20
59.5239
 30
0.000000
  70
    32
  0
VERTEX
  8
0
  5
102B
 10
546.848
 20
59.5239
 30
0.000000
  70
    32
  0
VERTEX
  8
0
  5
102C
 10
546.848
 20
59.5239
 30
0.000000
  70
    32
  0
VERTEX
  8
0
  5
102D
 10
546.847
 20
59.5239
 30
0.000000
  70
    32
  0
VERTEX
  8
0
  5
102E
 10
546.846
 20
59.5239
 30
0.000000
  70
    32
  0
VERTEX
  8
0
  5
102F
 10
546.846
 20
59.5239
 30
0.000000
  70
    32
  0
VERTEX
  8
0
  5
1030
 10
546.845
 20
59.5239
 30
0.000000
  70
    32
  0
VERTEX
  8
0
  5
1031
 10
546.845
 20
59.5239
 30
0.000000
  70
    32
  0
VERTEX
  8
0
  5
1032
 10
546.844
 20
59.5239
 30
0.000000
  70
    32
  0
VERTEX
  8
0
  5
1033
 10
546.844
 20
59.5239
 30
0.000000
  70
    32
  0
VERTEX
  8
0
  5
1034
 10
546.843
 20
59.5240
 30
0.000000
  70
    32
  0
VERTEX
  8
0
  5
1035
 10
546.843
 20
59.5240
 30
0.000000
  70
    32
  0
VERTEX
  8
0
  5
1036
 10
546.842
 20
59.5240
 30
0.000000
  70
    32
  0
VERTEX
  8
0
  5
1037
 10
546.842
 20
59.5240
 30
0.000000
  70
    32
  0
VERTEX
  8
0
  5
1038
 10
546.841
 20
59.5240
 30
0.000000
  70
    32
  0
VERTEX
  8
0
  5
1039
 10
546.841
 20
59.5240
 30
0.000000
  70
    32
  0
VERTEX
  8
0
  5
103A
 10
546.840
 20
59.5240
 30
0.000000
  70
    32
  0
VERTEX
  8
0
  5
103B
 10
546.840
 20
59.5240
 30
0.000000
  70
    32
  0
VERTEX
  8
0
  5
103C
 10
546.839
 20
59.5240
 30
0.000000
  70
    32
  0
VERTEX
  8
0
  5
103D
 10
546.838
 20
59.5241
 30
0.000000
  70
    32
  0
VERTEX
  8
0
  5
103E
 10
546.838
 20
59.5241
 30
0.000000
  70
    32
  0
VERTEX
  8
0
  5
103F
 10
546.837
 20
59.5241
 30
0.000000
  70
    32
  0
VERTEX
  8
0
  5
1040
 10
546.837
 20
59.5241
 30
0.000000
  70
    32
  0
VERTEX
  8
0
  5
1041
 10
546.836
 20
59.5241
 30
0.000000
  70
    32
  0
VERTEX
  8
0
  5
1042
 10
546.836
 20
59.5241
 30
0.000000
  70
    32
  0
VERTEX
  8
0
  5
1043
 10
546.835
 20
59.5242
 30
0.000000
  70
    32
  0
VERTEX
  8
0
  5
1044
 10
546.835
 20
59.5242
 30
0.000000
  70
    32
  0
VERTEX
  8
0
  5
1045
 10
546.834
 20
59.5242
 30
0.000000
  70
    32
  0
VERTEX
  8
0
  5
1046
 10
546.834
 20
59.5242
 30
0.000000
  70
    32
  0
VERTEX
  8
0
  5
1047
 10
546.833
 20
59.5242
 30
0.000000
  70
    32
  0
VERTEX
  8
0
  5
1048
 10
546.833
 20
59.5242
 30
0.000000
  70
    32
  0
VERTEX
  8
0
  5
1049
 10
546.832
 20
59.5243
 30
0.000000
  70
    32
  0
VERTEX
  8
0
  5
104A
 10
546.832
 20
59.5243
 30
0.000000
  70
    32
  0
VERTEX
  8
0
  5
104B
 10
546.831
 20
59.5243
 30
0.000000
  70
    32
  0
VERTEX
  8
0
  5
104C
 10
546.831
 20
59.5243
 30
0.000000
  70
    32
  0
VERTEX
  8
0
  5
104D
 10
546.830
 20
59.5243
 30
0.000000
  70
    32
  0
VERTEX
  8
0
  5
104E
 10
546.829
 20
59.5244
 30
0.000000
  70
    32
  0
VERTEX
  8
0
  5
104F
 10
546.829
 20
59.5244
 30
0.000000
  70
    32
  0
VERTEX
  8
0
  5
1050
 10
546.828
 20
59.5244
 30
0.000000
  70
    32
  0
VERTEX
  8
0
  5
1051
 10
546.828
 20
59.5244
 30
0.000000
  70
    32
  0
VERTEX
  8
0
  5
1052
 10
546.827
 20
59.5244
 30
0.000000
  70
    32
  0
SEQEND
  8
0
  5
1053
  0
POLYLINE
  8
0
  5
1054
  62
7
  66
     1
 10
0.000000
 20
0.000000
 30
0.000000
  70
     8
  0
VERTEX
  8
0
  5
1055
 10
234.796
 20
40.8014
 30
0.000000
  70
    32
  0
VERTEX
  8
0
  5
1056
 10
234.794
 20
40.8013
 30
0.000000
  70
    32
  0
VERTEX
  8
0
  5
1057
 10
234.791
 20
40.8012
 30
0.000000
  70
    32
  0
VERTEX
  8
0
  5
1058
 10
234.789
 20
40.8011
 30
0.000000
  70
    32
  0
VERTEX
  8
0
  5
1059
 10
234.786
 20
40.8010
 30
0.000000
  70
    32
  0
VERTEX
  8
0
  5
105A
 10
234.784
 20
40.8009
 30
0.000000
  70
    32
  0
VERTEX
  8
0
  5
105B
 10
234.782
 20
40.8009
 30
0.000000
  70
    32
  0
VERTEX
  8
0
  5
105C
 10
234.779
 20
40.8008
 30
0.000000
  70
    32
  0
VERTEX
  8
0
  5
105D
 10
234.777
 20
40.8007
 30
0.000000
  70
    32
  0
VERTEX
  8
0
  5
105E
 10
234.774
 20
40.8007
 30
0.000000
  70
    32
  0
VERTEX
  8
0
  5
105F
 10
234.772
 20
40.8006
 30
0.000000
  70
    32
  0
VERTEX
  8
0
  5
1060
 10
234.770
 20
40.8005
 30
0.000000
  70
    32
  0
VERTEX
  8
0
  5
1061
 10
234.767
 20
40.8005
 30
0.000000
  70
    32
  0
VERTEX
  8
0
  5
1062
 10
234.765
 20
40.8004
 30
0.000000
  70
    32
  0
VERTEX
  8
0
  5
1063
 10
234.762
 20
40.8004
 30
0.000000
  70
    32
  0
VERTEX
  8
0
  5
1064
 10
234.760
 20
40.8004
 30
0.000000
  70
    32
  0
VERTEX
  8
0
  5
1065
 10
234.758
 20
40.8003
 30
0.000000
  70
    32
  0
VERTEX
  8
0
  5
1066
 10
234.755
 20
40.8003
 30
0.000000
  70
    32
  0
VERTEX
  8
0
  5
1067
 10
234.753
 20
40.8003
 30
0.000000
  70
    32
  0
VERTEX
  8
0
  5
1068
 10
234.750
 20
40.8003
 30
0.000000
  70
    32
  0
VERTEX
  8
0
  5
1069
 10
234.748
 20
40.8002
 30
0.000000
  70
    32
  0
VERTEX
  8
0
  5
106A
 10
234.746
 20
40.8002
 30
0.000000
  70
    32
  0
VERTEX
  8
0
  5
106B
 10
234.743
 20
40.8002
 30
0.000000
  70
    32
  0
VERTEX
  8
0
  5
106C
 10
234.741
 20
40.8002
 30
0.000000
  70
    32
  0
VERTEX
  8
0
  5
106D
 10
234.738
 20
40.8002
 30
0.000000
  70
    32
  0
VERTEX
  8
0
  5
106E
 10
234.736
 20
40.8002
 30
0.000000
  70
    32
  0
VERTEX
  8
0
  5
106F
 10
234.734
 20
40.8002
 30
0.000000
  70
    32
  0
VERTEX
  8
0
  5
1070
 10
234.731
 20
40.8002
 30
0.000000
  70
    32
  0
VERTEX
  8
0
  5
1071
 10
234.729
 20
40.8002
 30
0.000000
  70
    32
  0
VERTEX
  8
0
  5
1072
 10
234.726
 20
40.8002
 30
0.000000
  70
    32
  0
VERTEX
  8
0
  5
1073
 10
234.724
 20
40.8002
 30
0.000000
  70
    32
  0
VERTEX
  8
0
  5
1074
 10
234.722
 20
40.8002
 30
0.000000
  70
    32
  0
VERTEX
  8
0
  5
1075
 10
234.719
 20
40.8002
 30
0.000000
  70
    32
  0
VERTEX
  8
0
  5
1076
 10
234.717
 20
40.8003
 30
0.000000
  70
    32
  0
VERTEX
  8
0
  5
1077
 10
234.714
 20
40.8003
 30
0.000000
  70
    32
  0
VERTEX
  8
0
  5
1078
 10
234.712
 20
40.8003
 30
0.000000
  70
    32
  0
VERTEX
  8
0
  5
1079
 10
234.710
 20
40.8003
 30
0.000000
  70
    32
  0
VERTEX
  8
0
  5
107A
 10
234.707
 20
40.8004
 30
0.000000
  70
    32
  0
VERTEX
  8
0
  5
107B
 10
234.705
 20
40.8004
 30
0.000000
  70
    32
  0
VERTEX
  8
0
  5
107C
 10
234.702
 20
40.8004
 30
0.000000
  70
    32
  0
VERTEX
  8
0
  5
107D
 10
234.700
 20
40.8005
 30
0.000000
  70
    32
  0
VERTEX
  8
0
  5
107E
 10
234.698
 20
40.8005
 30
0.000000
  70
    32
  0
VERTEX
  8
0
  5
107F
 10
234.695
 20
40.8006
 30
0.000000
  70
    32
  0
VERTEX
  8
0
  5
1080
 10
234.693
 20
40.8006
 30
0.000000
  70
    32
  0
VERTEX
  8
0
  5
1081
 10
234.690
 20
40.8006
 30
0.000000
  70
    32
  0
VERTEX
  8
0
  5
1082
 10
234.688
 20
40.8007
 30
0.000000
  70
    32
  0
VERTEX
  8
0
  5
1083
 10
234.686
 20
40.8007
 30
0.000000
  70
    32
  0
VERTEX
  8
0
  5
1084
 10
234.683
 20
40.8008
 30
0.000000
  70
    32
  0
VERTEX
  8
0
  5
1085
 10
234.681
 20
40.8008
 30
0.000000
  70
    32
  0
VERTEX
  8
0
  5
1086
 10
234.678
 20
40.8009
 30
0.000000
  70
    32
  0
VERTEX
  8
0
  5
1087
 10
234.676
 20
40.8009
 30
0.000000
  70
    32
  0
VERTEX
  8
0
  5
1088
 10
234.674
 20
40.8010
 30
0.000000
  70
    32
  0
VERTEX
  8
0
  5
1089
 10
234.671
 20
40.8011
 30
0.000000
  70
    32
  0
VERTEX
  8
0
  5
108A
 10
234.669
 20
40.8011
 30
0.000000
  70
    32
  0
VERTEX
  8
0
  5
108B
 10
234.666
 20
40.8012
 30
0.000000
  70
    32
  0
VERTEX
  8
0
  5
108C
 10
234.664
 20
40.8012
 30
0.000000
  70
    32
  0
VERTEX
  8
0
  5
108D
 10
234.662
 20
40.8013
 30
0.000000
  70
    32
  0
VERTEX
  8
0
  5
108E
 10
234.659
 20
40.8014
 30
0.000000
  70
    32
  0
VERTEX
  8
0
  5
108F
 10
234.657
 20
40.8014
 30
0.000000
  70
    32
  0
VERTEX
  8
0
  5
1090
 10
234.654
 20
40.8015
 30
0.000000
  70
    32
  0
VERTEX
  8
0
  5
1091
 10
234.652
 20
40.8016
 30
0.000000
  70
    32
  0
VERTEX
  8
0
  5
1092
 10
234.650
 20
40.8016
 30
0.000000
  70
    32
  0
VERTEX
  8
0
  5
1093
 10
234.647
 20
40.8017
 30
0.000000
  70
    32
  0
VERTEX
  8
0
  5
1094
 10
234.645
 20
40.8018
 30
0.000000
  70
    32
  0
VERTEX
  8
0
  5
1095
 10
234.642
 20
40.8019
 30
0.000000
  70
    32
  0
VERTEX
  8
0
  5
1096
 10
234.640
 20
40.8019
 30
0.000000
  70
    32
  0
VERTEX
  8
0
  5
1097
 10
234.637
 20
40.8020
 30
0.000000
  70
    32
  0
VERTEX
  8
0
  5
1098
 10
234.635
 20
40.8021
 30
0.000000
  70
    32
  0
VERTEX
  8
0
  5
1099
 10
234.633
 20
40.8022
 30
0.000000
  70
    32
  0
VERTEX
  8
0
  5
109A
 10
234.630
 20
40.8022
 30
0.000000
  70
    32
  0
VERTEX
  8
0
  5
109B
 10
234.628
 20
40.8023
 30
0.000000
  70
    32
  0
VERTEX
  8
0
  5
109C
 10
234.625
 20
40.8024
 30
0.000000
  70
    32
  0
VERTEX
  8
0
  5
109D
 10
234.623
 20
40.8024
 30
0.000000
  70
    32
  0
VERTEX
  8
0
  5
109E
 10
234.621
 20
40.8025
 30
0.000000
  70
    32
  0
VERTEX
  8
0
  5
109F
 10
234.618
 20
40.8026
 30
0.000000
  70
    32
  0
VERTEX
  8
0
  5
10A0
 10
234.616
 20
40.8027
 30
0.000000
  70
    32
  0
VERTEX
  8
0
  5
10A1
 10
234.613
 20
40.8028
 30
0.000000
  70
    32
  0
VERTEX
  8
0
  5
10A2
 10
234.611
 20
40.8028
 30
0.000000
  70
    32
  0
VERTEX
  8
0
  5
10A3
 10
234.609
 20
40.8029
 30
0.000000
  70
    32
  0
VERTEX
  8
0
  5
10A4
 10
234.606
 20
40.8030
 30
0.000000
  70
    32
  0
VERTEX
  8
0
  5
10A5
 10
234.604
 20
40.8030
 30
0.000000
  70
    32
  0
VERTEX
  8
0
  5
10A6
 10
234.601
 20
40.8031
 30
0.000000
  70
    32
  0
VERTEX
  8
0
  5
10A7
 10
234.599
 20
40.8032
 30
0.000000
  70
    32
  0
VERTEX
  8
0
  5
10A8
 10
234.597
 20
40.8033
 30
0.000000
  70
    32
  0
VERTEX
  8
0
  5
10A9
 10
234.594
 20
40.8033
 30
0.000000
  70
    32
  0
VERTEX
  8
0
  5
10AA
 10
234.592
 20
40.8034
 30
0.000000
  70
    32
  0
VERTEX
  8
0
  5
10AB
 10
234.589
 20
40.8035
 30
0.000000
  70
    32
  0
VERTEX
  8
0
  5
10AC
 10
234.587
 20
40.8036
 30
0.000000
  70
    32
  0
VERTEX
  8
0
  5
10AD
 10
234.585
 20
40.8036
 30
0.000000
  70
    32
  0
VERTEX
  8
0
  5
10AE
 10
234.582
 20
40.8037
 30
0.000000
  70
    32
  0
VERTEX
  8
0
  5
10AF
 10
234.580
 20
40.8038
 30
0.000000
  70
    32
  0
VERTEX
  8
0
  5
10B0
 10
234.577
 20
40.8038
 30
0.000000
  70
    32
  0
VERTEX
  8
0
  5
10B1
 10
234.575
 20
40.8039
 30
0.000000
  70
    32
  0
VERTEX
  8
0
  5
10B2
 10
234.573
 20
40.8040
 30
0.000000
  70
    32
  0
VERTEX
  8
0
  5
10B3
 10
234.570
 20
40.8040
 30
0.000000
  70
    32
  0
VERTEX
  8
0
  5
10B4
 10
234.568
 20
40.8041
 30
0.000000
  70
    32
  0
VERTEX
  8
0
  5
10B5
 10
234.565
 20
40.8042
 30
0.000000
  70
    32
  0
VERTEX
  8
0
  5
10B6
 10
234.563
 20
40.8042
 30
0.000000
  70
    32
  0
VERTEX
  8
0
  5
10B7
 10
234.561
 20
40.8043
 30
0.000000
  70
    32
  0
VERTEX
  8
0
  5
10B8
 10
234.558
 20
40.8043
 30
0.000000
  70
    32
  0
VERTEX
  8
0
  5
10B9
 10
234.556
 20
40.8044
 30
0.000000
  70
    32
  0
VERTEX
  8
0
  5
10BA
 10
234.553
 20
40.8044
 30
0.000000
  70
    32
  0
VERTEX
  8
0
  5
10BB
 10
234.551
 20
40.8045
 30
0.000000
  70
    32
  0
VERTEX
  8
0
  5
10BC
 10
234.549
 20
40.8045
 30
0.000000
  70
    32
  0
VERTEX
  8
0
  5
10BD
 10
234.546
 20
40.8046
 30
0.000000
  70
    32
  0
VERTEX
  8
0
  5
10BE
 10
234.544
 20
40.8046
 30
0.000000
  70
    32
  0
VERTEX
  8
0
  5
10BF
 10
234.541
 20
40.8047
 30
0.000000
  70
    32
  0
VERTEX
  8
0
  5
10C0
 10
234.539
 20
40.8047
 30
0.000000
  70
    32
  0
VERTEX
  8
0
  5
10C1
 10
234.537
 20
40.8048
 30
0.000000
  70
    32
  0
VERTEX
  8
0
  5
10C2
 10
234.534
 20
40.8048
 30
0.000000
  70
    32
  0
VERTEX
  8
0
  5
10C3
 10
234.532
 20
40.8048
 30
0.000000
  70
    32
  0
VERTEX
  8
0
  5
10C4
 10
234.529
 20
40.8049
 30
0.000000
  70
    32
  0
VERTEX
  8
0
  5
10C5
 10
234.527
 20
40.8049
 30
0.000000
  70
    32
  0
VERTEX
  8
0
  5
10C6
 10
234.525
 20
40.8049
 30
0.000000
  70
    32
  0
VERTEX
  8
0
  5
10C7
 10
234.522
 20
40.8050
 30
0.000000
  70
    32
  0
VERTEX
  8
0
  5
10C8
 10
234.520
 20
40.8050
 30
0.000000
  70
    32
  0
VERTEX
  8
0
  5
10C9
 10
234.517
 20
40.8050
 30
0.000000
  70
    32
  0
VERTEX
  8
0
  5
10CA
 10
234.515
 20
40.8050
 30
0.000000
  70
    32
  0
VERTEX
  8
0
  5
10CB
 10
234.513
 20
40.8051
 30
0.000000
  70
    32
  0
VERTEX
  8
0
  5
10CC
 10
234.510
 20
40.8051
 30
0.000000
  70
    32
  0
VERTEX
  8
0
  5
10CD
 10
234.508
 20
40.8051
 30
0.000000
  70
    32
  0
VERTEX
  8
0
  5
10CE
 10
234.505
 20
40.8051
 30
0.000000
  70
    32
  0
VERTEX
  8
0
  5
10CF
 10
234.503
 20
40.8051
 30
0.000000
  70
    32
  0
VERTEX
  8
0
  5
10D0
 10
234.501
 20
40.8051
 30
0.000000
  70
    32
  0
VERTEX
  8
0
  5
10D1
 10
234.498
 20
40.8051
 30
0.000000
  70
    32
  0
VERTEX
  8
0
  5
10D2
 10
234.496
 20
40.8051
 30
0.000000
  70
    32
  0
VERTEX
  8
0
  5
10D3
 10
234.493
 20
40.8051
 30
0.000000
  70
    32
  0
VERTEX
  8
0
  5
10D4
 10
234.491
 20
40.8051
 30
0.000000
  70
    32
  0
SEQEND
  8
0
  5
10D5
  0
POLYLINE
  8
0
  5
10D6
  62
7
  66
     1
 10
0.000000
 20
0.000000
 30
0.000000
  70
     8
  0
VERTEX
  8
0
  5
10D7
 10
49.8330
 20
38.5897
 30
0.000000
  70
    32
  0
VERTEX
  8
0
  5
10D8
 10
49.8401
 20
38.5895
 30
0.000000
  70
    32
  0
VERTEX
  8
0
  5
10D9
 10
49.8472
 20
38.5892
 30
0.000000
  70
    32
  0
VERTEX
  8
0
  5
10DA
 10
49.8543
 20
38.5889
 30
0.000000
  70
    32
  0
VERTEX
  8
0
  5
10DB
 10
49.8615
 20
38.5886
 30
0.000000
  70
    32
  0
VERTEX
  8
0
  5
10DC
 10
49.8686
 20
38.5883
 30
0.000000
  70
    32
  0
VERTEX
  8
0
  5
10DD
 10
49.8757
 20
38.5880
 30
0.000000
  70
    32
  0
VERTEX
  8
0
  5
10DE
 10
49.8828
 20
38.5876
 30
0.000000
  70
    32
  0
VERTEX
  8
0
  5
10DF
 10
49.8899
 20
38.5872
 30
0.000000
  70
    32
  0
VERTEX
  8
0
  5
10E0
 10
49.8970
 20
38.5869
 30
0.000000
  70
    32
  0
VERTEX
  8
0
  5
10E1
 10
49.9041
 20
38.5864
 30
0.000000
  70
    32
  0
VERTEX
  8
0
  5
10E2
 10
49.9112
 20
38.5860
 30
0.000000
  70
    32
  0
VERTEX
  8
0
  5
10E3
 10
49.9183
 20
38.5856
 30
0.000000
  70
    32
  0
VERTEX
  8
0
  5
10E4
 10
49.9253
 20
38.5851
 30
0.000000
  70
    32
  0
VERTEX
  8
0
  5
10E5
 10
49.9324
 20
38.5847
 30
0.000000
  70
    32
  0
VERTEX
  8
0
  5
10E6
 10
49.9395
 20
38.5842
 30
0.000000
  70
    32
  0
VERTEX
  8
0
  5
10E7
 10
49.9466
 20
38.5837
 30
0.000000
  70
    32
  0
VERTEX
  8
0
  5
10E8
 10
49.9537
 20
38.5831
 30
0.000000
  70
    32
  0
VERTEX
  8
0
  5
10E9
 10
49.9608
 20
38.5826
 30
0.000000
  70
    32
  0
VERTEX
  8
0
  5
10EA
 10
49.9679
 20
38.5820
 30
0.000000
  70
    32
  0
VERTEX
  8
0
  5
10EB
 10
49.9750
 20
38.5815
 30
0.000000
  70
    32
  0
VERTEX
  8
0
  5
10EC
 10
49.9821
 20
38.5809
 30
0.000000
  70
    32
  0
VERTEX
  8
0
  5
10ED
 10
49.9892
 20
38.5803
 30
0.000000
  70
    32
  0
VERTEX
  8
0
  5
10EE
 10
49.9963
 20
38.5797
 30
0.000000
  70
    32
  0
VERTEX
  8
0
  5
10EF
 10
50.0033
 20
38.5790
 30
0.000000
  70
    32
  0
VERTEX
  8
0
  5
10F0
 10
50.0104
 20
38.5784
 30
0.000000
  70
    32
  0
VERTEX
  8
0
  5
10F1
 10
50.0175
 20
38.5777
 30
0.000000
  70
    32
  0
VERTEX
  8
0
  5
10F2
 10
50.0246
 20
38.5770
 30
0.000000
  70
    32
  0
VERTEX
  8
0
  5
10F3
 10
50.0317
 20
38.5763
 30
0.000000
  70
    32
  0
VERTEX
  8
0
  5
10F4
 10
50.0388
 20
38.5756
 30
0.000000
  70
    32
  0
VERTEX
  8
0
  5
10F5
 10
50.0458
 20
38.5748
 30
0.000000
  70
    32
  0
VERTEX
  8
0
  5
10F6
 10
50.0529
 20
38.5741
 30
0.000000
  70
    32
  0
VERTEX
  8
0
  5
10F7
 10
50.0600
 20
38.5733
 30
0.000000
  70
    32
  0
VERTEX
  8
0
  5
10F8
 10
50.0670
 20
38.5725
 30
0.000000
  70
    32
  0
VERTEX
  8
0
  5
10F9
 10
50.0741
 20
38.5717
 30
0.000000
  70
    32
  0
VERTEX
  8
0
  5
10FA
 10
50.0812
 20
38.5709
 30
0.000000
  70
    32
  0
VERTEX
  8
0
  5
10FB
 10
50.0882
 20
38.5700
 30
0.000000
  70
    32
  0
VERTEX
  8
0
  5
10FC
 10
50.0953
 20
38.5692
 30
0.000000
  70
    32
  0
VERTEX
  8
0
  5
10FD
 10
50.1024
 20
38.5683
 30
0.000000
  70
    32
  0
VERTEX
  8
0
  5
10FE
 10
50.1094
 20
38.5674
 30
0.000000
  70
    32
  0
VERTEX
  8
0
  5
10FF
 10
50.1165
 20
38.5665
 30
0.000000
  70
    32
  0
VERTEX
  8
0
  5
1100
 10
50.1235
 20
38.5656
 30
0.000000
  70
    32
  0
VERTEX
  8
0
  5
1101
 10
50.1306
 20
38.5646
 30
0.000000
  70
    32
  0
VERTEX
  8
0
  5
1102
 10
50.1376
 20
38.5637
 30
0.000000
  70
    32
  0
VERTEX
  8
0
  5
1103
 10
50.1447
 20
38.5627
 30
0.000000
  70
    32
  0
VERTEX
  8
0
  5
1104
 10
50.1517
 20
38.5617
 30
0.000000
  70
    32
  0
VERTEX
  8
0
  5
1105
 10
50.1588
 20
38.5607
 30
0.000000
  70
    32
  0
VERTEX
  8
0
  5
1106
 10
50.1658
 20
38.5597
 30
0.000000
  70
    32
  0
VERTEX
  8
0
  5
1107
 10
50.1729
 20
38.5586
 30
0.000000
  70
    32
  0
VERTEX
  8
0
  5
1108
 10
50.1799
 20
38.5576
 30
0.000000
  70
    32
  0
VERTEX
  8
0
  5
1109
 10
50.1869
 20
38.5565
 30
0.000000
  70
    32
  0
VERTEX
  8
0
  5
110A
 10
50.1940
 20
38.5554
 30
0.000000
  70
    32
  0
VERTEX
  8
0
  5
110B
 10
50.2010
 20
38.5543
 30
0.000000
  70
    32
  0
VERTEX
  8
0
  5
110C
 10
50.2080
 20
38.5532
 30
0.000000
  70
    32
  0
VERTEX
  8
0
  5
110D
 10
50.2150
 20
38.5520
 30
0.000000
  70
    32
  0
VERTEX
  8
0
  5
110E
 10
50.2221
 20
38.5509
 30
0.000000
  70
    32
  0
VERTEX
  8
0
  5
110F
 10
50.2291
 20
38.5497
 30
0.000000
  70
    32
  0
VERTEX
  8
0
  5
1110
 10
50.2361
 20
38.5485
 30
0.000000
  70
    32
  0
VERTEX
  8
0
  5
1111
 10
50.2431
 20
38.5473
 30
0.000000
  70
    32
  0
VERTEX
  8
0
  5
1112
 10
50.2501
 20
38.5461
 30
0.000000
  70
    32
  0
VERTEX
  8
0
  5
1113
 10
50.2571
 20
38.5448
 30
0.000000
  70
    32
  0
VERTEX
  8
0
  5
1114
 10
50.2641
 20
38.5436
 30
0.000000
  70
    32
  0
VERTEX
  8
0
  5
1115
 10
50.2711
 20
38.5423
 30
0.000000
  70
    32
  0
VERTEX
  8
0
  5
1116
 10
50.2781
 20
38.5410
 30
0.000000
  70
    32
  0
VERTEX
  8
0
  5
1117
 10
50.2851
 20
38.5397
 30
0.000000
  70
    32
  0
VERTEX
  8
0
  5
1118
 10
50.2921
 20
38.5384
 30
0.000000
  70
    32
  0
VERTEX
  8
0
  5
1119
 10
50.2991
 20
38.5370
 30
0.000000
  70
    32
  0
VERTEX
  8
0
  5
111A
 10
50.3061
 20
38.5357
 30
0.000000
  70
    32
  0
VERTEX
  8
0
  5
111B
 10
50.3131
 20
38.5343
 30
0.000000
  70
    32
  0
VERTEX
  8
0
  5
111C
 10
50.3200
 20
38.5329
 30
0.000000
  70
    32
  0
VERTEX
  8
0
  5
111D
 10
50.3270
 20
38.5315
 30
0.000000
  70
    32
  0
VERTEX
  8
0
  5
111E
 10
50.3340
 20
38.5301
 30
0.000000
  70
    32
  0
VERTEX
  8
0
  5
111F
 10
50.3409
 20
38.5286
 30
0.000000
  70
    32
  0
VERTEX
  8
0
  5
1120
 10
50.3479
 20
38.5272
 30
0.000000
  70
    32
  0
VERTEX
  8
0
  5
1121
 10
50.3549
 20
38.5257
 30
0.000000
  70
    32
  0
VERTEX
  8
0
  5
1122
 10
50.3618
 20
38.5242
 30
0.000000
  70
    32
  0
VERTEX
  8
0
  5
1123
 10
50.3688
 20
38.5227
 30
0.000000
  70
    32
  0
VERTEX
  8
0
  5
1124
 10
50.3757
 20
38.5212
 30
0.000000
  70
    32
  0
VERTEX
  8
0
  5
1125
 10
50.3827
 20
38.5196
 30
0.000000
  70
    32
  0
VERTEX
  8
0
  5
1126
 10
50.3896
 20
38.5181
 30
0.000000
  70
    32
  0
VERTEX
  8
0
  5
1127
 10
50.3965
 20
38.5165
 30
0.000000
  70
    32
  0
VERTEX
  8
0
  5
1128
 10
50.4035
 20
38.5149
 30
0.000000
  70
    32
  0
VERTEX
  8
0
  5
1129
 10
50.4104
 20
38.5133
 30
0.000000
  70
    32
  0
VERTEX
  8
0
  5
112A
 10
50.4173
 20
38.5117
 30
0.000000
  70
    32
  0
VERTEX
  8
0
  5
112B
 10
50.4243
 20
38.5100
 30
0.000000
  70
    32
  0
VERTEX
  8
0
  5
112C
 10
50.4312
 20
38.5084
 30
0.000000
  70
    32
  0
VERTEX
  8
0
  5
112D
 10
50.4381
 20
38.5067
 30
0.000000
  70
    32
  0
VERTEX
  8
0
  5
112E
 10
50.4450
 20
38.5050
 30
0.000000
  70
    32
  0
VERTEX
  8
0
  5
112F
 10
50.4519
 20
38.5033
 30
0.000000
  70
    32
  0
VERTEX
  8
0
  5
1130
 10
50.4588
 20
38.5016
 30
0.000000
  70
    32
  0
VERTEX
  8
0
  5
1131
 10
50.4657
 20
38.4999
 30
0.000000
  70
    32
  0
VERTEX
  8
0
  5
1132
 10
50.4726
 20
38.4981
 30
0.000000
  70
    32
  0
VERTEX
  8
0
  5
1133
 10
50.4795
 20
38.4963
 30
0.000000
  70
    32
  0
VERTEX
  8
0
  5
1134
 10
50.4864
 20
38.4946
 30
0.000000
  70
    32
  0
VERTEX
  8
0
  5
1135
 10
50.4933
 20
38.4928
 30
0.000000
  70
    32
  0
VERTEX
  8
0
  5
1136
 10
50.5001
 20
38.4909
 30
0.000000
  70
    32
  0
VERTEX
  8
0
  5
1137
 10
50.5070
 20
38.4891
 30
0.000000
  70
    32
  0
VERTEX
  8
0
  5
1138
 10
50.5139
 20
38.4873
 30
0.000000
  70
    32
  0
VERTEX
  8
0
  5
1139
 10
50.5207
 20
38.4854
 30
0.000000
  70
    32
  0
VERTEX
  8
0
  5
113A
 10
50.5276
 20
38.4835
 30
0.000000
  70
    32
  0
VERTEX
  8
0
  5
113B
 10
50.5345
 20
38.4816
 30
0.000000
  70
    32
  0
VERTEX
  8
0
  5
113C
 10
50.5413
 20
38.4797
 30
0.000000
  70
    32
  0
VERTEX
  8
0
  5
113D
 10
50.5481
 20
38.4778
 30
0.000000
  70
    32
  0
VERTEX
  8
0
  5
113E
 10
50.5550
 20
38.4758
 30
0.000000
  70
    32
  0
VERTEX
  8
0
  5
113F
 10
50.5618
 20
38.4738
 30
0.000000
  70
    32
  0
VERTEX
  8
0
  5
1140
 10
50.5687
 20
38.4719
 30
0.000000
  70
    32
  0
VERTEX
  8
0
  5
1141
 10
50.5755
 20
38.4699
 30
0.000000
  70
    32
  0
VERTEX
  8
0
  5
1142
 10
50.5823
 20
38.4679
 30
0.000000
  70
    32
  0
VERTEX
  8
0
  5
1143
 10
50.5891
 20
38.4658
 30
0.000000
  70
    32
  0
VERTEX
  8
0
  5
1144
 10
50.5959
 20
38.4638
 30
0.000000
  70
    32
  0
VERTEX
  8
0
  5
1145
 10
50.6027
 20
38.4617
 30
0.000000
  70
    32
  0
VERTEX
  8
0
  5
1146
 10
50.6095
 20
38.4596
 30
0.000000
  70
    32
  0
VERTEX
  8
0
  5
1147
 10
50.6163
 20
38.4575
 30
0.000000
  70
    32
  0
VERTEX
  8
0
  5
1148
 10
50.6231
 20
38.4554
 30
0.000000
  70
    32
  0
VERTEX
  8
0
  5
1149
 10
50.6299
 20
38.4533
 30
0.000000
  70
    32
  0
VERTEX
  8
0
  5
114A
 10
50.6367
 20
38.4512
 30
0.000000
  70
    32
  0
VERTEX
  8
0
  5
114B
 10
50.6435
 20
38.4490
 30
0.000000
  70
    32
  0
VERTEX
  8
0
  5
114C
 10
50.6503
 20
38.4468
 30
0.000000
  70
    32
  0
VERTEX
  8
0
  5
114D
 10
50.6570
 20
38.4446
 30
0.000000
  70
    32
  0
VERTEX
  8
0
  5
114E
 10
50.6638
 20
38.4424
 30
0.000000
  70
    32
  0
VERTEX
  8
0
  5
114F
 10
50.6705
 20
38.4402
 30
0.000000
  70
    32
  0
VERTEX
  8
0
  5
1150
 10
50.6773
 20
38.4380
 30
0.000000
  70
    32
  0
VERTEX
  8
0
  5
1151
 10
50.6840
 20
38.4357
 30
0.000000
  70
    32
  0
VERTEX
  8
0
  5
1152
 10
50.6908
 20
38.4334
 30
0.000000
  70
    32
  0
VERTEX
  8
0
  5
1153
 10
50.6975
 20
38.4312
 30
0.000000
  70
    32
  0
VERTEX
  8
0
  5
1154
 10
50.7042
 20
38.4289
 30
0.000000
  70
    32
  0
VERTEX
  8
0
  5
1155
 10
50.7110
 20
38.4265
 30
0.000000
  70
    32
  0
VERTEX
  8
0
  5
1156
 10
50.7177
 20
38.4242
 30
0.000000
  70
    32
  0
VERTEX
  8
0
  5
1157
 10
50.7244
 20
38.4219
 30
0.000000
  70
    32
  0
VERTEX
  8
0
  5
1158
 10
50.7311
 20
38.4195
 30
0.000000
  70
    32
  0
VERTEX
  8
0
  5
1159
 10
50.7378
 20
38.4171
 30
0.000000
  70
    32
  0
VERTEX
  8
0
  5
115A
 10
50.7445
 20
38.4147
 30
0.000000
  70
    32
  0
VERTEX
  8
0
  5
115B
 10
50.7512
 20
38.4123
 30
0.000000
  70
    32
  0
VERTEX
  8
0
  5
115C
 10
50.7579
 20
38.4099
 30
0.000000
  70
    32
  0
VERTEX
  8
0
  5
115D
 10
50.7646
 20
38.4074
 30
0.000000
  70
    32
  0
VERTEX
  8
0
  5
115E
 10
50.7712
 20
38.4050
 30
0.000000
  70
    32
  0
VERTEX
  8
0
  5
115F
 10
50.7779
 20
38.4025
 30
0.000000
  70
    32
  0
VERTEX
  8
0
  5
1160
 10
50.7846
 20
38.4000
 30
0.000000
  70
    32
  0
VERTEX
  8
0
  5
1161
 10
50.7912
 20
38.3975
 30
0.000000
  70
    32
  0
VERTEX
  8
0
  5
1162
 10
50.7979
 20
38.3950
 30
0.000000
  70
    32
  0
VERTEX
  8
0
  5
1163
 10
50.8045
 20
38.3924
 30
0.000000
  70
    32
  0
VERTEX
  8
0
  5
1164
 10
50.8112
 20
38.3899
 30
0.000000
  70
    32
  0
VERTEX
  8
0
  5
1165
 10
50.8178
 20
38.3873
 30
0.000000
  70
    32
  0
VERTEX
  8
0
  5
1166
 10
50.8244
 20
38.3847
 30
0.000000
  70
    32
  0
VERTEX
  8
0
  5
1167
 10
50.8310
 20
38.3821
 30
0.000000
  70
    32
  0
VERTEX
  8
0
  5
1168
 10
50.8377
 20
38.3795
 30
0.000000
  70
    32
  0
VERTEX
  8
0
  5
1169
 10
50.8443
 20
38.3768
 30
0.000000
  70
    32
  0
VERTEX
  8
0
  5
116A
 10
50.8509
 20
38.3742
 30
0.000000
  70
    32
  0
VERTEX
  8
0
  5
116B
 10
50.8575
 20
38.3715
 30
0.000000
  70
    32
  0
VERTEX
  8
0
  5
116C
 10
50.8640
 20
38.3688
 30
0.000000
  70
    32
  0
VERTEX
  8
0
  5
116D
 10
50.8706
 20
38.3661
 30
0.000000
  70
    32
  0
VERTEX
  8
0
  5
116E
 10
50.8772
 20
38.3634
 30
0.000000
  70
    32
  0
VERTEX
  8
0
  5
116F
 10
50.8838
 20
38.3607
 30
0.000000
  70
    32
  0
VERTEX
  8
0
  5
1170
 10
50.8903
 20
38.3580
 30
0.000000
  70
    32
  0
VERTEX
  8
0
  5
1171
 10
50.8969
 20
38.3552
 30
0.000000
  70
    32
  0
VERTEX
  8
0
  5
1172
 10
50.9034
 20
38.3524
 30
0.000000
  70
    32
  0
VERTEX
  8
0
  5
1173
 10
50.9100
 20
38.3496
 30
0.000000
  70
    32
  0
VERTEX
  8
0
  5
1174
 10
50.9165
 20
38.3468
 30
0.000000
  70
    32
  0
VERTEX
  8
0
  5
1175
 10
50.9231
 20
38.3440
 30
0.000000
  70
    32
  0
VERTEX
  8
0
  5
1176
 10
50.9296
 20
38.3412
 30
0.000000
  70
    32
  0
VERTEX
  8
0
  5
1177
 10
50.9361
 20
38.3383
 30
0.000000
  70
    32
  0
VERTEX
  8
0
  5
1178
 10
50.9426
 20
38.3355
 30
0.000000
  70
    32
  0
VERTEX
  8
0
  5
1179
 10
50.9491
 20
38.3326
 30
0.000000
  70
    32
  0
VERTEX
  8
0
  5
117A
 10
50.9556
 20
38.3297
 30
0.000000
  70
    32
  0
VERTEX
  8
0
  5
117B
 10
50.9621
 20
38.3268
 30
0.000000
  70
    32
  0
VERTEX
  8
0
  5
117C
 10
50.9686
 20
38.3238
 30
0.000000
  70
    32
  0
VERTEX
  8
0
  5
117D
 10
50.9751
 20
38.3209
 30
0.000000
  70
    32
  0
VERTEX
  8
0
  5
117E
 10
50.9815
 20
38.3179
 30
0.000000
  70
    32
  0
VERTEX
  8
0
  5
117F
 10
50.9880
 20
38.3149
 30
0.000000
  70
    32
  0
VERTEX
  8
0
  5
1180
 10
50.9944
 20
38.3120
 30
0.000000
  70
    32
  0
VERTEX
  8
0
  5
1181
 10
51.0009
 20
38.3089
 30
0.000000
  70
    32
  0
VERTEX
  8
0
  5
1182
 10
51.0073
 20
38.3059
 30
0.000000
  70
    32
  0
VERTEX
  8
0
  5
1183
 10
51.0138
 20
38.3029
 30
0.000000
  70
    32
  0
VERTEX
  8
0
  5
1184
 10
51.0202
 20
38.2998
 30
0.000000
  70
    32
  0
VERTEX
  8
0
  5
1185
 10
51.0266
 20
38.2968
 30
0.000000
  70
    32
  0
VERTEX
  8
0
  5
1186
 10
51.0330
 20
38.2937
 30
0.000000
  70
    32
  0
VERTEX
  8
0
  5
1187
 10
51.0394
 20
38.2906
 30
0.000000
  70
    32
  0
VERTEX
  8
0
  5
1188
 10
51.0458
 20
38.2875
 30
0.000000
  70
    32
  0
VERTEX
  8
0
  5
1189
 10
51.0522
 20
38.2843
 30
0.000000
  70
    32
  0
VERTEX
  8
0
  5
118A
 10
51.0586
 20
38.2812
 30
0.000000
  70
    32
  0
VERTEX
  8
0
  5
118B
 10
51.0650
 20
38.2780
 30
0.000000
  70
    32
  0
VERTEX
  8
0
  5
118C
 10
51.0713
 20
38.2749
 30
0.000000
  70
    32
  0
VERTEX
  8
0
  5
118D
 10
51.0777
 20
38.2717
 30
0.000000
  70
    32
  0
VERTEX
  8
0
  5
118E
 10
51.0840
 20
38.2685
 30
0.000000
  70
    32
  0
VERTEX
  8
0
  5
118F
 10
51.0904
 20
38.2653
 30
0.000000
  70
    32
  0
VERTEX
  8
0
  5
1190
 10
51.0967
 20
38.2620
 30
0.000000
  70
    32
  0
VERTEX
  8
0
  5
1191
 10
51.1031
 20
38.2588
 30
0.000000
  70
    32
  0
VERTEX
  8
0
  5
1192
 10
51.1094
 20
38.2555
 30
0.000000
  70
    32
  0
VERTEX
  8
0
  5
1193
 10
51.1157
 20
38.2522
 30
0.000000
  70
    32
  0
VERTEX
  8
0
  5
1194
 10
51.1220
 20
38.2489
 30
0.000000
  70
    32
  0
VERTEX
  8
0
  5
1195
 10
51.1283
 20
38.2456
 30
0.000000
  70
    32
  0
VERTEX
  8
0
  5
1196
 10
51.1346
 20
38.2423
 30
0.000000
  70
    32
  0
VERTEX
  8
0
  5
1197
 10
51.1409
 20
38.2390
 30
0.000000
  70
    32
  0
VERTEX
  8
0
  5
1198
 10
51.1471
 20
38.2356
 30
0.000000
  70
    32
  0
VERTEX
  8
0
  5
1199
 10
51.1534
 20
38.2322
 30
0.000000
  70
    32
  0
VERTEX
  8
0
  5
119A
 10
51.1597
 20
38.2289
 30
0.000000
  70
    32
  0
VERTEX
  8
0
  5
119B
 10
51.1659
 20
38.2255
 30
0.000000
  70
    32
  0
VERTEX
  8
0
  5
119C
 10
51.1722
 20
38.2220
 30
0.000000
  70
    32
  0
VERTEX
  8
0
  5
119D
 10
51.1784
 20
38.2186
 30
0.000000
  70
    32
  0
VERTEX
  8
0
  5
119E
 10
51.1846
 20
38.2152
 30
0.000000
  70
    32
  0
VERTEX
  8
0
  5
119F
 10
51.1908
 20
38.2117
 30
0.000000
  70
    32
  0
VERTEX
  8
0
  5
11A0
 10
51.1970
 20
38.2083
 30
0.000000
  70
    32
  0
VERTEX
  8
0
  5
11A1
 10
51.2032
 20
38.2048
 30
0.000000
  70
    32
  0
VERTEX
  8
0
  5
11A2
 10
51.2094
 20
38.2013
 30
0.000000
  70
    32
  0
VERTEX
  8
0
  5
11A3
 10
51.2156
 20
38.1978
 30
0.000000
  70
    32
  0
VERTEX
  8
0
  5
11A4
 10
51.2218
 20
38.1942
 30
0.000000
  70
    32
  0
VERTEX
  8
0
  5
11A5
 10
51.2280
 20
38.1907
 30
0.000000
  70
    32
  0
VERTEX
  8
0
  5
11A6
 10
51.2341
 20
38.1871
 30
0.000000
  70
    32
  0
VERTEX
  8
0
  5
11A7
 10
51.2403
 20
38.1835
 30
0.000000
  70
    32
  0
VERTEX
  8
0
  5
11A8
 10
51.2464
 20
38.1800
 30
0.000000
  70
    32
  0
VERTEX
  8
0
  5
11A9
 10
51.2525
 20
38.1764
 30
0.000000
  70
    32
  0
VERTEX
  8
0
  5
11AA
 10
51.2587
 20
38.1727
 30
0.000000
  70
    32
  0
VERTEX
  8
0
  5
11AB
 10
51.2648
 20
38.1691
 30
0.000000
  70
    32
  0
VERTEX
  8
0
  5
11AC
 10
51.2709
 20
38.1655
 30
0.000000
  70
    32
  0
VERTEX
  8
0
  5
11AD
 10
51.2770
 20
38.1618
 30
0.000000
  70
    32
  0
VERTEX
  8
0
  5
11AE
 10
51.2831
 20
38.1581
 30
0.000000
  70
    32
  0
VERTEX
  8
0
  5
11AF
 10
51.2891
 20
38.1544
 30
0.000000
  70
    32
  0
VERTEX
  8
0
  5
11B0
 10
51.2952
 20
38.1507
 30
0.000000
  70
    32
  0
VERTEX
  8
0
  5
11B1
 10
51.3013
 20
38.1470
 30
0.000000
  70
    32
  0
VERTEX
  8
0
  5
11B2
 10
51.3073
 20
38.1433
 30
0.000000
  70
    32
  0
VERTEX
  8
0
  5
11B3
 10
51.3134
 20
38.1395
 30
0.000000
  70
    32
  0
VERTEX
  8
0
  5
11B4
 10
51.3194
 20
38.1358
 30
0.000000
  70
    32
  0
VERTEX
  8
0
  5
11B5
 10
51.3254
 20
38.1320
 30
0.000000
  70
    32
  0
VERTEX
  8
0
  5
11B6
 10
51.3314
 20
38.1282
 30
0.000000
  70
    32
  0
SEQEND
  8
0
  5
11B7
  0
POLYLINE
  8
0
  5
11B8
  62
7
  66
     1
 10
0.000000
 20
0.000000
 30
0.000000
  70
     8
  0
VERTEX
  8
0
  5
11B9
 10
168.591
 20
38.1068
 30
0.000000
  70
    32
  0
VERTEX
  8
0
  5
11BA
 10
168.591
 20
38.1068
 30
0.000000
  70
    32
  0
VERTEX
  8
0
  5
11BB
 10
168.591
 20
38.1068
 30
0.000000
  70
    32
  0
VERTEX
  8
0
  5
11BC
 10
168.591
 20
38.1068
 30
0.000000
  70
    32
  0
VERTEX
  8
0
  5
11BD
 10
168.591
 20
38.1068
 30
0.000000
  70
    32
  0
VERTEX
  8
0
  5
11BE
 10
168.591
 20
38.1068
 30
0.000000
  70
    32
  0
VERTEX
  8
0
  5
11BF
 10
168.591
 20
38.1068
 30
0.000000
  70
    32
  0
VERTEX
  8
0
  5
11C0
 10
168.591
 20
38.1068
 30
0.000000
  70
    32
  0
VERTEX
  8
0
  5
11C1
 10
168.591
 20
38.1068
 30
0.000000
  70
    32
  0
VERTEX
  8
0
  5
11C2
 10
168.591
 20
38.1068
 30
0.000000
  70
    32
  0
VERTEX
  8
0
  5
11C3
 10
168.590
 20
38.1068
 30
0.000000
  70
    32
  0
VERTEX
  8
0
  5
11C4
 10
168.590
 20
38.1068
 30
0.000000
  70
    32
  0
VERTEX
  8
0
  5
11C5
 10
168.590
 20
38.1068
 30
0.000000
  70
    32
  0
VERTEX
  8
0
  5
11C6
 10
168.590
 20
38.1068
 30
0.000000
  70
    32
  0
VERTEX
  8
0
  5
11C7
 10
168.590
 20
38.1068
 30
0.000000
  70
    32
  0
VERTEX
  8
0
  5
11C8
 10
168.590
 20
38.1068
 30
0.000000
  70
    32
  0
VERTEX
  8
0
  5
11C9
 10
168.590
 20
38.1068
 30
0.000000
  70
    32
  0
VERTEX
  8
0
  5
11CA
 10
168.590
 20
38.1068
 30
0.000000
  70
    32
  0
VERTEX
  8
0
  5
11CB
 10
168.590
 20
38.1068
 30
0.000000
  70
    32
  0
VERTEX
  8
0
  5
11CC
 10
168.590
 20
38.1068
 30
0.000000
  70
    32
  0
VERTEX
  8
0
  5
11CD
 10
168.590
 20
38.1068
 30
0.000000
  70
    32
  0
VERTEX
  8
0
  5
11CE
 10
168.589
 20
38.1068
 30
0.000000
  70
    32
  0
VERTEX
  8
0
  5
11CF
 10
168.589
 20
38.1068
 30
0.000000
  70
    32
  0
VERTEX
  8
0
  5
11D0
 10
168.589
 20
38.1068
 30
0.000000
  70
    32
  0
VERTEX
  8
0
  5
11D1
 10
168.589
 20
38.1068
 30
0.000000
  70
    32
  0
VERTEX
  8
0
  5
11D2
 10
168.589
 20
38.1068
 30
0.000000
  70
    32
  0
VERTEX
  8
0
  5
11D3
 10
168.589
 20
38.1068
 30
0.000000
  70
    32
  0
VERTEX
  8
0
  5
11D4
 10
168.589
 20
38.1068
 30
0.000000
  70
    32
  0
VERTEX
  8
0
  5
11D5
 10
168.589
 20
38.1068
 30
0.000000
  70
    32
  0
VERTEX
  8
0
  5
11D6
 10
168.589
 20
38.1068
 30
0.000000
  70
    32
  0
VERTEX
  8
0
  5
11D7
 10
168.589
 20
38.1068
 30
0.000000
  70
    32
  0
VERTEX
  8
0
  5
11D8
 10
168.589
 20
38.1068
 30
0.000000
  70
    32
  0
VERTEX
  8
0
  5
11D9
 10
168.589
 20
38.1068
 30
0.000000
  70
    32
  0
VERTEX
  8
0
  5
11DA
 10
168.588
 20
38.1068
 30
0.000000
  70
    32
  0
VERTEX
  8
0
  5
11DB
 10
168.588
 20
38.1068
 30
0.000000
  70
    32
  0
VERTEX
  8
0
  5
11DC
 10
168.588
 20
38.1068
 30
0.000000
  70
    32
  0
VERTEX
  8
0
  5
11DD
 10
168.588
 20
38.1068
 30
0.000000
  70
    32
  0
VERTEX
  8
0
  5
11DE
 10
168.588
 20
38.1068
 30
0.000000
  70
    32
  0
VERTEX
  8
0
  5
11DF
 10
168.588
 20
38.1068
 30
0.000000
  70
    32
  0
VERTEX
  8
0
  5
11E0
 10
168.588
 20
38.1068
 30
0.000000
  70
    32
  0
VERTEX
  8
0
  5
11E1
 10
168.588
 20
38.1068
 30
0.000000
  70
    32
  0
VERTEX
  8
0
  5
11E2
 10
168.588
 20
38.1068
 30
0.000000
  70
    32
  0
VERTEX
  8
0
  5
11E3
 10
168.588
 20
38.1068
 30
0.000000
  70
    32
  0
VERTEX
  8
0
  5
11E4
 10
168.588
 20
38.1068
 30
0.000000
  70
    32
  0
VERTEX
  8
0
  5
11E5
 10
168.588
 20
38.1068
 30
0.000000
  70
    32
  0
VERTEX
  8
0
  5
11E6
 10
168.587
 20
38.1068
 30
0.000000
  70
    32
  0
VERTEX
  8
0
  5
11E7
 10
168.587
 20
38.1068
 30
0.000000
  70
    32
  0
VERTEX
  8
0
  5
11E8
 10
168.587
 20
38.1068
 30
0.000000
  70
    32
  0
VERTEX
  8
0
  5
11E9
 10
168.587
 20
38.1068
 30
0.000000
  70
    32
  0
VERTEX
  8
0
  5
11EA
 10
168.587
 20
38.1068
 30
0.000000
  70
    32
  0
VERTEX
  8
0
  5
11EB
 10
168.587
 20
38.1068
 30
0.000000
  70
    32
  0
VERTEX
  8
0
  5
11EC
 10
168.587
 20
38.1068
 30
0.000000
  70
    32
  0
VERTEX
  8
0
  5
11ED
 10
168.587
 20
38.1068
 30
0.000000
  70
    32
  0
VERTEX
  8
0
  5
11EE
 10
168.587
 20
38.1068
 30
0.000000
  70
    32
  0
VERTEX
  8
0
  5
11EF
 10
168.587
 20
38.1068
 30
0.000000
  70
    32
  0
VERTEX
  8
0
  5
11F0
 10
168.587
 20
38.1068
 30
0.000000
  70
    32
  0
VERTEX
  8
0
  5
11F1
 10
168.586
 20
38.1068
 30
0.000000
  70
    32
  0
VERTEX
  8
0
  5
11F2
 10
168.586
 20
38.1068
 30
0.000000
  70
    32
  0
VERTEX
  8
0
  5
11F3
 10
168.586
 20
38.1068
 30
0.000000
  70
    32
  0
VERTEX
  8
0
  5
11F4
 10
168.586
 20
38.1068
 30
0.000000
  70
    32
  0
VERTEX
  8
0
  5
11F5
 10
168.586
 20
38.1068
 30
0.000000
  70
    32
  0
VERTEX
  8
0
  5
11F6
 10
168.586
 20
38.1068
 30
0.000000
  70
    32
  0
VERTEX
  8
0
  5
11F7
 10
168.586
 20
38.1068
 30
0.000000
  70
    32
  0
VERTEX
  8
0
  5
11F8
 10
168.586
 20
38.1068
 30
0.000000
  70
    32
  0
VERTEX
  8
0
  5
11F9
 10
168.586
 20
38.1068
 30
0.000000
  70
    32
  0
VERTEX
  8
0
  5
11FA
 10
168.586
 20
38.1068
 30
0.000000
  70
    32
  0
VERTEX
  8
0
  5
11FB
 10
168.586
 20
38.1068
 30
0.000000
  70
    32
  0
VERTEX
  8
0
  5
11FC
 10
168.586
 20
38.1068
 30
0.000000
  70
    32
  0
VERTEX
  8
0
  5
11FD
 10
168.585
 20
38.1068
 30
0.000000
  70
    32
  0
VERTEX
  8
0
  5
11FE
 10
168.585
 20
38.1068
 30
0.000000
  70
    32
  0
VERTEX
  8
0
  5
11FF
 10
168.585
 20
38.1068
 30
0.000000
  70
    32
  0
VERTEX
  8
0
  5
1200
 10
168.585
 20
38.1068
 30
0.000000
  70
    32
  0
VERTEX
  8
0
  5
1201
 10
168.585
 20
38.1068
 30
0.000000
  70
    32
  0
VERTEX
  8
0
  5
1202
 10
168.585
 20
38.1068
 30
0.000000
  70
    32
  0
VERTEX
  8
0
  5
1203
 10
168.585
 20
38.1068
 30
0.000000
  70
    32
  0
VERTEX
  8
0
  5
1204
 10
168.585
 20
38.1068
 30
0.000000
  70
    32
  0
VERTEX
  8
0
  5
1205
 10
168.585
 20
38.1068
 30
0.000000
  70
    32
  0
VERTEX
  8
0
  5
1206
 10
168.585
 20
38.1068
 30
0.000000
  70
    32
  0
VERTEX
  8
0
  5
1207
 10
168.585
 20
38.1068
 30
0.000000
  70
    32
  0
VERTEX
  8
0
  5
1208
 10
168.584
 20
38.1068
 30
0.000000
  70
    32
  0
VERTEX
  8
0
  5
1209
 10
168.584
 20
38.1068
 30
0.000000
  70
    32
  0
VERTEX
  8
0
  5
120A
 10
168.584
 20
38.1068
 30
0.000000
  70
    32
  0
VERTEX
  8
0
  5
120B
 10
168.584
 20
38.1068
 30
0.000000
  70
    32
  0
VERTEX
  8
0
  5
120C
 10
168.584
 20
38.1068
 30
0.000000
  70
    32
  0
VERTEX
  8
0
  5
120D
 10
168.584
 20
38.1068
 30
0.000000
  70
    32
  0
VERTEX
  8
0
  5
120E
 10
168.584
 20
38.1068
 30
0.000000
  70
    32
  0
VERTEX
  8
0
  5
120F
 10
168.584
 20
38.1068
 30
0.000000
  70
    32
  0
VERTEX
  8
0
  5
1210
 10
168.584
 20
38.1068
 30
0.000000
  70
    32
  0
VERTEX
  8
0
  5
1211
 10
168.584
 20
38.1068
 30
0.000000
  70
    32
  0
VERTEX
  8
0
  5
1212
 10
168.584
 20
38.1068
 30
0.000000
  70
    32
  0
VERTEX
  8
0
  5
1213
 10
168.584
 20
38.1068
 30
0.000000
  70
    32
  0
VERTEX
  8
0
  5
1214
 10
168.583
 20
38.1068
 30
0.000000
  70
    32
  0
VERTEX
  8
0
  5
1215
 10
168.583
 20
38.1068
 30
0.000000
  70
    32
  0
VERTEX
  8
0
  5
1216
 10
168.583
 20
38.1068
 30
0.000000
  70
    32
  0
VERTEX
  8
0
  5
1217
 10
168.583
 20
38.1068
 30
0.000000
  70
    32
  0
VERTEX
  8
0
  5
1218
 10
168.583
 20
38.1068
 30
0.000000
  70
    32
  0
VERTEX
  8
0
  5
1219
 10
168.583
 20
38.1068
 30
0.000000
  70
    32
  0
VERTEX
  8
0
  5
121A
 10
168.583
 20
38.1068
 30
0.000000
  70
    32
  0
VERTEX
  8
0
  5
121B
 10
168.583
 20
38.1068
 30
0.000000
  70
    32
  0
VERTEX
  8
0
  5
121C
 10
168.583
 20
38.1068
 30
0.000000
  70
    32
  0
VERTEX
  8
0
  5
121D
 10
168.583
 20
38.1068
 30
0.000000
  70
    32
  0
VERTEX
  8
0
  5
121E
 10
168.583
 20
38.1068
 30
0.000000
  70
    32
  0
VERTEX
  8
0
  5
121F
 10
168.583
 20
38.1068
 30
0.000000
  70
    32
  0
VERTEX
  8
0
  5
1220
 10
168.582
 20
38.1068
 30
0.000000
  70
    32
  0
VERTEX
  8
0
  5
1221
 10
168.582
 20
38.1068
 30
0.000000
  70
    32
  0
VERTEX
  8
0
  5
1222
 10
168.582
 20
38.1068
 30
0.000000
  70
    32
  0
VERTEX
  8
0
  5
1223
 10
168.582
 20
38.1068
 30
0.000000
  70
    32
  0
VERTEX
  8
0
  5
1224
 10
168.582
 20
38.1068
 30
0.000000
  70
    32
  0
VERTEX
  8
0
  5
1225
 10
168.582
 20
38.1068
 30
0.000000
  70
    32
  0
VERTEX
  8
0
  5
1226
 10
168.582
 20
38.1068
 30
0.000000
  70
    32
  0
VERTEX
  8
0
  5
1227
 10
168.582
 20
38.1068
 30
0.000000
  70
    32
  0
VERTEX
  8
0
  5
1228
 10
168.582
 20
38.1068
 30
0.000000
  70
    32
  0
VERTEX
  8
0
  5
1229
 10
168.582
 20
38.1068
 30
0.000000
  70
    32
  0
VERTEX
  8
0
  5
122A
 10
168.582
 20
38.1068
 30
0.000000
  70
    32
  0
VERTEX
  8
0
  5
122B
 10
168.581
 20
38.1068
 30
0.000000
  70
    32
  0
VERTEX
  8
0
  5
122C
 10
168.581
 20
38.1068
 30
0.000000
  70
    32
  0
VERTEX
  8
0
  5
122D
 10
168.581
 20
38.1068
 30
0.000000
  70
    32
  0
VERTEX
  8
0
  5
122E
 10
168.581
 20
38.1068
 30
0.000000
  70
    32
  0
VERTEX
  8
0
  5
122F
 10
168.581
 20
38.1068
 30
0.000000
  70
    32
  0
VERTEX
  8
0
  5
1230
 10
168.581
 20
38.1068
 30
0.000000
  70
    32
  0
VERTEX
  8
0
  5
1231
 10
168.581
 20
38.1068
 30
0.000000
  70
    32
  0
VERTEX
  8
0
  5
1232
 10
168.581
 20
38.1068
 30
0.000000
  70
    32
  0
VERTEX
  8
0
  5
1233
 10
168.581
 20
38.1068
 30
0.000000
  70
    32
  0
VERTEX
  8
0
  5
1234
 10
168.581
 20
38.1068
 30
0.000000
  70
    32
  0
VERTEX
  8
0
  5
1235
 10
168.581
 20
38.1068
 30
0.000000
  70
    32
  0
VERTEX
  8
0
  5
1236
 10
168.581
 20
38.1068
 30
0.000000
  70
    32
  0
VERTEX
  8
0
  5
1237
 10
168.580
 20
38.1068
 30
0.000000
  70
    32
  0
VERTEX
  8
0
  5
1238
 10
168.580
 20
38.1068
 30
0.000000
  70
    32
  0
SEQEND
  8
0
  5
1239
  0
LINE
  5
876
  8
0
 10
-80.696460970210808
 20
238.55092262560001
 30
0.0
 11
-74.125105305010806
 21
238.55092262560001
 31
0.0
  0
LINE
  5
877
  8
0
 10
604.64063106078913
 20
238.55092262560001
 30
0.0
 11
610.65257223058904
 21
238.55092262560001
 31
0.0
  0
LINE
  5
878
  8
0
 10
292.21618639310799
 20
238.55092262560001
 30
0.0
 11
317.18051037188741
 21
238.55092262560001
 31
0.0
  0
ARC
  5
879
  8
0
 10
292.21618639310799
 20
236.55092262560001
 30
0.0
 40
2.0
 50
90.0
 51
176.0000000000079
  0
ARC
  5
87C
  8
0
 10
317.18051037188741
 20
236.55092262560001
 30
0.0
 40
2.0
 50
3.9999999999399951
 51
90.000000000000057
  0
ENDSEC
  0
EOF
