  0
SECTION
  2
HEADER
  9
$ACADVER
  1
AC1015
  9
$ACADMAINTVER
 70
    20
  9
$DWGCODEPAGE
  3
ANSI_936
  9
$INSBASE
 10
0.0
 20
0.0
 30
0.0
  9
$EXTMIN
 10
28.02569593585295
 20
17.99609385011263
 30
-0.0015258207003583
  9
$EXTMAX
 10
31.86267098675329
 20
26.40322883008423
 30
0.0000000349246037
  9
$LIMMIN
 10
0.0
 20
0.0
  9
$LIMMAX
 10
44.0
 20
34.0
  9
$ORTHOMODE
 70
     0
  9
$REGENMODE
 70
     1
  9
$FILLMODE
 70
     1
  9
$QTEXTMODE
 70
     0
  9
$MIRRTEXT
 70
     0
  9
$LTSCALE
 40
2.419999999999999
  9
$ATTMODE
 70
     1
  9
$TEXTSIZE
 40
0.2
  9
$TRACEWID
 40
0.05
  9
$TEXTSTYLE
  7
STANDARD
  9
$CLAYER
  8
0
  9
$CELTYPE
  6
BYLAYER
  9
$CECOLOR
 62
   256
  9
$CELTSCALE
 40
1.0
  9
$DISPSILH
 70
     0
  9
$DIMSCALE
 40
1.0
  9
$DIMASZ
 40
0.1875
  9
$DIMEXO
 40
0.275
  9
$DIMDLI
 40
1.671999999999999
  9
$DIMRND
 40
0.0
  9
$DIMDLE
 40
0.0
  9
$DIMEXE
 40
0.792
  9
$DIMTP
 40
0.1
  9
$DIMTM
 40
0.1
  9
$DIMTXT
 40
0.15625
  9
$DIMCEN
 40
0.396
  9
$DIMTSZ
 40
0.0
  9
$DIMTOL
 70
     1
  9
$DIMLIM
 70
     0
  9
$DIMTIH
 70
     1
  9
$DIMTOH
 70
     1
  9
$DIMSE1
 70
     0
  9
$DIMSE2
 70
     0
  9
$DIMTAD
 70
     0
  9
$DIMZIN
 70
     0
  9
$DIMBLK
  1

  9
$DIMASO
 70
     1
  9
$DIMSHO
 70
     1
  9
$DIMPOST
  1

  9
$DIMAPOST
  1

  9
$DIMALT
 70
     0
  9
$DIMALTD
 70
     2
  9
$DIMALTF
 40
25.4
  9
$DIMLFAC
 40
1.0
  9
$DIMTOFL
 70
     0
  9
$DIMTVP
 40
0.0
  9
$DIMTIX
 70
     0
  9
$DIMSOXD
 70
     0
  9
$DIMSAH
 70
     0
  9
$DIMBLK1
  1

  9
$DIMBLK2
  1

  9
$DIMSTYLE
  2
STANDARD
  9
$DIMCLRD
 70
     0
  9
$DIMCLRE
 70
     0
  9
$DIMCLRT
 70
     0
  9
$DIMTFAC
 40
1.0
  9
$DIMGAP
 40
0.09
  9
$DIMJUST
 70
     0
  9
$DIMSD1
 70
     0
  9
$DIMSD2
 70
     0
  9
$DIMTOLJ
 70
     1
  9
$DIMTZIN
 70
     0
  9
$DIMALTZ
 70
     0
  9
$DIMALTTZ
 70
     0
  9
$DIMUPT
 70
     0
  9
$DIMDEC
 70
     4
  9
$DIMTDEC
 70
     4
  9
$DIMALTU
 70
     2
  9
$DIMALTTD
 70
     2
  9
$DIMTXSTY
  7
STANDARD
  9
$DIMAUNIT
 70
     0
  9
$DIMADEC
 70
     0
  9
$DIMALTRND
 40
0.0
  9
$DIMAZIN
 70
     0
  9
$DIMDSEP
 70
    46
  9
$DIMATFIT
 70
     3
  9
$DIMFRAC
 70
     0
  9
$DIMLDRBLK
  1

  9
$DIMLUNIT
 70
     2
  9
$DIMLWD
 70
    -2
  9
$DIMLWE
 70
    -2
  9
$DIMTMOVE
 70
     0
  9
$LUNITS
 70
     2
  9
$LUPREC
 70
     4
  9
$SKETCHINC
 40
0.1
  9
$FILLETRAD
 40
0.0
  9
$AUNITS
 70
     0
  9
$AUPREC
 70
     0
  9
$MENU
  1
.
  9
$ELEVATION
 40
0.0
  9
$PELEVATION
 40
0.0
  9
$THICKNESS
 40
0.0
  9
$LIMCHECK
 70
     0
  9
$CHAMFERA
 40
0.0
  9
$CHAMFERB
 40
0.0
  9
$CHAMFERC
 40
0.0
  9
$CHAMFERD
 40
0.0
  9
$SKPOLY
 70
     0
  9
$TDCREATE
 40
2455637.650741967
  9
$TDUCREATE
 40
2455637.317408635
  9
$TDUPDATE
 40
2455637.653864167
  9
$TDUUPDATE
 40
2455637.320530833
  9
$TDINDWG
 40
0.0002554167
  9
$TDUSRTIMER
 40
0.0002554167
  9
$USRTIMER
 70
     1
  9
$ANGBASE
 50
0.0
  9
$ANGDIR
 70
     0
  9
$PDMODE
 70
     3
  9
$PDSIZE
 40
0.3125
  9
$PLINEWID
 40
0.0
  9
$SPLFRAME
 70
     0
  9
$SPLINETYPE
 70
     6
  9
$SPLINESEGS
 70
     8
  9
$HANDSEED
  5
663
  9
$SURFTAB1
 70
     6
  9
$SURFTAB2
 70
     6
  9
$SURFTYPE
 70
     6
  9
$SURFU
 70
     6
  9
$SURFV
 70
     6
  9
$UCSBASE
  2

  9
$UCSNAME
  2

  9
$UCSORG
 10
0.0
 20
0.0
 30
0.0
  9
$UCSXDIR
 10
1.0
 20
0.0
 30
0.0
  9
$UCSYDIR
 10
0.0
 20
1.0
 30
0.0
  9
$UCSORTHOREF
  2

  9
$UCSORTHOVIEW
 70
     0
  9
$UCSORGTOP
 10
0.0
 20
0.0
 30
0.0
  9
$UCSORGBOTTOM
 10
0.0
 20
0.0
 30
0.0
  9
$UCSORGLEFT
 10
0.0
 20
0.0
 30
0.0
  9
$UCSORGRIGHT
 10
0.0
 20
0.0
 30
0.0
  9
$UCSORGFRONT
 10
0.0
 20
0.0
 30
0.0
  9
$UCSORGBACK
 10
0.0
 20
0.0
 30
0.0
  9
$PUCSBASE
  2

  9
$PUCSNAME
  2

  9
$PUCSORG
 10
0.0
 20
0.0
 30
0.0
  9
$PUCSXDIR
 10
1.0
 20
0.0
 30
0.0
  9
$PUCSYDIR
 10
0.0
 20
1.0
 30
0.0
  9
$PUCSORTHOREF
  2

  9
$PUCSORTHOVIEW
 70
     0
  9
$PUCSORGTOP
 10
0.0
 20
0.0
 30
0.0
  9
$PUCSORGBOTTOM
 10
0.0
 20
0.0
 30
0.0
  9
$PUCSORGLEFT
 10
0.0
 20
0.0
 30
0.0
  9
$PUCSORGRIGHT
 10
0.0
 20
0.0
 30
0.0
  9
$PUCSORGFRONT
 10
0.0
 20
0.0
 30
0.0
  9
$PUCSORGBACK
 10
0.0
 20
0.0
 30
0.0
  9
$USERI1
 70
     0
  9
$USERI2
 70
     0
  9
$USERI3
 70
     0
  9
$USERI4
 70
     0
  9
$USERI5
 70
     0
  9
$USERR1
 40
0.0
  9
$USERR2
 40
0.0
  9
$USERR3
 40
0.0
  9
$USERR4
 40
0.0
  9
$USERR5
 40
0.0
  9
$WORLDVIEW
 70
     1
  9
$SHADEDGE
 70
     3
  9
$SHADEDIF
 70
    70
  9
$TILEMODE
 70
     1
  9
$MAXACTVP
 70
    64
  9
$PINSBASE
 10
0.0
 20
0.0
 30
0.0
  9
$PLIMCHECK
 70
     0
  9
$PEXTMIN
 10
1.000000000000000E+20
 20
1.000000000000000E+20
 30
1.000000000000000E+20
  9
$PEXTMAX
 10
-1.000000000000000E+20
 20
-1.000000000000000E+20
 30
-1.000000000000000E+20
  9
$PLIMMIN
 10
0.0
 20
0.0
  9
$PLIMMAX
 10
12.0
 20
9.0
  9
$UNITMODE
 70
     0
  9
$VISRETAIN
 70
     1
  9
$PLINEGEN
 70
     0
  9
$PSLTSCALE
 70
     1
  9
$TREEDEPTH
 70
  3020
  9
$CMLSTYLE
  2
Standard
  9
$CMLJUST
 70
     0
  9
$CMLSCALE
 40
1.0
  9
$PROXYGRAPHICS
 70
     1
  9
$MEASUREMENT
 70
     0
  9
$CELWEIGHT
370
    -1
  9
$ENDCAPS
280
     0
  9
$JOINSTYLE
280
     0
  9
$LWDISPLAY
290
     0
  9
$INSUNITS
 70
     1
  9
$HYPERLINKBASE
  1

  9
$STYLESHEET
  1

  9
$XEDIT
290
     1
  9
$CEPSNTYPE
380
     0
  9
$PSTYLEMODE
290
     1
  9
$FINGERPRINTGUID
  2
{7F48D0FD-39C4-4D97-88E3-1225B625C790}
  9
$VERSIONGUID
  2
{5D91ACA1-C128-4E96-A58F-72FEBF4FDA70}
  9
$EXTNAMES
290
     1
  9
$PSVPSCALE
 40
0.0
  9
$OLESTARTUP
290
     0
  0
ENDSEC
  0
SECTION
  2
CLASSES
  0
CLASS
  1
ACDBDICTIONARYWDFLT
  2
AcDbDictionaryWithDefault
  3
ObjectDBX Classes
 90
        0
280
     0
281
     0
  0
CLASS
  1
ACDBPLACEHOLDER
  2
AcDbPlaceHolder
  3
ObjectDBX Classes
 90
        0
280
     0
281
     0
  0
CLASS
  1
LAYOUT
  2
AcDbLayout
  3
ObjectDBX Classes
 90
        0
280
     0
281
     0
  0
CLASS
  1
TABLESTYLE
  2
AcDbTableStyle
  3
ObjectDBX Classes
 90
     4095
280
     0
281
     0
  0
CLASS
  1
ACAD_TABLE
  2
AcDbTable
  3
ObjectDBX Classes
 90
     1025
280
     0
281
     1
  0
CLASS
  1
MATERIAL
  2
AcDbMaterial
  3
ObjectDBX Classes
 90
     1153
280
     0
281
     0
  0
CLASS
  1
VISUALSTYLE
  2
AcDbVisualStyle
  3
ObjectDBX Classes
 90
     4095
280
     0
281
     0
  0
CLASS
  1
SCALE
  2
AcDbScale
  3
ObjectDBX Classes
 90
     1153
280
     0
281
     0
  0
CLASS
  1
MLEADERSTYLE
  2
AcDbMLeaderStyle
  3
ACDB_MLEADERSTYLE_CLASS
 90
     4095
280
     0
281
     0
  0
CLASS
  1
TABLECONTENT
  2
AcDbTableContent
  3
ObjectDBX Classes
 90
     1152
280
     0
281
     0
  0
CLASS
  1
TABLEGEOMETRY
  2
AcDbTableGeometry
  3
ObjectDBX Classes
 90
     1152
280
     0
281
     0
  0
CLASS
  1
CELLSTYLEMAP
  2
AcDbCellStyleMap
  3
ObjectDBX Classes
 90
     1152
280
     0
281
     0
  0
CLASS
  1
DICTIONARYVAR
  2
AcDbDictionaryVar
  3
ObjectDBX Classes
 90
        0
280
     0
281
     0
  0
CLASS
  1
EXACXREFPANELOBJECT
  2
ExAcXREFPanelObject
  3
EXAC_ESW
 90
     1025
280
     0
281
     0
  0
CLASS
  1
NPOCOLLECTION
  2
AcDbImpNonPersistentObjectsCollection
  3
ObjectDBX Classes
 90
     1153
280
     0
281
     0
  0
ENDSEC
  0
SECTION
  2
TABLES
  0
TABLE
  2
VPORT
  5
8
330
0
100
AcDbSymbolTable
 70
     1
  0
VPORT
  5
1F4
330
8
100
AcDbSymbolTableRecord
100
AcDbViewportTableRecord
  2
*ACTIVE
 70
     0
 10
0.0
 20
0.0
 11
1.0
 21
1.0
 12
29.94418346130311
 22
22.19966134009843
 13
0.0
 23
0.0
 14
1.0
 24
1.0
 15
0.0
 25
0.0
 16
0.0
 26
0.0
 36
1.0
 17
0.0
 27
0.0
 37
0.0
 40
8.475117203529322
 41
1.589743589743589
 42
50.0
 43
0.0
 44
0.0
 50
0.0
 51
0.0
 71
     0
 72
   100
 73
     1
 74
     1
 75
     0
 76
     0
 77
     0
 78
     0
281
     0
 65
     1
110
0.0
120
0.0
130
0.0
111
1.0
121
0.0
131
0.0
112
0.0
122
1.0
132
0.0
 79
     0
146
0.0
  0
ENDTAB
  0
TABLE
  2
LTYPE
  5
5
330
0
100
AcDbSymbolTable
 70
     6
  0
LTYPE
  5
14
330
5
100
AcDbSymbolTableRecord
100
AcDbLinetypeTableRecord
  2
BYBLOCK
 70
     0
  3

 72
    65
 73
     0
 40
0.0
  0
LTYPE
  5
15
330
5
100
AcDbSymbolTableRecord
100
AcDbLinetypeTableRecord
  2
BYLAYER
 70
     0
  3

 72
    65
 73
     0
 40
0.0
  0
LTYPE
  5
16
330
5
100
AcDbSymbolTableRecord
100
AcDbLinetypeTableRecord
  2
CONTINUOUS
 70
     0
  3
Solid line
 72
    65
 73
     0
 40
0.0
  0
LTYPE
  5
1F5
330
5
100
AcDbSymbolTableRecord
100
AcDbLinetypeTableRecord
  2
CENTER
 70
     0
  3
____ _ ____ _ ____ _ ____ _ ____ _ ____ _ ____
 72
    65
 73
     4
 40
0.6
 49
0.375
 74
     0
 49
-0.075
 74
     0
 49
0.075
 74
     0
 49
-0.075
 74
     0
  0
LTYPE
  5
1F6
330
5
100
AcDbSymbolTableRecord
100
AcDbLinetypeTableRecord
  2
HIDDEN
 70
     0
  3
- - - - - - - - - - - - - - - - - - - -
 72
    65
 73
     2
 40
0.2
 49
0.1
 74
     0
 49
-0.1
 74
     0
  0
LTYPE
  5
1F7
330
5
100
AcDbSymbolTableRecord
100
AcDbLinetypeTableRecord
  2
PHANTOM
 70
     0
  3
_____ _ _ _____ _ _ _____ _ _ _____
 72
    65
 73
     6
 40
0.8
 49
0.45
 74
     0
 49
-0.05
 74
     0
 49
0.1
 74
     0
 49
-0.05
 74
     0
 49
0.1
 74
     0
 49
-0.05
 74
     0
  0
LTYPE
  5
1F8
330
5
100
AcDbSymbolTableRecord
100
AcDbLinetypeTableRecord
  2
DOT
 70
     0
  3
. . . . . . . . . . . . . . . . . . . .
 72
    65
 73
     2
 40
0.2
 49
0.1
 74
     0
 49
-0.1
 74
     0
  0
LTYPE
  5
1F9
330
5
100
AcDbSymbolTableRecord
100
AcDbLinetypeTableRecord
  2
DASHED
 70
     0
  3
- - - - - - - - - - - - - - - - - - - -
 72
    65
 73
     2
 40
0.2
 49
0.1
 74
     0
 49
-0.1
 74
     0
  0
ENDTAB
  0
TABLE
  2
LAYER
  5
2
330
0
100
AcDbSymbolTable
 70
    16
  0
LAYER
  5
10
102
{ACAD_XDICTIONARY
360
61D
102
}
330
2
100
AcDbSymbolTableRecord
100
AcDbLayerTableRecord
  2
0
 70
     0
 62
     7
  6
CONTINUOUS
370
    -3
390
F
  0
LAYER
  5
1FA
102
{ACAD_XDICTIONARY
360
61F
102
}
330
2
100
AcDbSymbolTableRecord
100
AcDbLayerTableRecord
  2
DEFAULT_1
 70
     0
 62
     7
  6
CENTER
370
    -3
390
F
  0
LAYER
  5
1FB
102
{ACAD_XDICTIONARY
360
621
102
}
330
2
100
AcDbSymbolTableRecord
100
AcDbLayerTableRecord
  2
DEFAULT_2
 70
     0
 62
     8
  6
HIDDEN
370
    -3
390
F
  0
LAYER
  5
1FC
102
{ACAD_XDICTIONARY
360
623
102
}
330
2
100
AcDbSymbolTableRecord
100
AcDbLayerTableRecord
  2
DEFAULT_3
 70
     0
 62
     7
  6
PHANTOM
370
    -3
390
F
  0
LAYER
  5
1FD
102
{ACAD_XDICTIONARY
360
625
102
}
330
2
100
AcDbSymbolTableRecord
100
AcDbLayerTableRecord
  2
DATUMS
 70
     0
 62
     7
  6
CONTINUOUS
370
    -3
390
F
  0
LAYER
  5
1FE
102
{ACAD_XDICTIONARY
360
627
102
}
330
2
100
AcDbSymbolTableRecord
100
AcDbLayerTableRecord
  2
DATUM_AXIS
 70
     0
 62
     7
  6
CONTINUOUS
370
    -3
390
F
  0
LAYER
  5
1FF
102
{ACAD_XDICTIONARY
360
629
102
}
330
2
100
AcDbSymbolTableRecord
100
AcDbLayerTableRecord
  2
DATUM_CSYS
 70
     0
 62
     7
  6
CONTINUOUS
370
    -3
390
F
  0
LAYER
  5
200
102
{ACAD_XDICTIONARY
360
62B
102
}
330
2
100
AcDbSymbolTableRecord
100
AcDbLayerTableRecord
  2
DATUM_PLANE
 70
     0
 62
     7
  6
CONTINUOUS
370
    -3
390
F
  0
LAYER
  5
201
102
{ACAD_XDICTIONARY
360
62D
102
}
330
2
100
AcDbSymbolTableRecord
100
AcDbLayerTableRecord
  2
DATUM_POINT
 70
     0
 62
     7
  6
CONTINUOUS
370
    -3
390
F
  0
LAYER
  5
202
102
{ACAD_XDICTIONARY
360
62F
102
}
330
2
100
AcDbSymbolTableRecord
100
AcDbLayerTableRecord
  2
_CURVE
 70
     0
 62
     7
  6
CONTINUOUS
370
    -3
390
F
  0
LAYER
  5
203
102
{ACAD_XDICTIONARY
360
631
102
}
330
2
100
AcDbSymbolTableRecord
100
AcDbLayerTableRecord
  2
_SURFACE
 70
     0
 62
     7
  6
CONTINUOUS
370
    -3
390
F
  0
LAYER
  5
204
102
{ACAD_XDICTIONARY
360
633
102
}
330
2
100
AcDbSymbolTableRecord
100
AcDbLayerTableRecord
  2
__REF_CURVE
 70
     0
 62
     7
  6
CONTINUOUS
370
    -3
390
F
  0
LAYER
  5
205
102
{ACAD_XDICTIONARY
360
635
102
}
330
2
100
AcDbSymbolTableRecord
100
AcDbLayerTableRecord
  2
__REF_SURFACE
 70
     0
 62
     7
  6
CONTINUOUS
370
    -3
390
F
  0
LAYER
  5
206
102
{ACAD_XDICTIONARY
360
637
102
}
330
2
100
AcDbSymbolTableRecord
100
AcDbLayerTableRecord
  2
___COSMETIC_SKETCH
 70
     0
 62
     7
  6
CONTINUOUS
370
    -3
390
F
  0
LAYER
  5
207
102
{ACAD_XDICTIONARY
360
639
102
}
330
2
100
AcDbSymbolTableRecord
100
AcDbLayerTableRecord
  2
___NOTE
 70
     0
 62
     7
  6
CONTINUOUS
370
    -3
390
F
  0
LAYER
  5
208
102
{ACAD_XDICTIONARY
360
63B
102
}
330
2
100
AcDbSymbolTableRecord
100
AcDbLayerTableRecord
  2
___SYMBOL
 70
     0
 62
     7
  6
CONTINUOUS
370
    -3
390
F
  0
ENDTAB
  0
TABLE
  2
STYLE
  5
3
330
0
100
AcDbSymbolTable
 70
    19
  0
STYLE
  5
11
330
3
100
AcDbSymbolTableRecord
100
AcDbTextStyleTableRecord
  2
STANDARD
 70
     0
 40
0.0
 41
0.8
 50
0.0
 71
     0
 42
0.2
  3
txt
  4

  0
STYLE
  5
209
330
3
100
AcDbSymbolTableRecord
100
AcDbTextStyleTableRecord
  2
TEXTSTYLE_1
 70
     0
 40
0.0
 41
0.8
 50
0.0
 71
     0
 42
0.2
  3
gdt
  4

  0
STYLE
  5
20A
330
3
100
AcDbSymbolTableRecord
100
AcDbTextStyleTableRecord
  2
TEXTSTYLE_2
 70
     0
 40
0.0
 41
1.04
 50
0.0
 71
     0
 42
0.2
  3
txt
  4

  0
STYLE
  5
20B
330
3
100
AcDbSymbolTableRecord
100
AcDbTextStyleTableRecord
  2
TEXTSTYLE_3
 70
     0
 40
0.0
 41
0.9399999999999998
 50
0.0
 71
     0
 42
0.2
  3
txt
  4

  0
STYLE
  5
20C
330
3
100
AcDbSymbolTableRecord
100
AcDbTextStyleTableRecord
  2
TEXTSTYLE_4
 70
     0
 40
0.0
 41
1.0
 50
0.0
 71
     0
 42
0.2
  3
txt
  4

  0
STYLE
  5
20D
330
3
100
AcDbSymbolTableRecord
100
AcDbTextStyleTableRecord
  2
TEXTSTYLE_5
 70
     0
 40
0.0
 41
1.199999999999999
 50
0.0
 71
     0
 42
0.2
  3
txt
  4

  0
STYLE
  5
20E
330
3
100
AcDbSymbolTableRecord
100
AcDbTextStyleTableRecord
  2
TEXTSTYLE_6
 70
     0
 40
0.0
 41
1.02
 50
0.0
 71
     0
 42
0.2
  3
txt
  4

  0
STYLE
  5
20F
330
3
100
AcDbSymbolTableRecord
100
AcDbTextStyleTableRecord
  2
TEXTSTYLE_7
 70
     0
 40
0.0
 41
0.925
 50
0.0
 71
     0
 42
0.2
  3
txt
  4

  0
STYLE
  5
210
330
3
100
AcDbSymbolTableRecord
100
AcDbTextStyleTableRecord
  2
TEXTSTYLE_8
 70
     0
 40
0.0
 41
0.85
 50
0.0
 71
     0
 42
0.2
  3
txt
  4

  0
STYLE
  5
211
330
3
100
AcDbSymbolTableRecord
100
AcDbTextStyleTableRecord
  2
TEXTSTYLE_9
 70
     0
 40
0.0
 41
1.05
 50
0.0
 71
     0
 42
0.2
  3
txt
  4

  0
STYLE
  5
212
330
3
100
AcDbSymbolTableRecord
100
AcDbTextStyleTableRecord
  2
TEXTSTYLE_10
 70
     0
 40
0.0
 41
1.09
 50
0.0
 71
     0
 42
0.2
  3
txt
  4

  0
STYLE
  5
213
330
3
100
AcDbSymbolTableRecord
100
AcDbTextStyleTableRecord
  2
TEXTSTYLE_11
 70
     0
 40
0.0
 41
0.99
 50
0.0
 71
     0
 42
0.2
  3
txt
  4

  0
STYLE
  5
214
330
3
100
AcDbSymbolTableRecord
100
AcDbTextStyleTableRecord
  2
TEXTSTYLE_12
 70
     0
 40
0.0
 41
1.07
 50
0.0
 71
     0
 42
0.2
  3
txt
  4

  0
STYLE
  5
215
330
3
100
AcDbSymbolTableRecord
100
AcDbTextStyleTableRecord
  2
TEXTSTYLE_13
 70
     0
 40
0.0
 41
1.229999999999999
 50
0.0
 71
     0
 42
0.2
  3
txt
  4

  0
STYLE
  5
216
330
3
100
AcDbSymbolTableRecord
100
AcDbTextStyleTableRecord
  2
TEXTSTYLE_14
 70
     0
 40
0.0
 41
1.01
 50
0.0
 71
     0
 42
0.2
  3
txt
  4

  0
STYLE
  5
217
330
3
100
AcDbSymbolTableRecord
100
AcDbTextStyleTableRecord
  2
TEXTSTYLE_15
 70
     0
 40
0.0
 41
1.03
 50
0.0
 71
     0
 42
0.2
  3
txt
  4

  0
STYLE
  5
218
330
3
100
AcDbSymbolTableRecord
100
AcDbTextStyleTableRecord
  2
TEXTSTYLE_16
 70
     0
 40
0.0
 41
0.9700055556
 50
0.0
 71
     0
 42
0.2
  3
txt
  4

  0
STYLE
  5
219
330
3
100
AcDbSymbolTableRecord
100
AcDbTextStyleTableRecord
  2
TEXTSTYLE_17
 70
     0
 40
0.0
 41
1.379999999999999
 50
0.0
 71
     0
 42
0.2
  3
txt
  4

  0
STYLE
  5
21A
330
3
100
AcDbSymbolTableRecord
100
AcDbTextStyleTableRecord
  2
TEXTSTYLE_18
 70
     0
 40
0.0
 41
0.95
 50
0.0
 71
     0
 42
0.2
  3
txt
  4

  0
ENDTAB
  0
TABLE
  2
VIEW
  5
6
330
0
100
AcDbSymbolTable
 70
     0
  0
ENDTAB
  0
TABLE
  2
UCS
  5
7
330
0
100
AcDbSymbolTable
 70
     0
  0
ENDTAB
  0
TABLE
  2
APPID
  5
9
330
0
100
AcDbSymbolTable
 70
     2
  0
APPID
  5
21B
330
9
100
AcDbSymbolTableRecord
100
AcDbRegAppTableRecord
  2
ACAD
 70
     0
  0
APPID
  5
5FA
330
9
100
AcDbSymbolTableRecord
100
AcDbRegAppTableRecord
  2
ACAD_MLEADERVER
 70
     0
  0
ENDTAB
  0
TABLE
  2
DIMSTYLE
  5
A
330
0
100
AcDbSymbolTable
 70
     1
100
AcDbDimStyleTable
 71
     0
  0
DIMSTYLE
105
226
330
A
100
AcDbSymbolTableRecord
100
AcDbDimStyleTableRecord
  2
STANDARD
 70
     0
 41
0.1875
 47
0.1
 48
0.1
 71
     1
 78
     4
140
0.15625
271
     1
272
     1
284
     4
340
11
  0
ENDTAB
  0
TABLE
  2
BLOCK_RECORD
  5
1
330
0
100
AcDbSymbolTable
 70
     8
  0
BLOCK_RECORD
  5
21C
330
1
100
AcDbSymbolTableRecord
100
AcDbBlockTableRecord
  2
*Model_Space
340
5A5
  0
BLOCK_RECORD
  5
21D
330
1
100
AcDbSymbolTableRecord
100
AcDbBlockTableRecord
  2
*Paper_Space
340
5A6
  0
BLOCK_RECORD
  5
21E
330
1
100
AcDbSymbolTableRecord
100
AcDbBlockTableRecord
  2
C_ARROW_BL3
340
0
  0
BLOCK_RECORD
  5
21F
330
1
100
AcDbSymbolTableRecord
100
AcDbBlockTableRecord
  2
C_ARROW_BL2
340
0
  0
BLOCK_RECORD
  5
220
330
1
100
AcDbSymbolTableRecord
100
AcDbBlockTableRecord
  2
C_ARROW_BL1
340
0
  0
BLOCK_RECORD
  5
221
330
1
100
AcDbSymbolTableRecord
100
AcDbBlockTableRecord
  2
C_ARROW_BL0
340
0
  0
ENDTAB
  0
ENDSEC
  0
SECTION
  2
BLOCKS
  0
BLOCK
  5
20
330
21C
100
AcDbEntity
  8
0
100
AcDbBlockBegin
  2
*Model_Space
 70
     0
 10
0.0
 20
0.0
 30
0.0
  3
*Model_Space
  1

  0
ENDBLK
  5
21
330
21C
100
AcDbEntity
  8
0
100
AcDbBlockEnd
  0
BLOCK
  5
1C
330
21D
100
AcDbEntity
 67
     1
  8
0
100
AcDbBlockBegin
  2
*Paper_Space
 70
     0
 10
0.0
 20
0.0
 30
0.0
  3
*Paper_Space
  1

  0
ENDBLK
  5
1D
330
21D
100
AcDbEntity
 67
     1
  8
0
100
AcDbBlockEnd
  0
BLOCK
  5
227
330
21E
100
AcDbEntity
  8
DEFAULT_2
  6
HIDDEN
 62
     8
100
AcDbBlockBegin
  2
C_ARROW_BL3
 70
     0
 10
43.6878685885
 20
17.0
 30
0.0
  3
C_ARROW_BL3
  1

  0
LINE
  5
228
330
21E
100
AcDbEntity
  8
DEFAULT_2
  6
HIDDEN
 62
     8
100
AcDbLine
 10
43.5003685885
 20
17.0
 30
0.0
 11
43.6878685885
 21
16.90625
 31
0.0
  0
LINE
  5
229
330
21E
100
AcDbEntity
  8
DEFAULT_2
  6
HIDDEN
 62
     8
100
AcDbLine
 10
43.5003685885
 20
17.0
 30
0.0
 11
43.6878685885
 21
17.09375
 31
0.0
  0
LINE
  5
22A
330
21E
100
AcDbEntity
  8
DEFAULT_2
  6
HIDDEN
 62
     8
100
AcDbLine
 10
43.6878685885
 20
17.0234375
 30
0.0
 11
43.6878685885
 21
17.09375
 31
0.0
  0
LINE
  5
22B
330
21E
100
AcDbEntity
  8
DEFAULT_2
  6
HIDDEN
 62
     8
100
AcDbLine
 10
43.8753685885
 20
17.0234375
 30
0.0
 11
43.6878685885
 21
17.0234375
 31
0.0
  0
LINE
  5
22C
330
21E
100
AcDbEntity
  8
DEFAULT_2
  6
HIDDEN
 62
     8
100
AcDbLine
 10
43.8753685885
 20
17.0234375
 30
0.0
 11
43.8753685885
 21
16.9765625
 31
0.0
  0
LINE
  5
22D
330
21E
100
AcDbEntity
  8
DEFAULT_2
  6
HIDDEN
 62
     8
100
AcDbLine
 10
43.6878685885
 20
16.9765625
 30
0.0
 11
43.8753685885
 21
16.9765625
 31
0.0
  0
LINE
  5
22E
330
21E
100
AcDbEntity
  8
DEFAULT_2
  6
HIDDEN
 62
     8
100
AcDbLine
 10
43.6878685885
 20
16.90625
 30
0.0
 11
43.6878685885
 21
16.9765625
 31
0.0
  0
LWPOLYLINE
  5
22F
330
21E
100
AcDbEntity
  8
DEFAULT_2
  6
HIDDEN
 62
     8
100
AcDbPolyline
 90
        8
 70
     0
 43
0.0
 10
43.5003685885
 20
17.0
 10
43.6878685885
 20
17.09375
 10
43.6878685885
 20
17.0234375
 10
43.8753685885
 20
17.0234375
 10
43.8753685885
 20
16.9765625
 10
43.6878685885
 20
16.9765625
 10
43.6878685885
 20
16.90625
 10
43.5003685885
 20
17.0
  0
HATCH
  5
230
330
21E
100
AcDbEntity
  8
DEFAULT_2
  6
HIDDEN
 62
     8
100
AcDbHatch
 10
0.0
 20
0.0
 30
0.0
210
0.0
220
0.0
230
1.0
  2
SOLID
 70
     1
 71
     1
 91
        1
 92
        1
 93
        7
 72
     1
 10
43.5003685885
 20
17.0
 11
43.6878685885
 21
17.09375
 72
     1
 10
43.6878685885
 20
17.09375
 11
43.6878685885
 21
17.0234375
 72
     1
 10
43.6878685885
 20
17.0234375
 11
43.8753685885
 21
17.0234375
 72
     1
 10
43.8753685885
 20
17.0234375
 11
43.8753685885
 21
16.9765625
 72
     1
 10
43.8753685885
 20
16.9765625
 11
43.6878685885
 21
16.9765625
 72
     1
 10
43.6878685885
 20
16.9765625
 11
43.6878685885
 21
16.90625
 72
     1
 10
43.6878685885
 20
16.90625
 11
43.5003685885
 21
17.0
 97
        1
330
22F
 75
     0
 76
     1
 98
        1
 10
0.0
 20
0.0
  0
ENDBLK
  5
231
330
21E
100
AcDbEntity
  8
0
  6
ByBlock
 62
     0
100
AcDbBlockEnd
  0
BLOCK
  5
232
330
21F
100
AcDbEntity
  8
DEFAULT_2
  6
HIDDEN
 62
     8
100
AcDbBlockBegin
  2
C_ARROW_BL2
 70
     0
 10
22.0
 20
0.3125
 30
0.0
  3
C_ARROW_BL2
  1

  0
LINE
  5
233
330
21F
100
AcDbEntity
  8
DEFAULT_2
  6
HIDDEN
 62
     8
100
AcDbLine
 10
22.0
 20
0.5
 30
0.0
 11
21.90625
 21
0.3125
 31
0.0
  0
LINE
  5
234
330
21F
100
AcDbEntity
  8
DEFAULT_2
  6
HIDDEN
 62
     8
100
AcDbLine
 10
22.0
 20
0.5
 30
0.0
 11
22.09375
 21
0.3125
 31
0.0
  0
LINE
  5
235
330
21F
100
AcDbEntity
  8
DEFAULT_2
  6
HIDDEN
 62
     8
100
AcDbLine
 10
22.0234375
 20
0.3125
 30
0.0
 11
22.09375
 21
0.3125
 31
0.0
  0
LINE
  5
236
330
21F
100
AcDbEntity
  8
DEFAULT_2
  6
HIDDEN
 62
     8
100
AcDbLine
 10
22.0234375
 20
0.125
 30
0.0
 11
22.0234375
 21
0.3125
 31
0.0
  0
LINE
  5
237
330
21F
100
AcDbEntity
  8
DEFAULT_2
  6
HIDDEN
 62
     8
100
AcDbLine
 10
22.0234375
 20
0.125
 30
0.0
 11
21.9765625
 21
0.125
 31
0.0
  0
LINE
  5
238
330
21F
100
AcDbEntity
  8
DEFAULT_2
  6
HIDDEN
 62
     8
100
AcDbLine
 10
21.9765625
 20
0.3125
 30
0.0
 11
21.9765625
 21
0.125
 31
0.0
  0
LINE
  5
239
330
21F
100
AcDbEntity
  8
DEFAULT_2
  6
HIDDEN
 62
     8
100
AcDbLine
 10
21.90625
 20
0.3125
 30
0.0
 11
21.9765625
 21
0.3125
 31
0.0
  0
LWPOLYLINE
  5
23A
330
21F
100
AcDbEntity
  8
DEFAULT_2
  6
HIDDEN
 62
     8
100
AcDbPolyline
 90
        8
 70
     0
 43
0.0
 10
22.0
 20
0.5
 10
22.09375
 20
0.3125
 10
22.0234375
 20
0.3125
 10
22.0234375
 20
0.125
 10
21.9765625
 20
0.125
 10
21.9765625
 20
0.3125
 10
21.90625
 20
0.3125
 10
22.0
 20
0.5
  0
HATCH
  5
23B
330
21F
100
AcDbEntity
  8
DEFAULT_2
  6
HIDDEN
 62
     8
100
AcDbHatch
 10
0.0
 20
0.0
 30
0.0
210
0.0
220
0.0
230
1.0
  2
SOLID
 70
     1
 71
     1
 91
        1
 92
        1
 93
        7
 72
     1
 10
22.0
 20
0.5
 11
22.09375
 21
0.3125
 72
     1
 10
22.09375
 20
0.3125
 11
22.0234375
 21
0.3125
 72
     1
 10
22.0234375
 20
0.3125
 11
22.0234375
 21
0.125
 72
     1
 10
22.0234375
 20
0.125
 11
21.9765625
 21
0.125
 72
     1
 10
21.9765625
 20
0.125
 11
21.9765625
 21
0.3125
 72
     1
 10
21.9765625
 20
0.3125
 11
21.90625
 21
0.3125
 72
     1
 10
21.90625
 20
0.3125
 11
22.0
 21
0.5
 97
        1
330
23A
 75
     0
 76
     1
 98
        1
 10
0.0
 20
0.0
  0
ENDBLK
  5
23C
330
21F
100
AcDbEntity
  8
0
  6
ByBlock
 62
     0
100
AcDbBlockEnd
  0
BLOCK
  5
23D
330
220
100
AcDbEntity
  8
DEFAULT_2
  6
HIDDEN
 62
     8
100
AcDbBlockBegin
  2
C_ARROW_BL1
 70
     0
 10
0.3120169847
 20
17.0
 30
0.0
  3
C_ARROW_BL1
  1

  0
LINE
  5
23E
330
220
100
AcDbEntity
  8
DEFAULT_2
  6
HIDDEN
 62
     8
100
AcDbLine
 10
0.4995169847
 20
17.0
 30
0.0
 11
0.3120169847
 21
17.09375
 31
0.0
  0
LINE
  5
23F
330
220
100
AcDbEntity
  8
DEFAULT_2
  6
HIDDEN
 62
     8
100
AcDbLine
 10
0.4995169847
 20
17.0
 30
0.0
 11
0.3120169847
 21
16.90625
 31
0.0
  0
LINE
  5
240
330
220
100
AcDbEntity
  8
DEFAULT_2
  6
HIDDEN
 62
     8
100
AcDbLine
 10
0.3120169847
 20
16.9765625
 30
0.0
 11
0.3120169847
 21
16.90625
 31
0.0
  0
LINE
  5
241
330
220
100
AcDbEntity
  8
DEFAULT_2
  6
HIDDEN
 62
     8
100
AcDbLine
 10
0.1245169847
 20
16.9765625
 30
0.0
 11
0.3120169847
 21
16.9765625
 31
0.0
  0
LINE
  5
242
330
220
100
AcDbEntity
  8
DEFAULT_2
  6
HIDDEN
 62
     8
100
AcDbLine
 10
0.1245169847
 20
16.9765625
 30
0.0
 11
0.1245169847
 21
17.0234375
 31
0.0
  0
LINE
  5
243
330
220
100
AcDbEntity
  8
DEFAULT_2
  6
HIDDEN
 62
     8
100
AcDbLine
 10
0.3120169847
 20
17.0234375
 30
0.0
 11
0.1245169847
 21
17.0234375
 31
0.0
  0
LINE
  5
244
330
220
100
AcDbEntity
  8
DEFAULT_2
  6
HIDDEN
 62
     8
100
AcDbLine
 10
0.3120169847
 20
17.09375
 30
0.0
 11
0.3120169847
 21
17.0234375
 31
0.0
  0
LWPOLYLINE
  5
245
330
220
100
AcDbEntity
  8
DEFAULT_2
  6
HIDDEN
 62
     8
100
AcDbPolyline
 90
        8
 70
     0
 43
0.0
 10
0.4995169847
 20
17.0
 10
0.3120169847
 20
16.90625
 10
0.3120169847
 20
16.9765625
 10
0.1245169847
 20
16.9765625
 10
0.1245169847
 20
17.0234375
 10
0.3120169847
 20
17.0234375
 10
0.3120169847
 20
17.09375
 10
0.4995169847
 20
17.0
  0
HATCH
  5
246
330
220
100
AcDbEntity
  8
DEFAULT_2
  6
HIDDEN
 62
     8
100
AcDbHatch
 10
0.0
 20
0.0
 30
0.0
210
0.0
220
0.0
230
1.0
  2
SOLID
 70
     1
 71
     1
 91
        1
 92
        1
 93
        7
 72
     1
 10
0.4995169847
 20
17.0
 11
0.3120169847
 21
16.90625
 72
     1
 10
0.3120169847
 20
16.90625
 11
0.3120169847
 21
16.9765625
 72
     1
 10
0.3120169847
 20
16.9765625
 11
0.1245169847
 21
16.9765625
 72
     1
 10
0.1245169847
 20
16.9765625
 11
0.1245169847
 21
17.0234375
 72
     1
 10
0.1245169847
 20
17.0234375
 11
0.3120169847
 21
17.0234375
 72
     1
 10
0.3120169847
 20
17.0234375
 11
0.3120169847
 21
17.09375
 72
     1
 10
0.3120169847
 20
17.09375
 11
0.4995169847
 21
17.0
 97
        1
330
245
 75
     0
 76
     1
 98
        1
 10
0.0
 20
0.0
  0
ENDBLK
  5
247
330
220
100
AcDbEntity
  8
0
  6
ByBlock
 62
     0
100
AcDbBlockEnd
  0
BLOCK
  5
248
330
221
100
AcDbEntity
  8
DEFAULT_2
  6
HIDDEN
 62
     8
100
AcDbBlockBegin
  2
C_ARROW_BL0
 70
     0
 10
22.0
 20
33.6875
 30
0.0
  3
C_ARROW_BL0
  1

  0
LINE
  5
249
330
221
100
AcDbEntity
  8
DEFAULT_2
  6
HIDDEN
 62
     8
100
AcDbLine
 10
22.0
 20
33.5
 30
0.0
 11
22.09375
 21
33.6875
 31
0.0
  0
LINE
  5
24A
330
221
100
AcDbEntity
  8
DEFAULT_2
  6
HIDDEN
 62
     8
100
AcDbLine
 10
22.0
 20
33.5
 30
0.0
 11
21.90625
 21
33.6875
 31
0.0
  0
LINE
  5
24B
330
221
100
AcDbEntity
  8
DEFAULT_2
  6
HIDDEN
 62
     8
100
AcDbLine
 10
21.9765625
 20
33.6875
 30
0.0
 11
21.90625
 21
33.6875
 31
0.0
  0
LINE
  5
24C
330
221
100
AcDbEntity
  8
DEFAULT_2
  6
HIDDEN
 62
     8
100
AcDbLine
 10
21.9765625
 20
33.875
 30
0.0
 11
21.9765625
 21
33.6875
 31
0.0
  0
LINE
  5
24D
330
221
100
AcDbEntity
  8
DEFAULT_2
  6
HIDDEN
 62
     8
100
AcDbLine
 10
21.9765625
 20
33.875
 30
0.0
 11
22.0234375
 21
33.875
 31
0.0
  0
LINE
  5
24E
330
221
100
AcDbEntity
  8
DEFAULT_2
  6
HIDDEN
 62
     8
100
AcDbLine
 10
22.0234375
 20
33.6875
 30
0.0
 11
22.0234375
 21
33.875
 31
0.0
  0
LINE
  5
24F
330
221
100
AcDbEntity
  8
DEFAULT_2
  6
HIDDEN
 62
     8
100
AcDbLine
 10
22.09375
 20
33.6875
 30
0.0
 11
22.0234375
 21
33.6875
 31
0.0
  0
LWPOLYLINE
  5
250
330
221
100
AcDbEntity
  8
DEFAULT_2
  6
HIDDEN
 62
     8
100
AcDbPolyline
 90
        8
 70
     0
 43
0.0
 10
22.0
 20
33.5
 10
21.90625
 20
33.6875
 10
21.9765625
 20
33.6875
 10
21.9765625
 20
33.875
 10
22.0234375
 20
33.875
 10
22.0234375
 20
33.6875
 10
22.09375
 20
33.6875
 10
22.0
 20
33.5
  0
HATCH
  5
251
330
221
100
AcDbEntity
  8
DEFAULT_2
  6
HIDDEN
 62
     8
100
AcDbHatch
 10
0.0
 20
0.0
 30
0.0
210
0.0
220
0.0
230
1.0
  2
SOLID
 70
     1
 71
     1
 91
        1
 92
        1
 93
        7
 72
     1
 10
22.0
 20
33.5
 11
21.90625
 21
33.6875
 72
     1
 10
21.90625
 20
33.6875
 11
21.9765625
 21
33.6875
 72
     1
 10
21.9765625
 20
33.6875
 11
21.9765625
 21
33.875
 72
     1
 10
21.9765625
 20
33.875
 11
22.0234375
 21
33.875
 72
     1
 10
22.0234375
 20
33.875
 11
22.0234375
 21
33.6875
 72
     1
 10
22.0234375
 20
33.6875
 11
22.09375
 21
33.6875
 72
     1
 10
22.09375
 20
33.6875
 11
22.0
 21
33.5
 97
        1
330
250
 75
     0
 76
     1
 98
        1
 10
0.0
 20
0.0
  0
ENDBLK
  5
252
330
221
100
AcDbEntity
  8
0
  6
ByBlock
 62
     0
100
AcDbBlockEnd
  0
ENDSEC
  0
SECTION
  2
ENTITIES
  0
LINE
  5
4B1
330
21C
100
AcDbEntity
  8
0
  6
Continuous
 62
     7
100
AcDbLine
 10
28.0437213641
 20
17.9968758002
 30
0.0
 11
28.1067134901
 21
17.9968758002
 31
0.0
  0
LINE
  5
4B2
330
21C
100
AcDbEntity
  8
0
  6
Continuous
 62
     7
100
AcDbLine
 10
28.3389969546
 20
18.315773438
 30
0.0
 11
28.1067134901
 21
18.315773438
 31
0.0
  0
LINE
  5
4B3
330
21C
100
AcDbEntity
  8
0
  6
Continuous
 62
     7
100
AcDbLine
 10
28.1067134901
 20
18.3315214695
 30
0.0
 11
28.3389969546
 21
18.3315214695
 31
0.0
  0
LWPOLYLINE
  5
4B4
330
21C
100
AcDbEntity
  8
0
  6
Continuous
 62
     7
100
AcDbPolyline
 90
      200
 70
     0
 43
0.0
 10
30.4912150923
 20
18.914177073
 10
30.4943744447
 20
18.9144194191
 10
30.497532706
 20
18.9146759706
 10
30.5006898162
 20
18.9149467229
 10
30.5038457077
 20
18.9152316709
 10
30.5070003047
 20
18.9155308079
 10
30.5101535436
 20
18.9158441283
 10
30.5133053605
 20
18.9161716258
 10
30.51645568
 20
18.9165132929
 10
30.5196044376
 20
18.9168691226
 10
30.5227515705
 20
18.917239108
 10
30.5258970055
 20
18.9176232404
 10
30.5290406758
 20
18.9180215117
 10
30.5321825211
 20
18.9184339141
 10
30.5353224783
 20
18.9188604394
 10
30.5384604834
 20
18.9193010788
 10
30.54159647340001
 20
18.9197558234
 10
30.5447303877
 20
18.9202246644
 10
30.5478621636
 20
18.9207075926
 10
30.5509917369
 20
18.9212045979
 10
30.5541190444
 20
18.9217156704
 10
30.557244023
 20
18.9222407998
 10
30.5603666093
 20
18.9227799754
 10
30.5634867394
 20
18.9233331861
 10
30.5666043501
 20
18.9239004209
 10
30.5697193785
 20
18.9244816681
 10
30.5728317618
 20
18.9250769162
 10
30.5759414368
 20
18.925686153
 10
30.5790483409
 20
18.92630936619999
 10
30.5821524113
 20
18.9269465433
 10
30.5852535854
 20
18.9275976714
 10
30.5883518003
 20
18.9282627373
 10
30.5914469936
 20
18.9289417276
 10
30.5945391025
 20
18.9296346285
 10
30.5976280646
 20
18.930341426
 10
30.6007138173
 20
18.9310621059
 10
30.6037962983
 20
18.9317966536
 10
30.6068754453
 20
18.9325450542
 10
30.6099511959
 20
18.9333072925
 10
30.613023488
 20
18.9340833532
 10
30.6160922595
 20
18.9348732206
 10
30.6191574484
 20
18.9356768787
 10
30.6222189926
 20
18.9364943112
 10
30.6252768303
 20
18.9373255017
 10
30.6283308997
 20
18.9381704334
 10
30.6313811389
 20
18.939029089
 10
30.6344274864
 20
18.9399014514
 10
30.6374698806
 20
18.9407875028
 10
30.6405082598
 20
18.9416872253
 10
30.6435425628
 20
18.9426006008
 10
30.6465727281
 20
18.9435276108
 10
30.6495986944
 20
18.9444682364
 10
30.6526204007
 20
18.9454224588
 10
30.6556377858
 20
18.9463902586
 10
30.6586507886
 20
18.9473716163
 10
30.6616593484
 20
18.948366512
 10
30.6646634042
 20
18.9493749256
 10
30.6676628953
 20
18.9503968366
 10
30.670657761
 20
18.9514322246
 10
30.6736479409
 20
18.9524810684
 10
30.6766333745
 20
18.9535433469
 10
30.67961400130001
 20
18.9546190387
 10
30.6825897612
 20
18.955708122
 10
30.6855605939
 20
18.9568105747
 10
30.6885264395
 20
18.9579263745
 10
30.6914872378
 20
18.959055499
 10
30.6944429292
 20
18.9601979253
 10
30.6973934538
 20
18.9613536303
 10
30.7003387519
 20
18.9625225905
 10
30.703278764
 20
18.9637047825
 10
30.7062134307
 20
18.9649001822
 10
30.70914269260001
 20
18.9661087655
 10
30.7120664906
 20
18.967330508
 10
30.7149847654
 20
18.968565385
 10
30.7178974581
 20
18.9698133715
 10
30.7208045098
 20
18.9710744423
 10
30.7237058618
 20
18.9723485718
 10
30.7266014553
 20
18.9736357343
 10
30.7294912318
 20
18.9749359039
 10
30.7323751329
 20
18.9762490541
 10
30.7352531003
 20
18.9775751585
 10
30.7381250758
 20
18.9789141902
 10
30.7409910013
 20
18.9802661222
 10
30.7438508188
 20
18.9816309272
 10
30.7467044707
 20
18.9830085774
 10
30.7495518991
 20
18.9843990452
 10
30.7523930465
 20
18.9858023023
 10
30.7552278555
 20
18.9872183205
 10
30.7580562686
 20
18.988647071
 10
30.7608782289
 20
18.9900885249
 10
30.7636936791
 20
18.9915426533
 10
30.7665025624
 20
18.9930094265
 10
30.769304822
 20
18.9944888151
 10
30.7721004011
 20
18.995980789
 10
30.7748892434
 20
18.9974853181
 10
30.7776712924
 20
18.999002372
 10
30.7804464919
 20
19.00053192
 10
30.7832147857
 20
19.0020739312
 10
30.7859761178
 20
19.0036283745
 10
30.7887304326
 20
19.0051952183
 10
30.7914776742
 20
19.006774431
 10
30.7942177871
 20
19.0083659807
 10
30.79695071590001
 20
19.0099698351
 10
30.7996764054
 20
19.011585962
 10
30.8023948004
 20
19.0132143285
 10
30.805105846
 20
19.0148549018
 10
30.8078094874
 20
19.0165076487
 10
30.8105056699
 20
19.0181725358
 10
30.813194339
 20
19.0198495295
 10
30.8158754404
 20
19.0215385957
 10
30.8185489197
 20
19.0232397004
 10
30.8212147231
 20
19.0249528092
 10
30.8238727965
 20
19.0266778874
 10
30.8265230863
 20
19.0284149001
 10
30.8291655388
 20
19.0301638123
 10
30.8318001006
 20
19.0319245886
 10
30.8344267185
 20
19.0336971933
 10
30.8370453393
 20
19.0354815907
 10
30.8396559102
 20
19.0372777447
 10
30.8422583783
 20
19.0390856189
 10
30.8448526909
 20
19.0409051767
 10
30.8474387958
 20
19.0427363815
 10
30.8500166404
 20
19.0445791962
 10
30.8525861729
 20
19.0464335835
 10
30.8551473411
 20
19.0482995059
 10
30.8577000934
 20
19.0501769257
 10
30.860244378
 20
19.0520658049
 10
30.8627801436
 20
19.0539661054
 10
30.8653073389
 20
19.0558777887
 10
30.8678259128
 20
19.0578008162
 10
30.8703358143
 20
19.059735149
 10
30.8728369928
 20
19.061680748
 10
30.8753293976
 20
19.0636375739
 10
30.8778129784
 20
19.065605587
 10
30.8802876849
 20
19.0675847476
 10
30.8827534671
 20
19.0695750157
 10
30.8852102752
 20
19.071576351
 10
30.8876580595
 20
19.0735887132
 10
30.8900967704
 20
19.0756120614
 10
30.8925263588
 20
19.0776463548
 10
30.8949467754
 20
19.0796915522
 10
30.8973579713
 20
19.0817476123
 10
30.8997598978
 20
19.0838144936
 10
30.9021525064
 20
19.0858921542
 10
30.9045357485
 20
19.0879805522
 10
30.90690957610001
 20
19.0900796452
 10
30.9092739412
 20
19.0921893909
 10
30.9116287959
 20
19.0943097467
 10
30.91397409260001
 20
19.0964406695
 10
30.916309784
 20
19.0985821165
 10
30.9186358228
 20
19.1007340441
 10
30.9209521619
 20
19.1028964091
 10
30.9232587546
 20
19.1050691676
 10
30.92555555420001
 20
19.1072522756
 10
30.9278425142
 20
19.1094456892
 10
30.9301195885
 20
19.1116493638
 10
30.93238673090001
 20
19.113863255
 10
30.9346438957
 20
19.116087318
 10
30.9368910372
 20
19.1183215079
 10
30.93912811
 20
19.1205657794
 10
30.9413550688
 20
19.1228200871
 10
30.9435718686
 20
19.1250843856
 10
30.9457784646
 20
19.127358629
 10
30.9479748123
 20
19.1296427714
 10
30.950160867
 20
19.1319367665
 10
30.9523365848
 20
19.134240568
 10
30.9545019216
 20
19.1365541293
 10
30.9566568335
 20
19.1388774036
 10
30.9588012772
 20
19.141210344
 10
30.960935209
 20
19.1435529032
 10
30.9630585861
 20
19.145905034
 10
30.9651713653
 20
19.1482666887
 10
30.967273504
 20
19.1506378196
 10
30.9693649597
 20
19.1530183789
 10
30.9714456902
 20
19.1554083182
 10
30.9735156532
 20
19.1578075894
 10
30.975574807
 20
19.1602161438
 10
30.97762311
 20
19.1626339329
 10
30.9796605207
 20
19.1650609078
 10
30.9816869979
 20
19.1674970192
 10
30.9837025007
 20
19.1699422181
 10
30.9857069884
 20
19.172396455
 10
30.9877004203
 20
19.1748596802
 10
30.9896827562
 20
19.1773318439
 10
30.991653956
 20
19.1798128962
 10
30.9936139798
 20
19.1823027869
 10
30.9955627881
 20
19.1848014656
 10
30.9975003414
 20
19.1873088819
 10
30.9994266005
 20
19.189824985
 10
31.0013415266
 20
19.1923497241
 10
31.0032450808
 20
19.1948830481
 10
31.0051372247
 20
19.1974249057
 10
31.0070179201
 20
19.1999752457
 10
31.0088871288
 20
19.2025340165
 10
31.0107448132
 20
19.2051011662
 10
31.0125909357
 20
19.2076766431
 10
31.0144254589
 20
19.210260395
 10
31.0162483457
 20
19.2128523697
 10
31.0180595593
 20
19.2154525147
 10
31.0198590631
 20
19.2180607776
  0
LWPOLYLINE
  5
4B5
330
21C
100
AcDbEntity
  8
0
  6
Continuous
 62
     7
100
AcDbPolyline
 90
      127
 70
     0
 43
0.0
 10
31.0198590631
 20
19.2180607776
 10
31.02164682070001
 20
19.2206771056
 10
31.0234227959
 20
19.2233014457
 10
31.02518695280001
 20
19.225933745
 10
31.0269392559
 20
19.2285739501
 10
31.0286796695
 20
19.2312220078
 10
31.0304081586
 20
19.2338778645
 10
31.03212468820001
 20
19.2365414664
 10
31.0338292235
 20
19.2392127598
 10
31.0355217303
 20
19.2418916906
 10
31.0372021741
 20
19.2445782046
 10
31.038870521
 20
19.2472722476
 10
31.0405267374
 20
19.2499737651
 10
31.0421707896
 20
19.2526827024
 10
31.0438026446
 20
19.2553990047
 10
31.0454222692
 20
19.2581226173
 10
31.0470296308
 20
19.2608534849
 10
31.0486246968
 20
19.2635915524
 10
31.0502074349
 20
19.2663367644
 10
31.0517778133
 20
19.2690890654
 10
31.0533358001
 20
19.2718483998
 10
31.0548813639
 20
19.2746147118
 10
31.0564144733
 20
19.2773879454
 10
31.0579350974
 20
19.2801680445
 10
31.0594432055
 20
19.2829549531
 10
31.060938767
 20
19.2857486146
 10
31.0624217517
 20
19.2885489727
 10
31.0638921297
 20
19.2913559707
 10
31.0653498711
 20
19.2941695519
 10
31.0667949466
 20
19.2969896593
 10
31.0682273269
 20
19.29981623599999
 10
31.0696469831
 20
19.3026492248
 10
31.0710538864
 20
19.3054885685
 10
31.0724480084
 20
19.3083342095
 10
31.0738293209
 20
19.3111860904
 10
31.075197796
 20
19.3140441536
 10
31.076553406
 20
19.3169083412
 10
31.0778961235
 20
19.3197785953
 10
31.0792259214
 20
19.322654858
 10
31.0805427728
 20
19.3255370709
 10
31.081846651
 20
19.328425176
 10
31.0831375297
 20
19.3313191147
 10
31.08441538280001
 20
19.3342188286
 10
31.0856801845
 20
19.337124259
 10
31.0869319091
 20
19.3400353472
 10
31.0881705314
 20
19.3429520343
 10
31.0893960263
 20
19.3458742615
 10
31.0906083691
 20
19.3488019695
 10
31.0918075352
 20
19.3517350991
 10
31.0929935005
 20
19.3546735912
 10
31.0941662408
 20
19.3576173862
 10
31.0953257325
 20
19.3605664247
 10
31.0964719522
 20
19.3635206471
 10
31.0976048767
 20
19.3664799935
 10
31.0987244831
 20
19.3694444042
 10
31.0998307487
 20
19.3724138192
 10
31.1009236512
 20
19.3753881785
 10
31.1020031684
 20
19.378367422
 10
31.1030692787
 20
19.3813514893
 10
31.1041219603
 20
19.3843403203
 10
31.105161192
 20
19.3873338544
 10
31.1061869529
 20
19.3903320312
 10
31.1071992221
 20
19.3933347899
 10
31.1081979792
 20
19.39634207
 10
31.109183204
 20
19.3993538106
 10
31.1101548765
 20
19.4023699507
 10
31.1111129773
 20
19.4053904295
 10
31.1120574868
 20
19.4084151859
 10
31.11298838590001
 20
19.4114441586
 10
31.1139056559
 20
19.4144772865
 10
31.1148092783
 20
19.4175145083
 10
31.1156992346
 20
19.4205557624
 10
31.116575507
 20
19.4236009875
 10
31.1174380777
 20
19.426650122
 10
31.1182869293
 20
19.4297031041
 10
31.1191220446
 20
19.4327598723
 10
31.1199434068
 20
19.4358203646
 10
31.1207509991
 20
19.4388845193
 10
31.1215448054
 20
19.4419522743
 10
31.1223248096
 20
19.4450235676
 10
31.1230909958
 20
19.4480983371
 10
31.1238433486
 20
19.4511765208
 10
31.1245818527
 20
19.4542580562
 10
31.1253064934
 20
19.4573428812
 10
31.1260172558
 20
19.4604309333
 10
31.1267141256
 20
19.4635221501
 10
31.1273970888
 20
19.4666164692
 10
31.1280661315
 20
19.4697138279
 10
31.1287212402
 20
19.4728141636
 10
31.1293624017
 20
19.4759174137
 10
31.1299896029
 20
19.47902351539999
 10
31.1306028313
 20
19.4821324059
 10
31.1312020744
 20
19.4852440224
 10
31.13178732
 20
19.4883583018
 10
31.1323585565
 20
19.4914751814
 10
31.1329157721
 20
19.494594598
 10
31.1334589557
 20
19.4977164885
 10
31.1339880963
 20
19.50084079
 10
31.1345031831
 20
19.5039674391
 10
31.1350042058
 20
19.5070963727
 10
31.1354911542
 20
19.5102275275
 10
31.13596401840001
 20
19.5133608402
 10
31.136422789
 20
19.5164962474
 10
31.1368674566
 20
19.5196336859
 10
31.1372980123
 20
19.522773092
 10
31.1377144473
 20
19.5259144024
 10
31.1381167533
 20
19.5290575535
 10
31.138504922
 20
19.5322024819
 10
31.1388789457
 20
19.5353491238
 10
31.1392388168
 20
19.5384974157
 10
31.1395845279
 20
19.5416472939
 10
31.1399160722
 20
19.5447986948
 10
31.1402334429
 20
19.5479515546
 10
31.1405366336
 20
19.5511058096
 10
31.1408256382
 20
19.554261396
 10
31.1411004507
 20
19.55741825
 10
31.1413610658
 20
19.5605763078
 10
31.141607478
 20
19.5637355055
 10
31.1418396825
 20
19.5668957793
 10
31.1420576744
 20
19.5700570652
 10
31.1422614495
 20
19.5732192993
 10
31.1424510036
 20
19.5763824178
 10
31.1426263328
 20
19.5795463566
 10
31.1427874336
 20
19.5827110518
 10
31.1429343028
 20
19.5858764394
 10
31.1430669374
 20
19.5890424554
 10
31.143190698
 20
19.5923621434
  0
LWPOLYLINE
  5
4B6
330
21C
100
AcDbEntity
  8
0
  6
Continuous
 62
     7
100
AcDbPolyline
 90
      200
 70
     0
 43
0.0
 10
31.0359492716
 20
18.9522614566
 10
31.0391140569
 20
18.9524899215
 10
31.0422778582
 20
18.9527326395
 10
31.0454406112
 20
18.9529896068
 10
31.0486022615
 20
18.95326082
 10
31.05176273530001
 20
18.953546274
 10
31.0549219387
 20
18.9538459611
 10
31.0580798076
 20
18.9541598758
 10
31.06123627800001
 20
18.9544880124
 10
31.06439125630001
 20
18.9548303617
 10
31.0675446766
 20
18.9551869167
 10
31.0706964768
 20
18.9555576707
 10
31.0738465694
 20
18.9559426133
 10
31.0769948824
 20
18.9563417357
 10
31.08014136
 20
18.9567550307
 10
31.0832859398
 20
18.95718249
 10
31.0864285564
 20
18.9576241046
 10
31.0895691476
 20
18.9580798657
 10
31.0927076563
 20
18.958549765
 10
31.0958440208
 20
18.9590337933
 10
31.0989781755
 20
18.9595319405
 10
31.1021100565
 20
18.9600441964
 10
31.1052396007
 20
18.9605705509
 10
31.1083667443
 20
18.9611109931
 10
31.1114914219
 20
18.9616655118
 10
31.1146135699
 20
18.9622340956
 10
31.1177331253
 20
18.9628167331
 10
31.120850025
 20
18.9634134126
 10
31.1239642057
 20
18.9640241218
 10
31.1270756043
 20
18.9646488484
 10
31.1301841583
 20
18.9652875798
 10
31.1332898047
 20
18.9659403031
 10
31.1363924804
 20
18.9666070051
 10
31.1394921225
 20
18.9672876722
 10
31.1425886681
 20
18.9679822906
 10
31.1456820544
 20
18.9686908463
 10
31.1487722186
 20
18.9694133248
 10
31.1518590979
 20
18.9701497114
 10
31.1549426299
 20
18.9708999914
 10
31.1580227519
 20
18.9716641493
 10
31.1610994015
 20
18.9724421698
 10
31.1641725164
 20
18.9732340371
 10
31.1672420342
 20
18.974039735
 10
31.1703078927
 20
18.9748592474
 10
31.1733700297
 20
18.9756925575
 10
31.1764283832
 20
18.9765396485
 10
31.179482891
 20
18.9774005031
 10
31.1825334914
 20
18.978275104
 10
31.1855801223
 20
18.9791634334
 10
31.188622722
 20
18.9800654732
 10
31.1916612289
 20
18.9809812052
 10
31.1946955812
 20
18.9819106108
 10
31.1977257175
 20
18.98285367119999
 10
31.2007515764
 20
18.9838103672
 10
31.2037730964
 20
18.9847806795
 10
31.2067902162
 20
18.9857645883
 10
31.2098028748
 20
18.9867620738
 10
31.212811011
 20
18.9877731156
 10
31.2158145638
 20
18.9887976933
 10
31.2188134724
 20
18.9898357861
 10
31.2218076758
 20
18.990887373
 10
31.2247971133
 20
18.9919524326
 10
31.2277817245
 20
18.9930309433
 10
31.23076144860001
 20
18.99412288329999
 10
31.2337362254
 20
18.9952282304
 10
31.2367059944
 20
18.9963469621
 10
31.2396706955
 20
18.997479056
 10
31.2426302686
 20
18.9986244888
 10
31.2455846535
 20
18.9997832375
 10
31.2485337905
 20
19.0009552786
 10
31.2514776196
 20
19.0021405881
 10
31.2544160813
 20
19.0033391423
 10
31.2573491159
 20
19.0045509166
 10
31.2602766639
 20
19.0057758866
 10
31.263198666
 20
19.0070140274
 10
31.266115063
 20
19.0082653139
 10
31.2690257956
 20
19.0095297208
 10
31.2719308048
 20
19.0108072223
 10
31.2748300318
 20
19.0120977926
 10
31.2777234178
 20
19.0134014055
 10
31.2806109041
 20
19.0147180346
 10
31.283492432
 20
19.0160476532
 10
31.2863679433
 20
19.0173902342
 10
31.2892373795
 20
19.0187457506
 10
31.2921006826
 20
19.0201141748
 10
31.2949577943
 20
19.021495479
 10
31.2978086569
 20
19.0228896352
 10
31.3006532124
 20
19.0242966153
 10
31.3034914033
 20
19.0257163905
 10
31.3063231718
 20
19.0271489322
 10
31.3091484607
 20
19.0285942113
 10
31.3119672126
 20
19.03005219849999
 10
31.3147793704
 20
19.0315228642
 10
31.317584877
 20
19.0330061786
 10
31.3203836756
 20
19.0345021116
 10
31.3231757094
 20
19.0360106329
 10
31.3259609217
 20
19.0375317119
 10
31.3287392561
 20
19.0390653177
 10
31.3315106563
 20
19.0406114193
 10
31.334275066
 20
19.0421699853
 10
31.3370324292
 20
19.043740984
 10
31.33978269
 20
19.0453243837
 10
31.3425257925
 20
19.0469201523
 10
31.3452616813
 20
19.0485282572
 10
31.3479903008
 20
19.0501486661
 10
31.3507115956
 20
19.0517813459
 10
31.3534255106
 20
19.0534262636
 10
31.3561319908
 20
19.0550833858
 10
31.3588309812
 20
19.056752679
 10
31.3615224272
 20
19.0584341092
 10
31.3642062741
 20
19.0601276424
 10
31.3668824675
 20
19.0618332443
 10
31.3695509532
 20
19.0635508802
 10
31.3722116771
 20
19.0652805153
 10
31.37486458510001
 20
19.0670221145
 10
31.3775096236
 20
19.0687756425
 10
31.3801467388
 20
19.0705410639
 10
31.3827758772
 20
19.0723183427
 10
31.3853969857
 20
19.0741074429
 10
31.3880100109
 20
19.0759083282
 10
31.3906149
 20
19.0777209622
 10
31.39321160000001
 20
19.079545308
 10
31.3958000585
 20
19.0813813287
 10
31.3983802227
 20
19.0832289871
 10
31.4009520405
 20
19.0850882456
 10
31.4035154597
 20
19.0869590666
 10
31.40607042820001
 20
19.0888414121
 10
31.4086168944
 20
19.0907352439
 10
31.4111548065
 20
19.0926405238
 10
31.413684113
 20
19.0945572129
 10
31.4162047628
 20
19.0964852725
 10
31.4187167046
 20
19.0984246634
 10
31.4212198876
 20
19.1003753464
 10
31.4237142609
 20
19.1023372818
 10
31.4261997741
 20
19.1043104299
 10
31.4286763766
 20
19.1062947507
 10
31.4311440183
 20
19.1082902039
 10
31.4336026491
 20
19.1102967491
 10
31.4360522191
 20
19.1123143455
 10
31.4384926788
 20
19.1143429523
 10
31.4409239786
 20
19.1163825284
 10
31.4433460692
 20
19.1184330322
 10
31.4457589014
 20
19.1204944224
 10
31.4481624265
 20
19.1225666571
 10
31.4505565955
 20
19.1246496942
 10
31.45294136
 20
19.1267434915
 10
31.4553166716
 20
19.1288480066
 10
31.4576824822
 20
19.1309631967
 10
31.4600387437
 20
19.1330890191
 10
31.46238540840001
 20
19.1352254305
 10
31.4647224287
 20
19.1373723877
 10
31.4670497572
 20
19.1395298471
 10
31.4693673467
 20
19.1416977649
 10
31.4716751502
 20
19.1438760973
 10
31.4739731209
 20
19.1460648
 10
31.4762612123
 20
19.1482638287
 10
31.4785393778
 20
19.15047313869999
 10
31.4808075714
 20
19.1526926852
 10
31.483065747
 20
19.1549224233
 10
31.4853138588
 20
19.1571623078
 10
31.4875518612
 20
19.1594122931
 10
31.4897797089
 20
19.1616723337
 10
31.4919973567
 20
19.1639423838
 10
31.4942047596
 20
19.1662223973
 10
31.49640187280001
 20
19.1685123279
 10
31.4985886518
 20
19.1708121293
 10
31.5007650523
 20
19.1731217548
 10
31.5029310301
 20
19.1754411576
 10
31.5050865412
 20
19.1777702907
 10
31.5072315421
 20
19.1801091067
 10
31.5093659891
 20
19.1824575583
 10
31.511489839
 20
19.1848155978
 10
31.5136030487
 20
19.1871831775
 10
31.5157055754
 20
19.1895602494
 10
31.5177973764
 20
19.1919467651
 10
31.5198784094
 20
19.1943426764
 10
31.5219486321
 20
19.1967479346
 10
31.5240080025
 20
19.1991624909
 10
31.5260564789
 20
19.2015862965
 10
31.5280940197
 20
19.2040193021
 10
31.5301205836
 20
19.2064614585
 10
31.5321361296
 20
19.208912716
 10
31.5341406167
 20
19.211373025
 10
31.5361340043
 20
19.2138423356
 10
31.538116252
 20
19.2163205977
 10
31.5400873196
 20
19.2188077611
 10
31.542047167
 20
19.2213037753
 10
31.5439957547
 20
19.2238085897
 10
31.545933043
 20
19.2263221535
 10
31.5478589926
 20
19.2288444158
 10
31.5497735646
 20
19.2313753253
 10
31.5516767201
 20
19.2339148308
 10
31.5535684204
 20
19.2364628808
 10
31.5554486273
 20
19.2390194236
 10
31.5573173026
 20
19.2415844074
 10
31.5591744084
 20
19.2441577801
 10
31.561019907
 20
19.2467394895
 10
31.5628537611
 20
19.2493294834
 10
31.5646759334
 20
19.2519277091
 10
31.566486387
 20
19.2545341141
  0
LWPOLYLINE
  5
4B7
330
21C
100
AcDbEntity
  8
0
  6
Continuous
 62
     7
100
AcDbPolyline
 90
      128
 70
     0
 43
0.0
 10
31.566486387
 20
19.2545341141
 10
31.5682850851
 20
19.2571486454
 10
31.5700719914
 20
19.25977125
 10
31.5718470695
 20
19.2624018748
 10
31.5736102835
 20
19.2650404663
 10
31.5753615976
 20
19.2676869712
 10
31.5771009763
 20
19.2703413356
 10
31.5788283843
 20
19.2730035059
 10
31.5805437867
 20
19.275673428
 10
31.5822471485
 20
19.2783510477
 10
31.5839384353
 20
19.2810363108
 10
31.5856176127
 20
19.2837291628
 10
31.5872846468
 20
19.2864295492
 10
31.5889395037
 20
19.289137415
 10
31.5905821499
 20
19.2918527056
 10
31.592212552
 20
19.2945753656
 10
31.593830677
 20
19.2973053401
 10
31.595436492
 20
19.3000425736
 10
31.5970299646
 20
19.3027870105
 10
31.5986110623
 20
19.3055385953
 10
31.60017975320001
 20
19.3082972721
 10
31.6017360054
 20
19.3110629851
 10
31.6032797874
 20
19.313835678
 10
31.60481106780001
 20
19.3166152948
 10
31.6063298156
 20
19.319401779
 10
31.607836
 20
19.322195074
 10
31.60932959050001
 20
19.3249951234
 10
31.6108105568
 20
19.3278018703
 10
31.6122788688
 20
19.3306152577
 10
31.6137344967
 20
19.3334352287
 10
31.6151774111
 20
19.336261726
 10
31.6166075827
 20
19.3390946923
 10
31.6180249825
 20
19.3419340702
 10
31.6194295818
 20
19.3447798021
 10
31.6208213519
 20
19.3476318302
 10
31.6222002649
 20
19.3504900969
 10
31.6235662926
 20
19.353354544
 10
31.6249194073
 20
19.3562251135
 10
31.6262595818
 20
19.3591017472
 10
31.6275867886
 20
19.3619843868
 10
31.628901001
 20
19.3648729738
 10
31.6302021923
 20
19.3677674496
 10
31.6314903361
 20
19.3706677555
 10
31.6327654063
 20
19.3735738328
 10
31.6340273771
 20
19.3764856224
 10
31.6352762227
 20
19.3794030654
 10
31.636511918
 20
19.3823261025
 10
31.6377344378
 20
19.3852546746
 10
31.6389437574
 20
19.3881887221
 10
31.6401398522
 20
19.3911281857
 10
31.641322698
 20
19.3940730057
 10
31.6424922708
 20
19.3970231224
 10
31.6436485469
 20
19.3999784759
 10
31.6447915029
 20
19.4029390064
 10
31.6459211154
 20
19.4059046538
 10
31.6470373618
 20
19.4088753579
 10
31.6481402192
 20
19.4118510586
 10
31.6492296654
 20
19.4148316954
 10
31.6503056783
 20
19.417817208
 10
31.6513682359
 20
19.4208075358
 10
31.6524173169
 20
19.4238026181
 10
31.6534528999
 20
19.4268023942
 10
31.6544749639
 20
19.4298068033
 10
31.6554834882
 20
19.4328157845
 10
31.6564784523
 20
19.4358292767
 10
31.6574598361
 20
19.4388472189
 10
31.6584276197
 20
19.4418695498
 10
31.6593817833
 20
19.4448962081
 10
31.6603223078
 20
19.4479271325
 10
31.661249174
 20
19.4509622615
 10
31.6621623631
 20
19.4540015336
 10
31.6630618566
 20
19.457044887
 10
31.6639476362
 20
19.4600922602
 10
31.6648196841
 20
19.4631435913
 10
31.6656779825
 20
19.4661988185
 10
31.6665225139
 20
19.4692578797
 10
31.6673532614
 20
19.472320713
 10
31.668170208
 20
19.4753872562
 10
31.6689733371
 20
19.4784574471
 10
31.6697626326
 20
19.4815312236
 10
31.6705380783
 20
19.4846085232
 10
31.6712996586
 20
19.48768928359999
 10
31.6720473579
 20
19.4907734422
 10
31.6727811613
 20
19.4938609366
 10
31.67350105360001
 20
19.4969517042
 10
31.6742070205
 20
19.5000456821
 10
31.6748990475
 20
19.5031428078
 10
31.6755771206
 20
19.5062430185
 10
31.6762412261
 20
19.5093462511
 10
31.67689135050001
 20
19.5124524429
 10
31.6775274806
 20
19.5155615307
 10
31.6781496035
 20
19.5186734517
 10
31.6787577066
 20
19.5217881426
 10
31.6793517776
 20
19.5249055404
 10
31.6799318044
 20
19.5280255817
 10
31.6804977753
 20
19.5311482033
 10
31.6810496788
 20
19.534273342
 10
31.6815875036
 20
19.5374009343
 10
31.6821112389
 20
19.5405309167
 10
31.6826208741
 20
19.5436632259
 10
31.6831163989
 20
19.5467977983
 10
31.6835978031
 20
19.5499345704
 10
31.684065077
 20
19.5530734785
 10
31.6845182112
 20
19.556214459
 10
31.6849571964
 20
19.5593574482
 10
31.68538202380001
 20
19.5625023823
 10
31.6857926847
 20
19.5656491976
 10
31.6861891708
 20
19.5687978303
 10
31.6865714741
 20
19.5719482165
 10
31.6869395868
 20
19.5751002923
 10
31.6872935014
 20
19.5782539938
 10
31.68763321090001
 20
19.5814092571
 10
31.6879587082
 20
19.5845660182
 10
31.6882699868
 20
19.587724213
 10
31.6885670404
 20
19.5908837776
 10
31.6888498629
 20
19.5940446478
 10
31.6891184486
 20
19.5972067595
 10
31.68937279210001
 20
19.6003700487
 10
31.6896128883
 20
19.6035344511
 10
31.6898387321
 20
19.6066999027
 10
31.6900503191
 20
19.6098663392
 10
31.690247645
 20
19.6130336963
 10
31.6904307058
 20
19.61620191
 10
31.6905994977
 20
19.6193709159
 10
31.6907540174
 20
19.6225406497
 10
31.6908942616
 20
19.6257110472
 10
31.69102022760001
 20
19.6288820442
 10
31.7831065491
 20
22.2658238566
  0
LINE
  5
4B8
330
21C
100
AcDbEntity
  8
0
  6
Continuous
 62
     7
100
AcDbLine
 10
31.0359490906
 20
18.952261444
 30
0.0
 11
28.2190564588
 21
18.7552851226
 31
0.0
  0
LINE
  5
4B9
330
21C
100
AcDbEntity
  8
0
  6
Continuous
 62
     7
100
AcDbLine
 10
30.4878205288
 20
18.91393256109999
 30
0.0
 11
30.4912150923
 21
18.914177073
 31
0.0
  0
LINE
  5
4BA
330
21C
100
AcDbEntity
  8
0
  6
Continuous
 62
     7
100
AcDbLine
 10
28.0279733326
 20
18.0126238317
 30
0.0
 11
28.0279733326
 21
26.3866395797
 31
0.0
  0
LINE
  5
4BB
330
21C
100
AcDbEntity
  8
0
  6
Continuous
 62
     7
100
AcDbLine
 10
28.1067134901
 20
17.9968758002
 30
0.0
 11
28.1067134901
 21
26.4023876112
 31
0.0
  0
LINE
  5
4BC
330
21C
100
AcDbEntity
  8
0
  6
Continuous
 62
     7
100
AcDbLine
 10
28.1067134901
 20
20.1622301309
 30
0.0
 11
28.2405717578
 21
20.1622301309
 31
0.0
  0
LINE
  5
4BD
330
21C
100
AcDbEntity
  8
0
  6
Continuous
 62
     7
100
AcDbLine
 10
28.1421465609
 20
25.9448553142
 30
0.0
 11
28.1421465609
 21
25.0244348553
 31
0.0
  0
LINE
  5
4BE
330
21C
100
AcDbEntity
  8
0
  6
Continuous
 62
     7
100
AcDbLine
 10
28.1421465609
 20
24.2370332805
 30
0.0
 11
28.1421465609
 21
20.9496317057
 31
0.0
  0
LINE
  5
4BF
330
21C
100
AcDbEntity
  8
0
  6
Continuous
 62
     7
100
AcDbLine
 10
28.1421465609
 20
20.1622301309
 30
0.0
 11
28.1421465609
 21
18.4544080972
 31
0.0
  0
LINE
  5
4C0
330
21C
100
AcDbEntity
  8
0
  6
Continuous
 62
     7
100
AcDbLine
 10
28.1578945924
 20
25.6937261939
 30
0.0
 11
28.1578945924
 21
25.0244348553
 31
0.0
  0
LINE
  5
4C1
330
21C
100
AcDbEntity
  8
0
  6
Continuous
 62
     7
100
AcDbLine
 10
28.1618316003
 20
20.408293123
 30
0.0
 11
28.1618316003
 21
20.7035687136
 31
0.0
  0
LINE
  5
4C2
330
21C
100
AcDbEntity
  8
0
  6
Continuous
 62
     7
100
AcDbLine
 10
28.1618316003
 20
24.4830962726
 30
0.0
 11
28.1618316003
 21
24.7783718632
 31
0.0
  0
LINE
  5
4C3
330
21C
100
AcDbEntity
  8
0
  6
Continuous
 62
     7
100
AcDbLine
 10
28.2602567972
 20
24.7783718632
 30
0.0
 11
28.2602567972
 21
24.4830962726
 31
0.0
  0
LINE
  5
4C4
330
21C
100
AcDbEntity
  8
0
  6
Continuous
 62
     7
100
AcDbLine
 10
28.2602567972
 20
20.7035687136
 30
0.0
 11
28.2602567972
 21
20.408293123
 31
0.0
  0
LINE
  5
4C5
330
21C
100
AcDbEntity
  8
0
  6
Continuous
 62
     7
100
AcDbLine
 10
28.3389969546
 20
18.315773438
 30
0.0
 11
28.3389969546
 21
18.3315214695
 31
0.0
  0
LINE
  5
4C6
330
21C
100
AcDbEntity
  8
0
  6
Continuous
 62
     7
100
AcDbLine
 10
28.3389969546
 20
20.2606553278
 30
0.0
 11
28.3389969546
 21
20.8512065089
 31
0.0
  0
LINE
  5
4C7
330
21C
100
AcDbEntity
  8
0
  6
Continuous
 62
     7
100
AcDbLine
 10
28.3389969546
 20
24.3354584774
 30
0.0
 11
28.3389969546
 21
24.9260096585
 31
0.0
  0
LINE
  5
4C8
330
21C
100
AcDbEntity
  8
0
  6
Continuous
 62
     7
100
AcDbLine
 10
28.3389969546
 20
26.0677419419
 30
0.0
 11
28.3389969546
 21
26.0834899734
 31
0.0
  0
LINE
  5
4C9
330
21C
100
AcDbEntity
  8
0
  6
Continuous
 62
     7
100
AcDbLine
 10
28.2602567972
 20
20.408293123
 30
0.0
 11
28.1618316003
 21
20.408293123
 31
0.0
  0
LINE
  5
4CA
330
21C
100
AcDbEntity
  8
0
  6
Continuous
 62
     7
100
AcDbLine
 10
28.1618316003
 20
20.7035687136
 30
0.0
 11
28.2602567972
 21
20.7035687136
 31
0.0
  0
LINE
  5
4CB
330
21C
100
AcDbEntity
  8
0
  6
Continuous
 62
     7
100
AcDbLine
 10
28.1067134901
 20
20.9496317057
 30
0.0
 11
28.2405717578
 21
20.9496317057
 31
0.0
  0
LINE
  5
4CC
330
21C
100
AcDbEntity
  8
0
  6
Continuous
 62
     7
100
AcDbLine
 10
31.1866039623
 20
23.5440229972
 30
0.0
 11
31.192555368
 21
23.3735970351
 31
0.0
  0
LINE
  5
4CD
330
21C
100
AcDbEntity
  8
0
  6
Continuous
 62
     7
100
AcDbLine
 10
31.2720678208
 20
23.077365739
 30
0.0
 11
31.2720678208
 21
21.3022126331
 31
0.0
  0
LINE
  5
4CE
330
21C
100
AcDbEntity
  8
0
  6
Continuous
 62
     7
100
AcDbLine
 10
31.143190698
 20
19.5923621434
 30
0.0
 11
31.192555368
 21
21.0059813369
 31
0.0
  0
LINE
  5
4CF
330
21C
100
AcDbEntity
  8
0
  6
Continuous
 62
     7
100
AcDbLine
 10
31.2208599855
 20
21.074622254
 30
0.0
 11
31.2720678208
 21
21.3022126331
 31
0.0
  0
LINE
  5
4D0
330
21C
100
AcDbEntity
  8
0
  6
Continuous
 62
     7
100
AcDbLine
 10
31.7932449561
 20
22.2979554379
 30
0.0
 11
31.8011507073
 21
22.3101181321
 31
0.0
  0
LINE
  5
4D1
330
21C
100
AcDbEntity
  8
0
  6
Continuous
 62
     7
100
AcDbLine
 10
28.1067134901
 20
18.3879905472
 30
0.0
 11
28.1202372257
 21
18.4015142828
 31
0.0
  0
LINE
  5
4D2
330
21C
100
AcDbEntity
  8
0
  6
Continuous
 62
     7
100
AcDbLine
 10
28.1202372257
 20
25.9977491286
 30
0.0
 11
28.1067134901
 21
26.01127286420001
 31
0.0
  0
LINE
  5
4D3
330
21C
100
AcDbEntity
  8
0
  6
Continuous
 62
     7
100
AcDbLine
 10
31.2208599855
 20
23.3049561181
 30
0.0
 11
31.2720678208
 21
23.077365739
 31
0.0
  0
LINE
  5
4D4
330
21C
100
AcDbEntity
  8
0
  6
Continuous
 62
     7
100
AcDbLine
 10
31.8114111666
 20
22.3344647737
 30
0.0
 11
31.8626190019
 21
22.5620551528
 31
0.0
  0
LINE
  5
4D5
330
21C
100
AcDbEntity
  8
0
  6
Continuous
 62
     7
100
AcDbLine
 10
31.202693775
 20
21.0381129183
 30
0.0
 11
31.2105995262
 21
21.0502756124
 31
0.0
  0
LINE
  5
4D6
330
21C
100
AcDbEntity
  8
0
  6
Continuous
 62
     7
100
AcDbLine
 10
31.202693775
 20
23.3414654538
 30
0.0
 11
31.2105995262
 21
23.3293027596
 31
0.0
  0
LINE
  5
4D7
330
21C
100
AcDbEntity
  8
0
  6
Continuous
 62
     7
100
AcDbLine
 10
31.7786007392
 20
24.7624690696
 30
0.0
 11
31.7831065491
 21
24.6334395548
 31
0.0
  0
LINE
  5
4D8
330
21C
100
AcDbEntity
  8
0
  6
Continuous
 62
     7
100
AcDbLine
 10
31.8626190019
 20
24.3372082586
 30
0.0
 11
31.8626190019
 21
22.5620551528
 31
0.0
  0
LINE
  5
4D9
330
21C
100
AcDbEntity
  8
0
  6
Continuous
 62
     7
100
AcDbLine
 10
28.1067134901
 20
24.2370332805
 30
0.0
 11
28.2405717578
 21
24.2370332805
 31
0.0
  0
LINE
  5
4DA
330
21C
100
AcDbEntity
  8
0
  6
Continuous
 62
     7
100
AcDbLine
 10
28.3389969546
 20
24.37574871260001
 30
0.0
 11
30.5314679948
 21
24.2224362025
 31
0.0
  0
LINE
  5
4DB
330
21C
100
AcDbEntity
  8
0
  6
Continuous
 62
     7
100
AcDbLine
 10
28.2602567972
 20
24.4830962726
 30
0.0
 11
28.1618316003
 21
24.4830962726
 31
0.0
  0
LINE
  5
4DC
330
21C
100
AcDbEntity
  8
0
  6
Continuous
 62
     7
100
AcDbLine
 10
31.8114111666
 20
24.5647986377
 30
0.0
 11
31.8626190019
 21
24.3372082586
 31
0.0
  0
LINE
  5
4DD
330
21C
100
AcDbEntity
  8
0
  6
Continuous
 62
     7
100
AcDbLine
 10
28.1618316003
 20
24.7783718632
 30
0.0
 11
28.2602567972
 21
24.7783718632
 31
0.0
  0
LINE
  5
4DE
330
21C
100
AcDbEntity
  8
0
  6
Continuous
 62
     7
100
AcDbLine
 10
28.1067134901
 20
25.0244348553
 30
0.0
 11
28.2405717578
 21
25.0244348553
 31
0.0
  0
LINE
  5
4DF
330
21C
100
AcDbEntity
  8
0
  6
Continuous
 62
     7
100
AcDbLine
 10
31.7932449561
 20
24.6013079735
 30
0.0
 11
31.8011507073
 21
24.5891452793
 31
0.0
  0
LINE
  5
4E0
330
21C
100
AcDbEntity
  8
0
  6
Continuous
 62
     7
100
AcDbLine
 10
28.2190564588
 20
25.6439782888
 30
0.0
 11
31.1234645468
 21
25.4408822906
 31
0.0
  0
LINE
  5
4E1
330
21C
100
AcDbEntity
  8
0
  6
Continuous
 62
     7
100
AcDbLine
 10
28.1421465609
 20
25.6937261939
 30
0.0
 11
28.1578945924
 21
25.6937261939
 31
0.0
  0
LINE
  5
4E2
330
21C
100
AcDbEntity
  8
0
  6
Continuous
 62
     7
100
AcDbLine
 10
28.3389969546
 20
26.0677419419
 30
0.0
 11
28.1067134901
 21
26.0677419419
 31
0.0
  0
LINE
  5
4E3
330
21C
100
AcDbEntity
  8
0
  6
Continuous
 62
     7
100
AcDbLine
 10
28.1067134901
 20
26.0834899734
 30
0.0
 11
28.3389969546
 21
26.0834899734
 31
0.0
  0
LINE
  5
4E4
330
21C
100
AcDbEntity
  8
0
  6
Continuous
 62
     7
100
AcDbLine
 10
28.1067134901
 20
26.4023876112
 30
0.0
 11
28.0437213641
 21
26.4023876112
 31
0.0
  0
ARC
  5
542
330
21C
100
AcDbEntity
  8
0
  6
Continuous
 62
     7
100
AcDbCircle
 10
31.0743056288
 20
24.7378745424
 30
0.0
 40
0.7047244094
100
AcDbArc
 50
2.0
 51
86.0
  0
ARC
  5
543
330
21C
100
AcDbEntity
  8
0
  6
Continuous
 62
     7
100
AcDbCircle
 10
30.4823088519
 20
23.51942847
 30
0.0
 40
0.7047244094
100
AcDbArc
 50
2.0
 51
86.0
  0
ARC
  5
544
330
21C
100
AcDbEntity
  8
0
  6
Continuous
 62
     7
100
AcDbCircle
 10
28.2405717578
 20
24.9260096585
 30
0.0
 40
0.0984251969
100
AcDbArc
 50
0.0
 51
90.0
  0
ARC
  5
545
330
21C
100
AcDbEntity
  8
0
  6
Continuous
 62
     7
100
AcDbCircle
 10
28.2405717578
 20
24.3354584774
 30
0.0
 40
0.0984251969
100
AcDbArc
 50
270.0
 51
360.0
  0
ARC
  5
546
330
21C
100
AcDbEntity
  8
0
  6
Continuous
 62
     7
100
AcDbCircle
 10
28.2405717578
 20
20.8512065089
 30
0.0
 40
0.0984251969
100
AcDbArc
 50
0.0
 51
90.0
  0
ARC
  5
547
330
21C
100
AcDbEntity
  8
0
  6
Continuous
 62
     7
100
AcDbCircle
 10
28.2405717578
 20
20.2606553278
 30
0.0
 40
0.0984251969
100
AcDbArc
 50
270.0
 51
360.0
  0
ARC
  5
548
330
21C
100
AcDbEntity
  8
0
  6
Continuous
 62
     7
100
AcDbCircle
 10
28.2248237263
 20
18.6728093547
 30
0.0
 40
0.0826771654
100
AcDbArc
 50
94.0
 51
180.0
  0
ARC
  5
549
330
21C
100
AcDbEntity
  8
0
  6
Continuous
 62
     7
100
AcDbCircle
 10
28.2248237263
 20
25.7264540567
 30
0.0
 40
0.0826771654
100
AcDbArc
 50
180.0
 51
203.3192497619
  0
ARC
  5
54A
330
21C
100
AcDbEntity
  8
0
  6
Continuous
 62
     7
100
AcDbCircle
 10
28.2248237263
 20
25.7264540567
 30
0.0
 40
0.0826771654
100
AcDbArc
 50
215.9505163582
 51
266.0
  0
ARC
  5
54B
330
21C
100
AcDbEntity
  8
0
  6
Continuous
 62
     7
100
AcDbCircle
 10
28.0673434113
 20
25.9448553142
 30
0.0
 40
0.0748031496
100
AcDbArc
 50
0.0
 51
45.0
  0
ARC
  5
54C
330
21C
100
AcDbEntity
  8
0
  6
Continuous
 62
     7
100
AcDbCircle
 10
31.147881303
 20
23.2885359145
 30
0.0
 40
0.0748031496
100
AcDbArc
 50
12.6803834918
 51
33.02386755580001
  0
ARC
  5
54D
330
21C
100
AcDbEntity
  8
0
  6
Continuous
 62
     7
100
AcDbCircle
 10
31.147881303
 20
21.0910424576
 30
0.0
 40
0.0748031496
100
AcDbArc
 50
326.9761324442
 51
347.3196165082
  0
ARC
  5
54E
330
21C
100
AcDbEntity
  8
0
  6
Continuous
 62
     7
100
AcDbCircle
 10
31.7384324841
 20
24.5483784342
 30
0.0
 40
0.0748031496
100
AcDbArc
 50
12.6803834918
 51
33.02386755580001
  0
ARC
  5
54F
330
21C
100
AcDbEntity
  8
0
  6
Continuous
 62
     7
100
AcDbCircle
 10
31.7384324841
 20
22.3508849772
 30
0.0
 40
0.0748031496
100
AcDbArc
 50
326.9761324442
 51
347.3196165082
  0
ARC
  5
550
330
21C
100
AcDbEntity
  8
0
  6
Continuous
 62
     7
100
AcDbCircle
 10
28.0673434113
 20
18.4544080972
 30
0.0
 40
0.0748031496
100
AcDbArc
 50
315.0
 51
360.0
  0
ARC
  5
551
330
21C
100
AcDbEntity
  8
0
  6
Continuous
 62
     7
100
AcDbCircle
 10
31.846060302
 20
24.6356379483
 30
0.0
 40
0.062992126
100
AcDbArc
 50
182.0
 51
213.0238675558
  0
ARC
  5
552
330
21C
100
AcDbEntity
  8
0
  6
Continuous
 62
     7
100
AcDbCircle
 10
31.846060302
 20
22.2636254631
 30
0.0
 40
0.062992126
100
AcDbArc
 50
146.9761324442
 51
178.0
  0
ARC
  5
553
330
21C
100
AcDbEntity
  8
0
  6
Continuous
 62
     7
100
AcDbCircle
 10
31.2555091209
 20
23.3757954286
 30
0.0
 40
0.062992126
100
AcDbArc
 50
182.0
 51
213.0238675558
  0
ARC
  5
554
330
21C
100
AcDbEntity
  8
0
  6
Continuous
 62
     7
100
AcDbCircle
 10
31.2555091209
 20
21.0037829434
 30
0.0
 40
0.062992126
100
AcDbArc
 50
146.9761324442
 51
178.0
  0
ARC
  5
555
330
21C
100
AcDbEntity
  8
0
  6
Continuous
 62
     7
100
AcDbCircle
 10
28.0437213641
 20
18.0126238317
 30
0.0
 40
0.0157480315
100
AcDbArc
 50
180.0
 51
270.0
  0
ARC
  5
556
330
21C
100
AcDbEntity
  8
0
  6
Continuous
 62
     7
100
AcDbCircle
 10
28.0437213641
 20
26.3866395797
 30
0.0
 40
0.0157480315
100
AcDbArc
 50
90.0
 51
180.0
  0
ENDSEC
  0
SECTION
  2
OBJECTS
  0
DICTIONARY
  5
C
330
0
100
AcDbDictionary
281
     1
  3
ACAD_COLOR
350
5D5
  3
ACAD_GROUP
350
D
  3
ACAD_LAYOUT
350
1A
  3
ACAD_MATERIAL
350
5AB
  3
ACAD_MLEADERSTYLE
350
5F8
  3
ACAD_MLINESTYLE
350
17
  3
ACAD_PLOTSETTINGS
350
19
  3
ACAD_PLOTSTYLENAME
350
E
  3
ACAD_SCALELIST
350
5D6
  3
ACAD_TABLESTYLE
350
5A4
  3
ACAD_VISUALSTYLE
350
5C4
  3
ACDB_RECOMPOSE_DATA
350
611
  3
AcDbVariableDictionary
350
612
  3
DWGPROPS
350
659
  0
DICTIONARY
  5
61D
330
10
100
AcDbDictionary
280
     1
281
     1
  3
ADSK_XREC_LAYER_RECONCILED
360
61E
  0
DICTIONARY
  5
61F
330
1FA
100
AcDbDictionary
280
     1
281
     1
  3
ADSK_XREC_LAYER_RECONCILED
360
620
  0
DICTIONARY
  5
621
330
1FB
100
AcDbDictionary
280
     1
281
     1
  3
ADSK_XREC_LAYER_RECONCILED
360
622
  0
DICTIONARY
  5
623
330
1FC
100
AcDbDictionary
280
     1
281
     1
  3
ADSK_XREC_LAYER_RECONCILED
360
624
  0
DICTIONARY
  5
625
330
1FD
100
AcDbDictionary
280
     1
281
     1
  3
ADSK_XREC_LAYER_RECONCILED
360
626
  0
DICTIONARY
  5
627
330
1FE
100
AcDbDictionary
280
     1
281
     1
  3
ADSK_XREC_LAYER_RECONCILED
360
628
  0
DICTIONARY
  5
629
330
1FF
100
AcDbDictionary
280
     1
281
     1
  3
ADSK_XREC_LAYER_RECONCILED
360
62A
  0
DICTIONARY
  5
62B
330
200
100
AcDbDictionary
280
     1
281
     1
  3
ADSK_XREC_LAYER_RECONCILED
360
62C
  0
DICTIONARY
  5
62D
330
201
100
AcDbDictionary
280
     1
281
     1
  3
ADSK_XREC_LAYER_RECONCILED
360
62E
  0
DICTIONARY
  5
62F
330
202
100
AcDbDictionary
280
     1
281
     1
  3
ADSK_XREC_LAYER_RECONCILED
360
630
  0
DICTIONARY
  5
631
330
203
100
AcDbDictionary
280
     1
281
     1
  3
ADSK_XREC_LAYER_RECONCILED
360
632
  0
DICTIONARY
  5
633
330
204
100
AcDbDictionary
280
     1
281
     1
  3
ADSK_XREC_LAYER_RECONCILED
360
634
  0
DICTIONARY
  5
635
330
205
100
AcDbDictionary
280
     1
281
     1
  3
ADSK_XREC_LAYER_RECONCILED
360
636
  0
DICTIONARY
  5
637
330
206
100
AcDbDictionary
280
     1
281
     1
  3
ADSK_XREC_LAYER_RECONCILED
360
638
  0
DICTIONARY
  5
639
330
207
100
AcDbDictionary
280
     1
281
     1
  3
ADSK_XREC_LAYER_RECONCILED
360
63A
  0
DICTIONARY
  5
63B
330
208
100
AcDbDictionary
280
     1
281
     1
  3
ADSK_XREC_LAYER_RECONCILED
360
63C
  0
DICTIONARY
  5
5D5
102
{ACAD_REACTORS
330
C
102
}
330
C
100
AcDbDictionary
281
     1
  0
DICTIONARY
  5
D
102
{ACAD_REACTORS
330
C
102
}
330
C
100
AcDbDictionary
281
     1
  0
DICTIONARY
  5
1A
102
{ACAD_REACTORS
330
C
102
}
330
C
100
AcDbDictionary
281
     1
  3
Layout1
350
5A6
  3
Model
350
5A5
  0
DICTIONARY
  5
5AB
102
{ACAD_REACTORS
330
C
102
}
330
C
100
AcDbDictionary
281
     1
  3
ByBlock
350
5B4
  3
ByLayer
350
5AC
  3
Global
350
5BC
  0
DICTIONARY
  5
5F8
102
{ACAD_REACTORS
330
C
102
}
330
C
100
AcDbDictionary
281
     1
  3
Standard
350
5F9
  0
DICTIONARY
  5
17
102
{ACAD_REACTORS
330
C
102
}
330
C
100
AcDbDictionary
281
     1
  3
Standard
350
18
  0
DICTIONARY
  5
19
102
{ACAD_REACTORS
330
C
102
}
330
C
100
AcDbDictionary
281
     1
  0
ACDBDICTIONARYWDFLT
  5
E
102
{ACAD_REACTORS
330
C
102
}
330
C
100
AcDbDictionary
281
     1
  3
Normal
350
F
100
AcDbDictionaryWithDefault
340
F
  0
DICTIONARY
  5
5D6
102
{ACAD_REACTORS
330
C
102
}
330
C
100
AcDbDictionary
281
     1
  3
A0
350
5D7
  3
A1
350
5D8
  3
A2
350
5D9
  3
A3
350
5DA
  3
A4
350
5DB
  3
A5
350
5DC
  3
A6
350
5DD
  3
A7
350
5DE
  3
A8
350
5DF
  3
A9
350
5E0
  3
B0
350
5E1
  3
B1
350
5E2
  3
B2
350
5E3
  3
B3
350
5E4
  3
B4
350
5E5
  3
B5
350
5E6
  3
B6
350
5E7
  3
B7
350
5E8
  3
B8
350
5E9
  3
B9
350
5EA
  3
C0
350
5EB
  3
C1
350
5EC
  3
C2
350
5ED
  3
C3
350
5EE
  3
C4
350
5EF
  3
C5
350
5F0
  3
C6
350
5F1
  3
C7
350
5F2
  3
C8
350
5F3
  3
C9
350
5F4
  3
D0
350
5F5
  3
D1
350
5F6
  3
D2
350
5F7
  0
DICTIONARY
  5
5A4
330
C
100
AcDbDictionary
281
     1
  3
Standard
350
5A7
  3
Standard1
350
5A8
  0
DICTIONARY
  5
5C4
102
{ACAD_REACTORS
330
C
102
}
330
C
100
AcDbDictionary
281
     1
  3
2dWireframe
350
5CA
  3
3D Hidden
350
5CC
  3
3dWireframe
350
5CB
  3
Basic
350
5C9
  3
Brighten
350
5D0
  3
ColorChange
350
5D4
  3
Conceptual
350
5CD
  3
Dim
350
5CF
  3
Facepattern
350
5D3
  3
Flat
350
5C5
  3
FlatWithEdges
350
5C6
  3
Gouraud
350
5C7
  3
GouraudWithEdges
350
5C8
  3
Linepattern
350
5D2
  3
Realistic
350
5CE
  3
Thicken
350
5D1
  0
XRECORD
  5
611
102
{ACAD_REACTORS
330
C
102
}
330
C
100
AcDbXrecord
280
     1
 90
        1
330
5A7
330
5A8
  0
DICTIONARY
  5
612
102
{ACAD_REACTORS
330
C
102
}
330
C
100
AcDbDictionary
281
     1
  3
CANNOSCALE
350
615
  3
CMLEADERSTYLE
350
614
  3
CTABLESTYLE
350
613
  3
DIMASSOC
350
656
  3
HIDETEXT
350
655
  3
INDEXCTL
350
654
  3
LIGHTINGUNITS
350
652
  3
MSLTSCALE
350
651
  3
SORTENTS
350
653
  0
XRECORD
  5
659
102
{ACAD_REACTORS
330
C
102
}
330
C
100
AcDbXrecord
280
     1
  1
DWGPROPS COOKIE
  2

  3

  4

  6

  7

  8
ko58941
  9

300
=
301
=
302
=
303
=
304
=
305
=
306
=
307
=
308
=
309
=
 40
0.0002554166666667
 41
2455637.650741967
 42
2455637.653864167
  1

 90
        0
  0
XRECORD
  5
61E
102
{ACAD_REACTORS
330
61D
102
}
330
61D
100
AcDbXrecord
280
     1
290
     1
  0
XRECORD
  5
620
102
{ACAD_REACTORS
330
61F
102
}
330
61F
100
AcDbXrecord
280
     1
290
     1
  0
XRECORD
  5
622
102
{ACAD_REACTORS
330
621
102
}
330
621
100
AcDbXrecord
280
     1
290
     1
  0
XRECORD
  5
624
102
{ACAD_REACTORS
330
623
102
}
330
623
100
AcDbXrecord
280
     1
290
     1
  0
XRECORD
  5
626
102
{ACAD_REACTORS
330
625
102
}
330
625
100
AcDbXrecord
280
     1
290
     1
  0
XRECORD
  5
628
102
{ACAD_REACTORS
330
627
102
}
330
627
100
AcDbXrecord
280
     1
290
     1
  0
XRECORD
  5
62A
102
{ACAD_REACTORS
330
629
102
}
330
629
100
AcDbXrecord
280
     1
290
     1
  0
XRECORD
  5
62C
102
{ACAD_REACTORS
330
62B
102
}
330
62B
100
AcDbXrecord
280
     1
290
     1
  0
XRECORD
  5
62E
102
{ACAD_REACTORS
330
62D
102
}
330
62D
100
AcDbXrecord
280
     1
290
     1
  0
XRECORD
  5
630
102
{ACAD_REACTORS
330
62F
102
}
330
62F
100
AcDbXrecord
280
     1
290
     1
  0
XRECORD
  5
632
102
{ACAD_REACTORS
330
631
102
}
330
631
100
AcDbXrecord
280
     1
290
     1
  0
XRECORD
  5
634
102
{ACAD_REACTORS
330
633
102
}
330
633
100
AcDbXrecord
280
     1
290
     1
  0
XRECORD
  5
636
102
{ACAD_REACTORS
330
635
102
}
330
635
100
AcDbXrecord
280
     1
290
     1
  0
XRECORD
  5
638
102
{ACAD_REACTORS
330
637
102
}
330
637
100
AcDbXrecord
280
     1
290
     1
  0
XRECORD
  5
63A
102
{ACAD_REACTORS
330
639
102
}
330
639
100
AcDbXrecord
280
     1
290
     1
  0
XRECORD
  5
63C
102
{ACAD_REACTORS
330
63B
102
}
330
63B
100
AcDbXrecord
280
     1
290
     1
  0
LAYOUT
  5
5A6
102
{ACAD_XDICTIONARY
360
65C
102
}
102
{ACAD_REACTORS
330
1A
102
}
330
1A
100
AcDbPlotSettings
  1

  2
none_device
  4
ANSI_E_(44.00_x_34.00_Inches)
  6

 40
0.0
 41
0.0
 42
0.0
 43
0.0
 44
1117.6
 45
863.6000000000001
 46
0.0
 47
0.0
 48
0.0
 49
0.0
140
0.0
141
0.0
142
1.0
143
1.0
 70
     0
 72
     0
 73
     0
 74
     0
  7

 75
     0
147
1.0
148
0.0
149
0.0
100
AcDbLayout
  1
Layout1
 70
     1
 71
     1
 10
0.0
 20
0.0
 11
12.0
 21
9.0
 12
0.0
 22
0.0
 32
0.0
 14
1.000000000000000E+20
 24
1.000000000000000E+20
 34
1.000000000000000E+20
 15
-1.000000000000000E+20
 25
-1.000000000000000E+20
 35
-1.000000000000000E+20
146
0.0
 13
0.0
 23
0.0
 33
0.0
 16
1.0
 26
0.0
 36
0.0
 17
0.0
 27
1.0
 37
0.0
 76
     0
330
21D
  0
LAYOUT
  5
5A5
102
{ACAD_XDICTIONARY
360
65A
102
}
102
{ACAD_REACTORS
330
1A
102
}
330
1A
100
AcDbPlotSettings
  1

  2
none_device
  4
ANSI_E_(44.00_x_34.00_Inches)
  6

 40
0.0
 41
0.0
 42
0.0
 43
0.0
 44
1117.6
 45
863.6000000000001
 46
0.0
 47
0.0
 48
0.0
 49
0.0
140
0.0
141
0.0
142
1.0
143
1.0
 70
  1024
 72
     0
 73
     0
 74
     0
  7

 75
     0
147
1.0
148
0.0
149
0.0
100
AcDbLayout
  1
Model
 70
     0
 71
     0
 10
0.0
 20
0.0
 11
44.0
 21
34.0
 12
0.0
 22
0.0
 32
0.0
 14
0.0
 24
0.0
 34
0.0
 15
0.0
 25
0.0
 35
0.0
146
0.0
 13
0.0
 23
0.0
 33
0.0
 16
1.0
 26
0.0
 36
0.0
 17
0.0
 27
1.0
 37
0.0
 76
     0
330
21C
331
1F4
  0
MATERIAL
  5
5B4
102
{ACAD_XDICTIONARY
360
5B5
102
}
102
{ACAD_REACTORS
330
5AB
102
}
330
5AB
100
AcDbMaterial
  1
ByBlock
 72
     0
 43
0.0208333333333333
 43
0.0
 43
0.0
 43
0.0
 43
0.0
 43
0.0208333333333333
 43
0.0
 43
0.0
 43
0.0
 43
0.0
 43
1.0
 43
0.0
 43
0.0
 43
0.0
 43
0.0
 43
1.0
 77
     0
 47
0.0208333333333333
 47
0.0
 47
0.0
 47
0.0
 47
0.0
 47
0.0208333333333333
 47
0.0
 47
0.0
 47
0.0
 47
0.0
 47
1.0
 47
0.0
 47
0.0
 47
0.0
 47
0.0
 47
1.0
171
     0
 49
0.0208333333333333
 49
0.0
 49
0.0
 49
0.0
 49
0.0
 49
0.0208333333333333
 49
0.0
 49
0.0
 49
0.0
 49
0.0
 49
1.0
 49
0.0
 49
0.0
 49
0.0
 49
0.0
 49
1.0
175
     0
142
0.0208333333333333
142
0.0
142
0.0
142
0.0
142
0.0
142
0.0208333333333333
142
0.0
142
0.0
142
0.0
142
0.0
142
1.0
142
0.0
142
0.0
142
0.0
142
0.0
142
1.0
179
     0
144
0.0208333333333333
144
0.0
144
0.0
144
0.0
144
0.0
144
0.0208333333333333
144
0.0
144
0.0
144
0.0
144
0.0
144
1.0
144
0.0
144
0.0
144
0.0
144
0.0
144
1.0
147
0.0208333333333333
147
0.0
147
0.0
147
0.0
147
0.0
147
0.0208333333333333
147
0.0
147
0.0
147
0.0
147
0.0
147
1.0
147
0.0
147
0.0
147
0.0
147
0.0
147
1.0
  0
MATERIAL
  5
5AC
102
{ACAD_XDICTIONARY
360
5AD
102
}
102
{ACAD_REACTORS
330
5AB
102
}
330
5AB
100
AcDbMaterial
  1
ByLayer
 72
     0
 43
0.0208333333333333
 43
0.0
 43
0.0
 43
0.0
 43
0.0
 43
0.0208333333333333
 43
0.0
 43
0.0
 43
0.0
 43
0.0
 43
1.0
 43
0.0
 43
0.0
 43
0.0
 43
0.0
 43
1.0
 77
     0
 47
0.0208333333333333
 47
0.0
 47
0.0
 47
0.0
 47
0.0
 47
0.0208333333333333
 47
0.0
 47
0.0
 47
0.0
 47
0.0
 47
1.0
 47
0.0
 47
0.0
 47
0.0
 47
0.0
 47
1.0
171
     0
 49
0.0208333333333333
 49
0.0
 49
0.0
 49
0.0
 49
0.0
 49
0.0208333333333333
 49
0.0
 49
0.0
 49
0.0
 49
0.0
 49
1.0
 49
0.0
 49
0.0
 49
0.0
 49
0.0
 49
1.0
175
     0
142
0.0208333333333333
142
0.0
142
0.0
142
0.0
142
0.0
142
0.0208333333333333
142
0.0
142
0.0
142
0.0
142
0.0
142
1.0
142
0.0
142
0.0
142
0.0
142
0.0
142
1.0
179
     0
144
0.0208333333333333
144
0.0
144
0.0
144
0.0
144
0.0
144
0.0208333333333333
144
0.0
144
0.0
144
0.0
144
0.0
144
1.0
144
0.0
144
0.0
144
0.0
144
0.0
144
1.0
147
0.0208333333333333
147
0.0
147
0.0
147
0.0
147
0.0
147
0.0208333333333333
147
0.0
147
0.0
147
0.0
147
0.0
147
1.0
147
0.0
147
0.0
147
0.0
147
0.0
147
1.0
  0
MATERIAL
  5
5BC
102
{ACAD_XDICTIONARY
360
5BD
102
}
102
{ACAD_REACTORS
330
5AB
102
}
330
5AB
100
AcDbMaterial
  1
Global
 72
     0
 43
0.0208333333333333
 43
0.0
 43
0.0
 43
0.0
 43
0.0
 43
0.0208333333333333
 43
0.0
 43
0.0
 43
0.0
 43
0.0
 43
1.0
 43
0.0
 43
0.0
 43
0.0
 43
0.0
 43
1.0
 77
     0
 47
0.0208333333333333
 47
0.0
 47
0.0
 47
0.0
 47
0.0
 47
0.0208333333333333
 47
0.0
 47
0.0
 47
0.0
 47
0.0
 47
1.0
 47
0.0
 47
0.0
 47
0.0
 47
0.0
 47
1.0
171
     0
 49
0.0208333333333333
 49
0.0
 49
0.0
 49
0.0
 49
0.0
 49
0.0208333333333333
 49
0.0
 49
0.0
 49
0.0
 49
0.0
 49
1.0
 49
0.0
 49
0.0
 49
0.0
 49
0.0
 49
1.0
175
     0
142
0.0208333333333333
142
0.0
142
0.0
142
0.0
142
0.0
142
0.0208333333333333
142
0.0
142
0.0
142
0.0
142
0.0
142
1.0
142
0.0
142
0.0
142
0.0
142
0.0
142
1.0
179
     0
144
0.0208333333333333
144
0.0
144
0.0
144
0.0
144
0.0
144
0.0208333333333333
144
0.0
144
0.0
144
0.0
144
0.0
144
1.0
144
0.0
144
0.0
144
0.0
144
0.0
144
1.0
147
0.0208333333333333
147
0.0
147
0.0
147
0.0
147
0.0
147
0.0208333333333333
147
0.0
147
0.0
147
0.0
147
0.0
147
1.0
147
0.0
147
0.0
147
0.0
147
0.0
147
1.0
  0
MLEADERSTYLE
  5
5F9
102
{ACAD_REACTORS
330
5F8
102
}
330
5F8
100
AcDbMLeaderStyle
170
     2
171
     1
172
     0
 90
        2
 40
0.0
 41
0.0
173
     1
 91
-1056964608
340
14
 92
       -2
290
     1
 42
0.09
291
     1
 43
0.36
  3
Standard
 44
0.18
300

342
11
174
     1
178
     6
175
     1
176
     0
 93
-1056964608
 45
0.18
292
     0
297
     0
 46
0.18
 94
-1056964608
 47
1.0
 49
1.0
140
1.0
293
     1
141
0.0
294
     1
177
     0
142
1.0
295
     0
296
     0
143
0.125
1001
ACAD_MLEADERVER
1070
     2
  0
MLINESTYLE
  5
18
102
{ACAD_REACTORS
330
17
102
}
330
17
100
AcDbMlineStyle
  2
STANDARD
 70
     0
  3

 62
   256
 51
90.0
 52
90.0
 71
     2
 49
0.5
 62
   256
  6
BYLAYER
 49
-0.5
 62
   256
  6
BYLAYER
  0
ACDBPLACEHOLDER
  5
F
102
{ACAD_REACTORS
330
E
102
}
330
E
  0
SCALE
  5
5D7
102
{ACAD_REACTORS
330
5D6
102
}
330
5D6
100
AcDbScale
 70
     0
300
1:1
140
1.0
141
1.0
290
     1
  0
SCALE
  5
5D8
102
{ACAD_REACTORS
330
5D6
102
}
330
5D6
100
AcDbScale
 70
     0
300
1:2
140
1.0
141
2.0
290
     0
  0
SCALE
  5
5D9
102
{ACAD_REACTORS
330
5D6
102
}
330
5D6
100
AcDbScale
 70
     0
300
1:4
140
1.0
141
4.0
290
     0
  0
SCALE
  5
5DA
102
{ACAD_REACTORS
330
5D6
102
}
330
5D6
100
AcDbScale
 70
     0
300
1:5
140
1.0
141
5.0
290
     0
  0
SCALE
  5
5DB
102
{ACAD_REACTORS
330
5D6
102
}
330
5D6
100
AcDbScale
 70
     0
300
1:8
140
1.0
141
8.0
290
     0
  0
SCALE
  5
5DC
102
{ACAD_REACTORS
330
5D6
102
}
330
5D6
100
AcDbScale
 70
     0
300
1:10
140
1.0
141
10.0
290
     0
  0
SCALE
  5
5DD
102
{ACAD_REACTORS
330
5D6
102
}
330
5D6
100
AcDbScale
 70
     0
300
1:16
140
1.0
141
16.0
290
     0
  0
SCALE
  5
5DE
102
{ACAD_REACTORS
330
5D6
102
}
330
5D6
100
AcDbScale
 70
     0
300
1:20
140
1.0
141
20.0
290
     0
  0
SCALE
  5
5DF
102
{ACAD_REACTORS
330
5D6
102
}
330
5D6
100
AcDbScale
 70
     0
300
1:30
140
1.0
141
30.0
290
     0
  0
SCALE
  5
5E0
102
{ACAD_REACTORS
330
5D6
102
}
330
5D6
100
AcDbScale
 70
     0
300
1:40
140
1.0
141
40.0
290
     0
  0
SCALE
  5
5E1
102
{ACAD_REACTORS
330
5D6
102
}
330
5D6
100
AcDbScale
 70
     0
300
1:50
140
1.0
141
50.0
290
     0
  0
SCALE
  5
5E2
102
{ACAD_REACTORS
330
5D6
102
}
330
5D6
100
AcDbScale
 70
     0
300
1:100
140
1.0
141
100.0
290
     0
  0
SCALE
  5
5E3
102
{ACAD_REACTORS
330
5D6
102
}
330
5D6
100
AcDbScale
 70
     0
300
2:1
140
2.0
141
1.0
290
     0
  0
SCALE
  5
5E4
102
{ACAD_REACTORS
330
5D6
102
}
330
5D6
100
AcDbScale
 70
     0
300
4:1
140
4.0
141
1.0
290
     0
  0
SCALE
  5
5E5
102
{ACAD_REACTORS
330
5D6
102
}
330
5D6
100
AcDbScale
 70
     0
300
8:1
140
8.0
141
1.0
290
     0
  0
SCALE
  5
5E6
102
{ACAD_REACTORS
330
5D6
102
}
330
5D6
100
AcDbScale
 70
     0
300
10:1
140
10.0
141
1.0
290
     0
  0
SCALE
  5
5E7
102
{ACAD_REACTORS
330
5D6
102
}
330
5D6
100
AcDbScale
 70
     0
300
100:1
140
100.0
141
1.0
290
     0
  0
SCALE
  5
5E8
102
{ACAD_REACTORS
330
5D6
102
}
330
5D6
100
AcDbScale
 70
     0
300
1/128" = 1'-0"
140
0.0078125
141
12.0
290
     0
  0
SCALE
  5
5E9
102
{ACAD_REACTORS
330
5D6
102
}
330
5D6
100
AcDbScale
 70
     0
300
1/64" = 1'-0"
140
0.015625
141
12.0
290
     0
  0
SCALE
  5
5EA
102
{ACAD_REACTORS
330
5D6
102
}
330
5D6
100
AcDbScale
 70
     0
300
1/32" = 1'-0"
140
0.03125
141
12.0
290
     0
  0
SCALE
  5
5EB
102
{ACAD_REACTORS
330
5D6
102
}
330
5D6
100
AcDbScale
 70
     0
300
1/16" = 1'-0"
140
0.0625
141
12.0
290
     0
  0
SCALE
  5
5EC
102
{ACAD_REACTORS
330
5D6
102
}
330
5D6
100
AcDbScale
 70
     0
300
3/32" = 1'-0"
140
0.09375
141
12.0
290
     0
  0
SCALE
  5
5ED
102
{ACAD_REACTORS
330
5D6
102
}
330
5D6
100
AcDbScale
 70
     0
300
1/8" = 1'-0"
140
0.125
141
12.0
290
     0
  0
SCALE
  5
5EE
102
{ACAD_REACTORS
330
5D6
102
}
330
5D6
100
AcDbScale
 70
     0
300
3/16" = 1'-0"
140
0.1875
141
12.0
290
     0
  0
SCALE
  5
5EF
102
{ACAD_REACTORS
330
5D6
102
}
330
5D6
100
AcDbScale
 70
     0
300
1/4" = 1'-0"
140
0.25
141
12.0
290
     0
  0
SCALE
  5
5F0
102
{ACAD_REACTORS
330
5D6
102
}
330
5D6
100
AcDbScale
 70
     0
300
3/8" = 1'-0"
140
0.375
141
12.0
290
     0
  0
SCALE
  5
5F1
102
{ACAD_REACTORS
330
5D6
102
}
330
5D6
100
AcDbScale
 70
     0
300
1/2" = 1'-0"
140
0.5
141
12.0
290
     0
  0
SCALE
  5
5F2
102
{ACAD_REACTORS
330
5D6
102
}
330
5D6
100
AcDbScale
 70
     0
300
3/4" = 1'-0"
140
0.75
141
12.0
290
     0
  0
SCALE
  5
5F3
102
{ACAD_REACTORS
330
5D6
102
}
330
5D6
100
AcDbScale
 70
     0
300
1" = 1'-0"
140
1.0
141
12.0
290
     0
  0
SCALE
  5
5F4
102
{ACAD_REACTORS
330
5D6
102
}
330
5D6
100
AcDbScale
 70
     0
300
1-1/2" = 1'-0"
140
1.5
141
12.0
290
     0
  0
SCALE
  5
5F5
102
{ACAD_REACTORS
330
5D6
102
}
330
5D6
100
AcDbScale
 70
     0
300
3" = 1'-0"
140
3.0
141
12.0
290
     0
  0
SCALE
  5
5F6
102
{ACAD_REACTORS
330
5D6
102
}
330
5D6
100
AcDbScale
 70
     0
300
6" = 1'-0"
140
6.0
141
12.0
290
     0
  0
SCALE
  5
5F7
102
{ACAD_REACTORS
330
5D6
102
}
330
5D6
100
AcDbScale
 70
     0
300
1'-0" = 1'-0"
140
12.0
141
12.0
290
     0
  0
TABLESTYLE
  5
5A7
102
{ACAD_XDICTIONARY
360
60D
102
}
102
{ACAD_REACTORS
330
5A4
102
}
330
5A4
100
AcDbTableStyle
  3
Standard
 70
     0
 71
     0
 40
0.06
 41
0.06
280
     1
281
     1
  7
STANDARD
140
0.18
170
     1
 62
     0
 63
     7
283
     0
274
    -2
284
     1
 64
     0
275
    -2
285
     1
 65
     0
276
    -2
286
     1
 66
     0
277
    -2
287
     1
 67
     0
278
    -2
288
     1
 68
     0
279
    -2
289
     1
 69
     0
  7
STANDARD
140
0.18
170
     1
 62
     0
 63
     7
283
     0
274
    -2
284
     1
 64
     0
275
    -2
285
     1
 65
     0
276
    -2
286
     1
 66
     0
277
    -2
287
     1
 67
     0
278
    -2
288
     1
 68
     0
279
    -2
289
     1
 69
     0
  7
STANDARD
140
0.18
170
     1
 62
     0
 63
     7
283
     0
274
    -2
284
     1
 64
     0
275
    -2
285
     1
 65
     0
276
    -2
286
     1
 66
     0
277
    -2
287
     1
 67
     0
278
    -2
288
     1
 68
     0
279
    -2
289
     1
 69
     0
  0
TABLESTYLE
  5
5A8
102
{ACAD_XDICTIONARY
360
60F
102
}
102
{ACAD_REACTORS
330
5A4
102
}
330
5A4
100
AcDbTableStyle
  3
Standard1
 70
     1
 71
     0
 40
0.06
 41
0.06
280
     1
281
     1
  7
STANDARD
140
0.18
170
     1
 62
     0
 63
     7
283
     0
274
    -2
284
     1
 64
     0
275
    -2
285
     1
 65
     0
276
    -2
286
     1
 66
     0
277
    -2
287
     1
 67
     0
278
    -2
288
     1
 68
     0
279
    -2
289
     1
 69
     0
  7
STANDARD
140
0.18
170
     1
 62
     0
 63
     7
283
     0
274
    -2
284
     1
 64
     0
275
    -2
285
     1
 65
     0
276
    -2
286
     1
 66
     0
277
    -2
287
     1
 67
     0
278
    -2
288
     1
 68
     0
279
    -2
289
     1
 69
     0
  7
STANDARD
140
0.18
170
     1
 62
     0
 63
     7
283
     0
274
    -2
284
     1
 64
     0
275
    -2
285
     1
 65
     0
276
    -2
286
     1
 66
     0
277
    -2
287
     1
 67
     0
278
    -2
288
     1
 68
     0
279
    -2
289
     1
 69
     0
  0
VISUALSTYLE
  5
5CA
102
{ACAD_REACTORS
330
5C4
102
}
330
5C4
100
AcDbVisualStyle
  2
2dWireframe
 70
     4
 71
     0
 72
     2
 73
     0
 90
        0
 40
-0.6
 41
-30.0
 62
     5
 63
     7
 74
     1
 91
        4
 64
     7
 65
   257
 75
     1
175
     1
 42
1.0
 92
        0
 66
   257
 43
1.0
 76
     1
 77
     6
 78
     2
 67
     7
 79
     5
170
     0
171
     0
290
     0
174
     0
 93
        1
 44
0.0
173
     0
291
     0
 45
0.0
1001
ACAD
1000
AcDbSavedByObjectVersion
1070
     0
  0
VISUALSTYLE
  5
5CC
102
{ACAD_REACTORS
330
5C4
102
}
330
5C4
100
AcDbVisualStyle
  2
3D Hidden
 70
     6
 71
     1
 72
     2
 73
     2
 90
        0
 40
-0.6
 41
-30.0
 62
     5
 63
     7
 74
     2
 91
        2
 64
     7
 65
   257
 75
     2
175
     1
 42
40.0
 92
        0
 66
   257
 43
1.0
 76
     1
 77
     6
 78
     2
 67
     7
 79
     3
170
     0
171
     0
290
     0
174
     0
 93
        1
 44
0.0
173
     0
291
     0
 45
0.0
1001
ACAD
1000
AcDbSavedByObjectVersion
1070
     0
  0
VISUALSTYLE
  5
5CB
102
{ACAD_REACTORS
330
5C4
102
}
330
5C4
100
AcDbVisualStyle
  2
3dWireframe
 70
     5
 71
     0
 72
     2
 73
     0
 90
        0
 40
-0.6
 41
-30.0
 62
     5
 63
     7
 74
     1
 91
        4
 64
     7
 65
   257
 75
     1
175
     1
 42
1.0
 92
        0
 66
   257
 43
1.0
 76
     1
 77
     6
 78
     2
 67
     7
 79
     5
170
     0
171
     0
290
     0
174
     0
 93
        1
 44
0.0
173
     0
291
     0
 45
0.0
1001
ACAD
1000
AcDbSavedByObjectVersion
1070
     0
  0
VISUALSTYLE
  5
5C9
102
{ACAD_REACTORS
330
5C4
102
}
330
5C4
100
AcDbVisualStyle
  2
Basic
 70
     7
 71
     1
 72
     0
 73
     1
 90
        0
 40
-0.6
 41
-30.0
 62
     5
 63
     7
 74
     0
 91
        4
 64
     7
 65
   257
 75
     1
175
     1
 42
1.0
 92
        8
 66
     7
 43
1.0
 76
     1
 77
     6
 78
     2
 67
     7
 79
     5
170
     0
171
     0
290
     0
174
     0
 93
        1
 44
0.0
173
     0
291
     1
 45
0.0
1001
ACAD
1000
AcDbSavedByObjectVersion
1070
     0
  0
VISUALSTYLE
  5
5D0
102
{ACAD_REACTORS
330
5C4
102
}
330
5C4
100
AcDbVisualStyle
  2
Brighten
 70
    12
 71
     2
 72
     2
 73
     0
 90
        0
 40
-0.6
 41
-30.0
 62
     5
 63
     7
 74
     1
 91
        4
 64
     7
 65
   257
 75
     1
175
     1
 42
1.0
 92
        8
 66
     7
 43
1.0
 76
     1
 77
     6
 78
     2
 67
     7
 79
     5
170
     0
171
     0
290
     0
174
     0
 93
        1
 44
50.0
173
     0
291
     1
 45
0.0
1001
ACAD
1000
AcDbSavedByObjectVersion
1070
     0
  0
VISUALSTYLE
  5
5D4
102
{ACAD_REACTORS
330
5C4
102
}
330
5C4
100
AcDbVisualStyle
  2
ColorChange
 70
    16
 71
     2
 72
     2
 73
     3
 90
        0
 40
-0.6
 41
-30.0
 62
     5
 63
     8
 74
     1
 91
        4
 64
     7
 65
   257
 75
     1
175
     1
 42
1.0
 92
        8
 66
     8
 43
1.0
 76
     1
 77
     6
 78
     2
 67
     7
 79
     5
170
     0
171
     0
290
     0
174
     0
 93
        1
 44
0.0
173
     0
291
     1
 45
0.0
1001
ACAD
1000
AcDbSavedByObjectVersion
1070
     0
  0
VISUALSTYLE
  5
5CD
102
{ACAD_REACTORS
330
5C4
102
}
330
5C4
100
AcDbVisualStyle
  2
Conceptual
 70
     9
 71
     3
 72
     2
 73
     0
 90
        0
 40
-0.6
 41
-30.0
 62
     5
 63
     7
 74
     2
 91
        2
 64
     7
 65
   257
 75
     1
175
     1
 42
40.0
 92
        8
 66
     7
 43
1.0
 76
     1
 77
     6
 78
     2
 67
     7
 79
     3
170
     0
171
     0
290
     0
174
     0
 93
        1
 44
0.0
173
     0
291
     0
 45
0.0
1001
ACAD
1000
AcDbSavedByObjectVersion
1070
     0
  0
VISUALSTYLE
  5
5CF
102
{ACAD_REACTORS
330
5C4
102
}
330
5C4
100
AcDbVisualStyle
  2
Dim
 70
    11
 71
     2
 72
     2
 73
     0
 90
        0
 40
-0.6
 41
-30.0
 62
     5
 63
     7
 74
     1
 91
        4
 64
     7
 65
   257
 75
     1
175
     1
 42
1.0
 92
        8
 66
     7
 43
1.0
 76
     1
 77
     6
 78
     2
 67
     7
 79
     5
170
     0
171
     0
290
     0
174
     0
 93
        1
 44
-50.0
173
     0
291
     1
 45
0.0
1001
ACAD
1000
AcDbSavedByObjectVersion
1070
     0
  0
VISUALSTYLE
  5
5D3
102
{ACAD_REACTORS
330
5C4
102
}
330
5C4
100
AcDbVisualStyle
  2
Facepattern
 70
    15
 71
     2
 72
     2
 73
     0
 90
        0
 40
-0.6
 41
-30.0
 62
     5
 63
     7
 74
     1
 91
        4
 64
     7
 65
   257
 75
     1
175
     1
 42
1.0
 92
        8
 66
     7
 43
1.0
 76
     1
 77
     6
 78
     2
 67
     7
 79
     5
170
     0
171
     0
290
     0
174
     0
 93
        1
 44
0.0
173
     0
291
     1
 45
0.0
1001
ACAD
1000
AcDbSavedByObjectVersion
1070
     0
  0
VISUALSTYLE
  5
5C5
102
{ACAD_REACTORS
330
5C4
102
}
330
5C4
100
AcDbVisualStyle
  2
Flat
 70
     0
 71
     2
 72
     1
 73
     1
 90
        2
 40
-0.6
 41
30.0
 62
     5
 63
     7
 74
     0
 91
        4
 64
     7
 65
   257
 75
     1
175
     1
 42
1.0
 92
        8
 66
     7
 43
1.0
 76
     1
 77
     6
 78
     2
 67
     7
 79
     5
170
     0
171
     0
290
     0
174
     0
 93
       13
 44
0.0
173
     0
291
     1
 45
0.0
1001
ACAD
1000
AcDbSavedByObjectVersion
1070
     0
  0
VISUALSTYLE
  5
5C6
102
{ACAD_REACTORS
330
5C4
102
}
330
5C4
100
AcDbVisualStyle
  2
FlatWithEdges
 70
     1
 71
     2
 72
     1
 73
     1
 90
        2
 40
-0.6
 41
30.0
 62
     5
 63
     7
 74
     1
 91
        4
 64
     7
 65
   257
 75
     1
175
     1
 42
1.0
 92
        0
 66
   257
 43
1.0
 76
     1
 77
     6
 78
     2
 67
     7
 79
     5
170
     0
171
     0
290
     0
174
     0
 93
       13
 44
0.0
173
     0
291
     1
 45
0.0
1001
ACAD
1000
AcDbSavedByObjectVersion
1070
     0
  0
VISUALSTYLE
  5
5C7
102
{ACAD_REACTORS
330
5C4
102
}
330
5C4
100
AcDbVisualStyle
  2
Gouraud
 70
     2
 71
     2
 72
     2
 73
     1
 90
        2
 40
-0.6
 41
30.0
 62
     5
 63
     7
 74
     0
 91
        4
 64
     7
 65
   257
 75
     1
175
     1
 42
1.0
 92
        0
 66
     7
 43
1.0
 76
     1
 77
     6
 78
     2
 67
     7
 79
     5
170
     0
171
     0
290
     0
174
     0
 93
       13
 44
0.0
173
     0
291
     1
 45
0.0
1001
ACAD
1000
AcDbSavedByObjectVersion
1070
     0
  0
VISUALSTYLE
  5
5C8
102
{ACAD_REACTORS
330
5C4
102
}
330
5C4
100
AcDbVisualStyle
  2
GouraudWithEdges
 70
     3
 71
     2
 72
     2
 73
     1
 90
        2
 40
-0.6
 41
30.0
 62
     5
 63
     7
 74
     1
 91
        4
 64
     7
 65
   257
 75
     1
175
     1
 42
1.0
 92
        0
 66
   257
 43
1.0
 76
     1
 77
     6
 78
     2
 67
     7
 79
     5
170
     0
171
     0
290
     0
174
     0
 93
       13
 44
0.0
173
     0
291
     1
 45
0.0
1001
ACAD
1000
AcDbSavedByObjectVersion
1070
     0
  0
VISUALSTYLE
  5
5D2
102
{ACAD_REACTORS
330
5C4
102
}
330
5C4
100
AcDbVisualStyle
  2
Linepattern
 70
    14
 71
     2
 72
     2
 73
     0
 90
        0
 40
-0.6
 41
-30.0
 62
     5
 63
     7
 74
     1
 91
        4
 64
     7
 65
   257
 75
     7
175
     7
 42
1.0
 92
        8
 66
     7
 43
1.0
 76
     1
 77
     6
 78
     2
 67
     7
 79
     5
170
     0
171
     0
290
     0
174
     0
 93
        1
 44
0.0
173
     0
291
     1
 45
0.0
1001
ACAD
1000
AcDbSavedByObjectVersion
1070
     0
  0
VISUALSTYLE
  5
5CE
102
{ACAD_REACTORS
330
5C4
102
}
330
5C4
100
AcDbVisualStyle
  2
Realistic
 70
     8
 71
     2
 72
     2
 73
     0
 90
        0
 40
-0.6
 41
-30.0
 62
     5
 63
     7
 74
     1
 91
        0
 64
     7
 65
   257
 75
     1
175
     1
 42
1.0
 92
        8
 66
     8
 43
1.0
 76
     1
 77
     6
 78
     2
 67
     7
 79
     5
170
     0
171
     0
290
     0
174
     0
 93
       13
 44
0.0
173
     0
291
     0
 45
0.0
1001
ACAD
1000
AcDbSavedByObjectVersion
1070
     0
  0
VISUALSTYLE
  5
5D1
102
{ACAD_REACTORS
330
5C4
102
}
330
5C4
100
AcDbVisualStyle
  2
Thicken
 70
    13
 71
     2
 72
     2
 73
     0
 90
        0
 40
-0.6
 41
-30.0
 62
     5
 63
     7
 74
     1
 91
        4
 64
     7
 65
   257
 75
     1
175
     1
 42
1.0
 92
       12
 66
     7
 43
1.0
 76
     1
 77
     6
 78
     2
 67
     7
 79
     5
170
     0
171
     0
290
     0
174
     0
 93
        1
 44
0.0
173
     0
291
     1
 45
0.0
1001
ACAD
1000
AcDbSavedByObjectVersion
1070
     0
  0
DICTIONARYVAR
  5
615
102
{ACAD_REACTORS
330
612
102
}
330
612
100
DictionaryVariables
280
     0
  1
1:1
  0
DICTIONARYVAR
  5
614
102
{ACAD_REACTORS
330
612
102
}
330
612
100
DictionaryVariables
280
     0
  1
STANDARD
  0
DICTIONARYVAR
  5
613
102
{ACAD_REACTORS
330
612
102
}
330
612
100
DictionaryVariables
280
     0
  1
STANDARD
  0
DICTIONARYVAR
  5
656
102
{ACAD_REACTORS
330
612
102
}
330
612
100
DictionaryVariables
280
     0
  1
2
  0
DICTIONARYVAR
  5
655
102
{ACAD_REACTORS
330
612
102
}
330
612
100
DictionaryVariables
280
     0
  1
1
  0
DICTIONARYVAR
  5
654
102
{ACAD_REACTORS
330
612
102
}
330
612
100
DictionaryVariables
280
     0
  1
0
  0
DICTIONARYVAR
  5
652
102
{ACAD_REACTORS
330
612
102
}
330
612
100
DictionaryVariables
280
     0
  1
2
  0
DICTIONARYVAR
  5
651
102
{ACAD_REACTORS
330
612
102
}
330
612
100
DictionaryVariables
280
     0
  1
1
  0
DICTIONARYVAR
  5
653
102
{ACAD_REACTORS
330
612
102
}
330
612
100
DictionaryVariables
280
     0
  1
127
  0
DICTIONARY
  5
65C
330
5A6
100
AcDbDictionary
280
     1
281
     1
  3
ACAD_XREC_ROUNDTRIP
360
65D
  0
DICTIONARY
  5
65A
330
5A5
100
AcDbDictionary
280
     1
281
     1
  3
ACAD_XREC_ROUNDTRIP
360
65B
  0
DICTIONARY
  5
5B5
330
5B4
100
AcDbDictionary
280
     1
281
     1
  3
ACAD_XREC_ROUNDTRIP
360
661
  3
BUMPTILE
360
5B7
  3
DIFFUSETILE
360
5B6
  3
OPACITYTILE
360
5BA
  3
REFLECTIONTILE
360
5B9
  3
REFRACTIONTILE
360
5BB
  3
SPECULARTILE
360
5B8
  0
DICTIONARY
  5
5AD
330
5AC
100
AcDbDictionary
280
     1
281
     1
  3
ACAD_XREC_ROUNDTRIP
360
660
  3
BUMPTILE
360
5AF
  3
DIFFUSETILE
360
5AE
  3
OPACITYTILE
360
5B2
  3
REFLECTIONTILE
360
5B1
  3
REFRACTIONTILE
360
5B3
  3
SPECULARTILE
360
5B0
  0
DICTIONARY
  5
5BD
330
5BC
100
AcDbDictionary
280
     1
281
     1
  3
ACAD_XREC_ROUNDTRIP
360
662
  3
BUMPTILE
360
5BF
  3
DIFFUSETILE
360
5BE
  3
OPACITYTILE
360
5C2
  3
REFLECTIONTILE
360
5C1
  3
REFRACTIONTILE
360
5C3
  3
SPECULARTILE
360
5C0
  0
DICTIONARY
  5
60D
330
5A7
100
AcDbDictionary
280
     1
281
     1
  3
ACAD_ROUNDTRIP_2008_TABLESTYLE_CELLSTYLEMAP
360
657
  3
ACAD_XREC_ROUNDTRIP
360
65E
  0
DICTIONARY
  5
60F
330
5A8
100
AcDbDictionary
280
     1
281
     1
  3
ACAD_ROUNDTRIP_2008_TABLESTYLE_CELLSTYLEMAP
360
658
  3
ACAD_XREC_ROUNDTRIP
360
65F
  0
XRECORD
  5
65D
102
{ACAD_REACTORS
330
65C
102
}
330
65C
100
AcDbXrecord
280
     1
102
SHADEPLOT
 70
     0
102
SHADEPLOTRESLEVEL
 70
     2
102
SHADEPLOTCUSTOMDPI
 70
   300
  0
XRECORD
  5
65B
102
{ACAD_REACTORS
330
65A
102
}
330
65A
100
AcDbXrecord
280
     1
102
SHADEPLOT
 70
     0
102
SHADEPLOTRESLEVEL
 70
     2
102
SHADEPLOTCUSTOMDPI
 70
   300
  0
XRECORD
  5
661
102
{ACAD_REACTORS
330
5B5
102
}
330
5B5
100
AcDbXrecord
280
     1
102
MATERIAL
148
0.0
149
0.0
149
0.0
 93
        0
 94
      127
282
     0
 72
     0
 77
     0
171
     0
175
     0
179
     0
273
     0
  0
XRECORD
  5
5B7
102
{ACAD_REACTORS
330
5B5
102
}
330
5B5
100
AcDbXrecord
280
     1
270
     1
271
     1
  0
XRECORD
  5
5B6
102
{ACAD_REACTORS
330
5B5
102
}
330
5B5
100
AcDbXrecord
280
     1
270
     1
271
     1
  0
XRECORD
  5
5BA
102
{ACAD_REACTORS
330
5B5
102
}
330
5B5
100
AcDbXrecord
280
     1
270
     1
271
     1
  0
XRECORD
  5
5B9
102
{ACAD_REACTORS
330
5B5
102
}
330
5B5
100
AcDbXrecord
280
     1
270
     1
271
     1
  0
XRECORD
  5
5BB
102
{ACAD_REACTORS
330
5B5
102
}
330
5B5
100
AcDbXrecord
280
     1
270
     1
271
     1
  0
XRECORD
  5
5B8
102
{ACAD_REACTORS
330
5B5
102
}
330
5B5
100
AcDbXrecord
280
     1
270
     1
271
     1
  0
XRECORD
  5
660
102
{ACAD_REACTORS
330
5AD
102
}
330
5AD
100
AcDbXrecord
280
     1
102
MATERIAL
148
0.0
149
0.0
149
0.0
 93
        0
 94
      127
282
     0
 72
     0
 77
     0
171
     0
175
     0
179
     0
273
     0
  0
XRECORD
  5
5AF
102
{ACAD_REACTORS
330
5AD
102
}
330
5AD
100
AcDbXrecord
280
     1
270
     1
271
     1
  0
XRECORD
  5
5AE
102
{ACAD_REACTORS
330
5AD
102
}
330
5AD
100
AcDbXrecord
280
     1
270
     1
271
     1
  0
XRECORD
  5
5B2
102
{ACAD_REACTORS
330
5AD
102
}
330
5AD
100
AcDbXrecord
280
     1
270
     1
271
     1
  0
XRECORD
  5
5B1
102
{ACAD_REACTORS
330
5AD
102
}
330
5AD
100
AcDbXrecord
280
     1
270
     1
271
     1
  0
XRECORD
  5
5B3
102
{ACAD_REACTORS
330
5AD
102
}
330
5AD
100
AcDbXrecord
280
     1
270
     1
271
     1
  0
XRECORD
  5
5B0
102
{ACAD_REACTORS
330
5AD
102
}
330
5AD
100
AcDbXrecord
280
     1
270
     1
271
     1
  0
XRECORD
  5
662
102
{ACAD_REACTORS
330
5BD
102
}
330
5BD
100
AcDbXrecord
280
     1
102
MATERIAL
148
0.0
149
0.0
149
0.0
 93
        0
 94
      127
282
     0
 72
     0
 77
     0
171
     0
175
     0
179
     0
273
     0
  0
XRECORD
  5
5BF
102
{ACAD_REACTORS
330
5BD
102
}
330
5BD
100
AcDbXrecord
280
     1
270
     1
271
     1
  0
XRECORD
  5
5BE
102
{ACAD_REACTORS
330
5BD
102
}
330
5BD
100
AcDbXrecord
280
     1
270
     1
271
     1
  0
XRECORD
  5
5C2
102
{ACAD_REACTORS
330
5BD
102
}
330
5BD
100
AcDbXrecord
280
     1
270
     1
271
     1
  0
XRECORD
  5
5C1
102
{ACAD_REACTORS
330
5BD
102
}
330
5BD
100
AcDbXrecord
280
     1
270
     1
271
     1
  0
XRECORD
  5
5C3
102
{ACAD_REACTORS
330
5BD
102
}
330
5BD
100
AcDbXrecord
280
     1
270
     1
271
     1
  0
XRECORD
  5
5C0
102
{ACAD_REACTORS
330
5BD
102
}
330
5BD
100
AcDbXrecord
280
     1
270
     1
271
     1
  0
CELLSTYLEMAP
  5
657
102
{ACAD_REACTORS
330
60D
102
}
330
60D
100
AcDbCellStyleMap
 90
        3
300
CELLSTYLE
  1
TABLEFORMAT_BEGIN
 90
        5
170
     1
 91
        0
 92
    32768
 62
   257
 93
        1
300
CONTENTFORMAT
  1
CONTENTFORMAT_BEGIN
 90
        0
 91
        0
 92
      512
 93
        0
300

 40
0.0
140
1.0
 94
        1
 62
     0
340
11
144
0.18
309
CONTENTFORMAT_END
171
     0
 94
        0
309
TABLEFORMAT_END
  1
CELLSTYLE_BEGIN
 90
        1
 91
        1
300
_TITLE
309
CELLSTYLE_END
300
CELLSTYLE
  1
TABLEFORMAT_BEGIN
 90
        5
170
     1
 91
        0
 92
        0
 62
   257
 93
        1
300
CONTENTFORMAT
  1
CONTENTFORMAT_BEGIN
 90
        0
 91
        0
 92
      512
 93
        0
300

 40
0.0
140
1.0
 94
        1
 62
     0
340
11
144
0.18
309
CONTENTFORMAT_END
171
     0
 94
        0
309
TABLEFORMAT_END
  1
CELLSTYLE_BEGIN
 90
        2
 91
        1
300
_HEADER
309
CELLSTYLE_END
300
CELLSTYLE
  1
TABLEFORMAT_BEGIN
 90
        5
170
     1
 91
        0
 92
        0
 62
   257
 93
        1
300
CONTENTFORMAT
  1
CONTENTFORMAT_BEGIN
 90
        0
 91
        0
 92
      512
 93
        0
300

 40
0.0
140
1.0
 94
        1
 62
     0
340
11
144
0.18
309
CONTENTFORMAT_END
171
     0
 94
        0
309
TABLEFORMAT_END
  1
CELLSTYLE_BEGIN
 90
        3
 91
        2
300
_DATA
309
CELLSTYLE_END
  0
XRECORD
  5
65E
102
{ACAD_REACTORS
330
60D
102
}
330
60D
100
AcDbXrecord
280
     1
102
ACAD_ROUNDTRIP_PRE2007_TABLESTYLE
 90
      512
 91
        0
  1

 92
      512
 93
        0
  2

 94
      512
 95
        0
  3

  0
CELLSTYLEMAP
  5
658
102
{ACAD_REACTORS
330
60F
102
}
330
60F
100
AcDbCellStyleMap
 90
        3
300
CELLSTYLE
  1
TABLEFORMAT_BEGIN
 90
        5
170
     1
 91
        0
 92
    32768
 62
   257
 93
        1
300
CONTENTFORMAT
  1
CONTENTFORMAT_BEGIN
 90
        0
 91
        0
 92
      512
 93
        0
300

 40
0.0
140
1.0
 94
        1
 62
     0
340
11
144
0.18
309
CONTENTFORMAT_END
171
     0
 94
        0
309
TABLEFORMAT_END
  1
CELLSTYLE_BEGIN
 90
        1
 91
        1
300
_TITLE
309
CELLSTYLE_END
300
CELLSTYLE
  1
TABLEFORMAT_BEGIN
 90
        5
170
     1
 91
        0
 92
        0
 62
   257
 93
        1
300
CONTENTFORMAT
  1
CONTENTFORMAT_BEGIN
 90
        0
 91
        0
 92
      512
 93
        0
300

 40
0.0
140
1.0
 94
        1
 62
     0
340
11
144
0.18
309
CONTENTFORMAT_END
171
     0
 94
        0
309
TABLEFORMAT_END
  1
CELLSTYLE_BEGIN
 90
        2
 91
        1
300
_HEADER
309
CELLSTYLE_END
300
CELLSTYLE
  1
TABLEFORMAT_BEGIN
 90
        5
170
     1
 91
        0
 92
        0
 62
   257
 93
        1
300
CONTENTFORMAT
  1
CONTENTFORMAT_BEGIN
 90
        0
 91
        0
 92
      512
 93
        0
300

 40
0.0
140
1.0
 94
        1
 62
     0
340
11
144
0.18
309
CONTENTFORMAT_END
171
     0
 94
        0
309
TABLEFORMAT_END
  1
CELLSTYLE_BEGIN
 90
        3
 91
        2
300
_DATA
309
CELLSTYLE_END
  0
XRECORD
  5
65F
102
{ACAD_REACTORS
330
60F
102
}
330
60F
100
AcDbXrecord
280
     1
102
ACAD_ROUNDTRIP_PRE2007_TABLESTYLE
 90
      512
 91
        0
  1

 92
      512
 93
        0
  2

 94
      512
 95
        0
  3

  0
ENDSEC
  0
EOF
