  0
SECTION
  2
HEADER
  9
$ACADVER
  1
AC1015
  9
$ACADMAINTVER
 70
    20
  9
$DWGCODEPAGE
  3
ANSI_936
  9
$INSBASE
 10
0.0
 20
0.0
 30
0.0
  9
$EXTMIN
 10
8.555481069436638
 20
10.88336190823857
 30
-0.0015258207003583
  9
$EXTMAX
 10
23.91345222749918
 20
14.71987920710802
 30
0.0000000349246037
  9
$LIMMIN
 10
0.0
 20
0.0
  9
$LIMMAX
 10
44.0
 20
34.0
  9
$ORTHOMODE
 70
     0
  9
$REGENMODE
 70
     1
  9
$FILLMODE
 70
     1
  9
$QTEXTMODE
 70
     0
  9
$MIRRTEXT
 70
     0
  9
$LTSCALE
 40
2.419999999999999
  9
$ATTMODE
 70
     1
  9
$TEXTSIZE
 40
0.2
  9
$TRACEWID
 40
0.05
  9
$TEXTSTYLE
  7
STANDARD
  9
$CLAYER
  8
0
  9
$CELTYPE
  6
BYLAYER
  9
$CECOLOR
 62
   256
  9
$CELTSCALE
 40
1.0
  9
$DISPSILH
 70
     0
  9
$DIMSCALE
 40
1.0
  9
$DIMASZ
 40
0.1875
  9
$DIMEXO
 40
0.275
  9
$DIMDLI
 40
1.671999999999999
  9
$DIMRND
 40
0.0
  9
$DIMDLE
 40
0.0
  9
$DIMEXE
 40
0.792
  9
$DIMTP
 40
0.1
  9
$DIMTM
 40
0.1
  9
$DIMTXT
 40
0.15625
  9
$DIMCEN
 40
0.396
  9
$DIMTSZ
 40
0.0
  9
$DIMTOL
 70
     1
  9
$DIMLIM
 70
     0
  9
$DIMTIH
 70
     1
  9
$DIMTOH
 70
     1
  9
$DIMSE1
 70
     0
  9
$DIMSE2
 70
     0
  9
$DIMTAD
 70
     0
  9
$DIMZIN
 70
     0
  9
$DIMBLK
  1

  9
$DIMASO
 70
     1
  9
$DIMSHO
 70
     1
  9
$DIMPOST
  1

  9
$DIMAPOST
  1

  9
$DIMALT
 70
     0
  9
$DIMALTD
 70
     2
  9
$DIMALTF
 40
25.4
  9
$DIMLFAC
 40
1.0
  9
$DIMTOFL
 70
     0
  9
$DIMTVP
 40
0.0
  9
$DIMTIX
 70
     0
  9
$DIMSOXD
 70
     0
  9
$DIMSAH
 70
     0
  9
$DIMBLK1
  1

  9
$DIMBLK2
  1

  9
$DIMSTYLE
  2
STANDARD
  9
$DIMCLRD
 70
     0
  9
$DIMCLRE
 70
     0
  9
$DIMCLRT
 70
     0
  9
$DIMTFAC
 40
1.0
  9
$DIMGAP
 40
0.09
  9
$DIMJUST
 70
     0
  9
$DIMSD1
 70
     0
  9
$DIMSD2
 70
     0
  9
$DIMTOLJ
 70
     1
  9
$DIMTZIN
 70
     0
  9
$DIMALTZ
 70
     0
  9
$DIMALTTZ
 70
     0
  9
$DIMUPT
 70
     0
  9
$DIMDEC
 70
     4
  9
$DIMTDEC
 70
     4
  9
$DIMALTU
 70
     2
  9
$DIMALTTD
 70
     2
  9
$DIMTXSTY
  7
STANDARD
  9
$DIMAUNIT
 70
     0
  9
$DIMADEC
 70
     0
  9
$DIMALTRND
 40
0.0
  9
$DIMAZIN
 70
     0
  9
$DIMDSEP
 70
    46
  9
$DIMATFIT
 70
     3
  9
$DIMFRAC
 70
     0
  9
$DIMLDRBLK
  1

  9
$DIMLUNIT
 70
     2
  9
$DIMLWD
 70
    -2
  9
$DIMLWE
 70
    -2
  9
$DIMTMOVE
 70
     0
  9
$LUNITS
 70
     2
  9
$LUPREC
 70
     4
  9
$SKETCHINC
 40
0.1
  9
$FILLETRAD
 40
0.0
  9
$AUNITS
 70
     0
  9
$AUPREC
 70
     0
  9
$MENU
  1
.
  9
$ELEVATION
 40
0.0
  9
$PELEVATION
 40
0.0
  9
$THICKNESS
 40
0.0
  9
$LIMCHECK
 70
     0
  9
$CHAMFERA
 40
0.0
  9
$CHAMFERB
 40
0.0
  9
$CHAMFERC
 40
0.0
  9
$CHAMFERD
 40
0.0
  9
$SKPOLY
 70
     0
  9
$TDCREATE
 40
2455637.650741967
  9
$TDUCREATE
 40
2455637.317408635
  9
$TDUPDATE
 40
2455637.654682697
  9
$TDUUPDATE
 40
2455637.321349363
  9
$TDINDWG
 40
0.0002440162
  9
$TDUSRTIMER
 40
0.0002440162
  9
$USRTIMER
 70
     1
  9
$ANGBASE
 50
0.0
  9
$ANGDIR
 70
     0
  9
$PDMODE
 70
     3
  9
$PDSIZE
 40
0.3125
  9
$PLINEWID
 40
0.0
  9
$SPLFRAME
 70
     0
  9
$SPLINETYPE
 70
     6
  9
$SPLINESEGS
 70
     8
  9
$HANDSEED
  5
663
  9
$SURFTAB1
 70
     6
  9
$SURFTAB2
 70
     6
  9
$SURFTYPE
 70
     6
  9
$SURFU
 70
     6
  9
$SURFV
 70
     6
  9
$UCSBASE
  2

  9
$UCSNAME
  2

  9
$UCSORG
 10
0.0
 20
0.0
 30
0.0
  9
$UCSXDIR
 10
1.0
 20
0.0
 30
0.0
  9
$UCSYDIR
 10
0.0
 20
1.0
 30
0.0
  9
$UCSORTHOREF
  2

  9
$UCSORTHOVIEW
 70
     0
  9
$UCSORGTOP
 10
0.0
 20
0.0
 30
0.0
  9
$UCSORGBOTTOM
 10
0.0
 20
0.0
 30
0.0
  9
$UCSORGLEFT
 10
0.0
 20
0.0
 30
0.0
  9
$UCSORGRIGHT
 10
0.0
 20
0.0
 30
0.0
  9
$UCSORGFRONT
 10
0.0
 20
0.0
 30
0.0
  9
$UCSORGBACK
 10
0.0
 20
0.0
 30
0.0
  9
$PUCSBASE
  2

  9
$PUCSNAME
  2

  9
$PUCSORG
 10
0.0
 20
0.0
 30
0.0
  9
$PUCSXDIR
 10
1.0
 20
0.0
 30
0.0
  9
$PUCSYDIR
 10
0.0
 20
1.0
 30
0.0
  9
$PUCSORTHOREF
  2

  9
$PUCSORTHOVIEW
 70
     0
  9
$PUCSORGTOP
 10
0.0
 20
0.0
 30
0.0
  9
$PUCSORGBOTTOM
 10
0.0
 20
0.0
 30
0.0
  9
$PUCSORGLEFT
 10
0.0
 20
0.0
 30
0.0
  9
$PUCSORGRIGHT
 10
0.0
 20
0.0
 30
0.0
  9
$PUCSORGFRONT
 10
0.0
 20
0.0
 30
0.0
  9
$PUCSORGBACK
 10
0.0
 20
0.0
 30
0.0
  9
$USERI1
 70
     0
  9
$USERI2
 70
     0
  9
$USERI3
 70
     0
  9
$USERI4
 70
     0
  9
$USERI5
 70
     0
  9
$USERR1
 40
0.0
  9
$USERR2
 40
0.0
  9
$USERR3
 40
0.0
  9
$USERR4
 40
0.0
  9
$USERR5
 40
0.0
  9
$WORLDVIEW
 70
     1
  9
$SHADEDGE
 70
     3
  9
$SHADEDIF
 70
    70
  9
$TILEMODE
 70
     1
  9
$MAXACTVP
 70
    64
  9
$PINSBASE
 10
0.0
 20
0.0
 30
0.0
  9
$PLIMCHECK
 70
     0
  9
$PEXTMIN
 10
1.000000000000000E+20
 20
1.000000000000000E+20
 30
1.000000000000000E+20
  9
$PEXTMAX
 10
-1.000000000000000E+20
 20
-1.000000000000000E+20
 30
-1.000000000000000E+20
  9
$PLIMMIN
 10
0.0
 20
0.0
  9
$PLIMMAX
 10
12.0
 20
9.0
  9
$UNITMODE
 70
     0
  9
$VISRETAIN
 70
     1
  9
$PLINEGEN
 70
     0
  9
$PSLTSCALE
 70
     1
  9
$TREEDEPTH
 70
  3020
  9
$CMLSTYLE
  2
Standard
  9
$CMLJUST
 70
     0
  9
$CMLSCALE
 40
1.0
  9
$PROXYGRAPHICS
 70
     1
  9
$MEASUREMENT
 70
     0
  9
$CELWEIGHT
370
    -1
  9
$ENDCAPS
280
     0
  9
$JOINSTYLE
280
     0
  9
$LWDISPLAY
290
     0
  9
$INSUNITS
 70
     1
  9
$HYPERLINKBASE
  1

  9
$STYLESHEET
  1

  9
$XEDIT
290
     1
  9
$CEPSNTYPE
380
     0
  9
$PSTYLEMODE
290
     1
  9
$FINGERPRINTGUID
  2
{7F48D0FD-39C4-4D97-88E3-1225B625C790}
  9
$VERSIONGUID
  2
{664E0E49-4D20-4A63-BB8D-13FEF54BD3EB}
  9
$EXTNAMES
290
     1
  9
$PSVPSCALE
 40
0.0
  9
$OLESTARTUP
290
     0
  0
ENDSEC
  0
SECTION
  2
CLASSES
  0
CLASS
  1
ACDBDICTIONARYWDFLT
  2
AcDbDictionaryWithDefault
  3
ObjectDBX Classes
 90
        0
280
     0
281
     0
  0
CLASS
  1
ACDBPLACEHOLDER
  2
AcDbPlaceHolder
  3
ObjectDBX Classes
 90
        0
280
     0
281
     0
  0
CLASS
  1
LAYOUT
  2
AcDbLayout
  3
ObjectDBX Classes
 90
        0
280
     0
281
     0
  0
CLASS
  1
TABLESTYLE
  2
AcDbTableStyle
  3
ObjectDBX Classes
 90
     4095
280
     0
281
     0
  0
CLASS
  1
ACAD_TABLE
  2
AcDbTable
  3
ObjectDBX Classes
 90
     1025
280
     0
281
     1
  0
CLASS
  1
MATERIAL
  2
AcDbMaterial
  3
ObjectDBX Classes
 90
     1153
280
     0
281
     0
  0
CLASS
  1
VISUALSTYLE
  2
AcDbVisualStyle
  3
ObjectDBX Classes
 90
     4095
280
     0
281
     0
  0
CLASS
  1
SCALE
  2
AcDbScale
  3
ObjectDBX Classes
 90
     1153
280
     0
281
     0
  0
CLASS
  1
MLEADERSTYLE
  2
AcDbMLeaderStyle
  3
ACDB_MLEADERSTYLE_CLASS
 90
     4095
280
     0
281
     0
  0
CLASS
  1
TABLECONTENT
  2
AcDbTableContent
  3
ObjectDBX Classes
 90
     1152
280
     0
281
     0
  0
CLASS
  1
TABLEGEOMETRY
  2
AcDbTableGeometry
  3
ObjectDBX Classes
 90
     1152
280
     0
281
     0
  0
CLASS
  1
CELLSTYLEMAP
  2
AcDbCellStyleMap
  3
ObjectDBX Classes
 90
     1152
280
     0
281
     0
  0
CLASS
  1
DICTIONARYVAR
  2
AcDbDictionaryVar
  3
ObjectDBX Classes
 90
        0
280
     0
281
     0
  0
CLASS
  1
EXACXREFPANELOBJECT
  2
ExAcXREFPanelObject
  3
EXAC_ESW
 90
     1025
280
     0
281
     0
  0
CLASS
  1
NPOCOLLECTION
  2
AcDbImpNonPersistentObjectsCollection
  3
ObjectDBX Classes
 90
     1153
280
     0
281
     0
  0
ENDSEC
  0
SECTION
  2
TABLES
  0
TABLE
  2
VPORT
  5
8
330
0
100
AcDbSymbolTable
 70
     1
  0
VPORT
  5
1F4
330
8
100
AcDbSymbolTableRecord
100
AcDbViewportTableRecord
  2
*ACTIVE
 70
     0
 10
0.0
 20
0.0
 11
1.0
 21
1.0
 12
16.23446664846791
 22
12.80162055767329
 13
0.0
 23
0.0
 14
1.0
 24
1.0
 15
0.0
 25
0.0
 16
0.0
 26
0.0
 36
1.0
 17
0.0
 27
0.0
 37
0.0
 40
9.709798357594898
 41
1.589743589743589
 42
50.0
 43
0.0
 44
0.0
 50
0.0
 51
0.0
 71
     0
 72
   100
 73
     1
 74
     1
 75
     0
 76
     0
 77
     0
 78
     0
281
     0
 65
     1
110
0.0
120
0.0
130
0.0
111
1.0
121
0.0
131
0.0
112
0.0
122
1.0
132
0.0
 79
     0
146
0.0
  0
ENDTAB
  0
TABLE
  2
LTYPE
  5
5
330
0
100
AcDbSymbolTable
 70
     6
  0
LTYPE
  5
14
330
5
100
AcDbSymbolTableRecord
100
AcDbLinetypeTableRecord
  2
BYBLOCK
 70
     0
  3

 72
    65
 73
     0
 40
0.0
  0
LTYPE
  5
15
330
5
100
AcDbSymbolTableRecord
100
AcDbLinetypeTableRecord
  2
BYLAYER
 70
     0
  3

 72
    65
 73
     0
 40
0.0
  0
LTYPE
  5
16
330
5
100
AcDbSymbolTableRecord
100
AcDbLinetypeTableRecord
  2
CONTINUOUS
 70
     0
  3
Solid line
 72
    65
 73
     0
 40
0.0
  0
LTYPE
  5
1F5
330
5
100
AcDbSymbolTableRecord
100
AcDbLinetypeTableRecord
  2
CENTER
 70
     0
  3
____ _ ____ _ ____ _ ____ _ ____ _ ____ _ ____
 72
    65
 73
     4
 40
0.6
 49
0.375
 74
     0
 49
-0.075
 74
     0
 49
0.075
 74
     0
 49
-0.075
 74
     0
  0
LTYPE
  5
1F6
330
5
100
AcDbSymbolTableRecord
100
AcDbLinetypeTableRecord
  2
HIDDEN
 70
     0
  3
- - - - - - - - - - - - - - - - - - - -
 72
    65
 73
     2
 40
0.2
 49
0.1
 74
     0
 49
-0.1
 74
     0
  0
LTYPE
  5
1F7
330
5
100
AcDbSymbolTableRecord
100
AcDbLinetypeTableRecord
  2
PHANTOM
 70
     0
  3
_____ _ _ _____ _ _ _____ _ _ _____
 72
    65
 73
     6
 40
0.8
 49
0.45
 74
     0
 49
-0.05
 74
     0
 49
0.1
 74
     0
 49
-0.05
 74
     0
 49
0.1
 74
     0
 49
-0.05
 74
     0
  0
LTYPE
  5
1F8
330
5
100
AcDbSymbolTableRecord
100
AcDbLinetypeTableRecord
  2
DOT
 70
     0
  3
. . . . . . . . . . . . . . . . . . . .
 72
    65
 73
     2
 40
0.2
 49
0.1
 74
     0
 49
-0.1
 74
     0
  0
LTYPE
  5
1F9
330
5
100
AcDbSymbolTableRecord
100
AcDbLinetypeTableRecord
  2
DASHED
 70
     0
  3
- - - - - - - - - - - - - - - - - - - -
 72
    65
 73
     2
 40
0.2
 49
0.1
 74
     0
 49
-0.1
 74
     0
  0
ENDTAB
  0
TABLE
  2
LAYER
  5
2
330
0
100
AcDbSymbolTable
 70
    16
  0
LAYER
  5
10
102
{ACAD_XDICTIONARY
360
61D
102
}
330
2
100
AcDbSymbolTableRecord
100
AcDbLayerTableRecord
  2
0
 70
     0
 62
     7
  6
CONTINUOUS
370
    -3
390
F
  0
LAYER
  5
1FA
102
{ACAD_XDICTIONARY
360
61F
102
}
330
2
100
AcDbSymbolTableRecord
100
AcDbLayerTableRecord
  2
DEFAULT_1
 70
     0
 62
     7
  6
CENTER
370
    -3
390
F
  0
LAYER
  5
1FB
102
{ACAD_XDICTIONARY
360
621
102
}
330
2
100
AcDbSymbolTableRecord
100
AcDbLayerTableRecord
  2
DEFAULT_2
 70
     0
 62
     8
  6
HIDDEN
370
    -3
390
F
  0
LAYER
  5
1FC
102
{ACAD_XDICTIONARY
360
623
102
}
330
2
100
AcDbSymbolTableRecord
100
AcDbLayerTableRecord
  2
DEFAULT_3
 70
     0
 62
     7
  6
PHANTOM
370
    -3
390
F
  0
LAYER
  5
1FD
102
{ACAD_XDICTIONARY
360
625
102
}
330
2
100
AcDbSymbolTableRecord
100
AcDbLayerTableRecord
  2
DATUMS
 70
     0
 62
     7
  6
CONTINUOUS
370
    -3
390
F
  0
LAYER
  5
1FE
102
{ACAD_XDICTIONARY
360
627
102
}
330
2
100
AcDbSymbolTableRecord
100
AcDbLayerTableRecord
  2
DATUM_AXIS
 70
     0
 62
     7
  6
CONTINUOUS
370
    -3
390
F
  0
LAYER
  5
1FF
102
{ACAD_XDICTIONARY
360
629
102
}
330
2
100
AcDbSymbolTableRecord
100
AcDbLayerTableRecord
  2
DATUM_CSYS
 70
     0
 62
     7
  6
CONTINUOUS
370
    -3
390
F
  0
LAYER
  5
200
102
{ACAD_XDICTIONARY
360
62B
102
}
330
2
100
AcDbSymbolTableRecord
100
AcDbLayerTableRecord
  2
DATUM_PLANE
 70
     0
 62
     7
  6
CONTINUOUS
370
    -3
390
F
  0
LAYER
  5
201
102
{ACAD_XDICTIONARY
360
62D
102
}
330
2
100
AcDbSymbolTableRecord
100
AcDbLayerTableRecord
  2
DATUM_POINT
 70
     0
 62
     7
  6
CONTINUOUS
370
    -3
390
F
  0
LAYER
  5
202
102
{ACAD_XDICTIONARY
360
62F
102
}
330
2
100
AcDbSymbolTableRecord
100
AcDbLayerTableRecord
  2
_CURVE
 70
     0
 62
     7
  6
CONTINUOUS
370
    -3
390
F
  0
LAYER
  5
203
102
{ACAD_XDICTIONARY
360
631
102
}
330
2
100
AcDbSymbolTableRecord
100
AcDbLayerTableRecord
  2
_SURFACE
 70
     0
 62
     7
  6
CONTINUOUS
370
    -3
390
F
  0
LAYER
  5
204
102
{ACAD_XDICTIONARY
360
633
102
}
330
2
100
AcDbSymbolTableRecord
100
AcDbLayerTableRecord
  2
__REF_CURVE
 70
     0
 62
     7
  6
CONTINUOUS
370
    -3
390
F
  0
LAYER
  5
205
102
{ACAD_XDICTIONARY
360
635
102
}
330
2
100
AcDbSymbolTableRecord
100
AcDbLayerTableRecord
  2
__REF_SURFACE
 70
     0
 62
     7
  6
CONTINUOUS
370
    -3
390
F
  0
LAYER
  5
206
102
{ACAD_XDICTIONARY
360
637
102
}
330
2
100
AcDbSymbolTableRecord
100
AcDbLayerTableRecord
  2
___COSMETIC_SKETCH
 70
     0
 62
     7
  6
CONTINUOUS
370
    -3
390
F
  0
LAYER
  5
207
102
{ACAD_XDICTIONARY
360
639
102
}
330
2
100
AcDbSymbolTableRecord
100
AcDbLayerTableRecord
  2
___NOTE
 70
     0
 62
     7
  6
CONTINUOUS
370
    -3
390
F
  0
LAYER
  5
208
102
{ACAD_XDICTIONARY
360
63B
102
}
330
2
100
AcDbSymbolTableRecord
100
AcDbLayerTableRecord
  2
___SYMBOL
 70
     0
 62
     7
  6
CONTINUOUS
370
    -3
390
F
  0
ENDTAB
  0
TABLE
  2
STYLE
  5
3
330
0
100
AcDbSymbolTable
 70
    19
  0
STYLE
  5
11
330
3
100
AcDbSymbolTableRecord
100
AcDbTextStyleTableRecord
  2
STANDARD
 70
     0
 40
0.0
 41
0.8
 50
0.0
 71
     0
 42
0.2
  3
txt
  4

  0
STYLE
  5
209
330
3
100
AcDbSymbolTableRecord
100
AcDbTextStyleTableRecord
  2
TEXTSTYLE_1
 70
     0
 40
0.0
 41
0.8
 50
0.0
 71
     0
 42
0.2
  3
gdt
  4

  0
STYLE
  5
20A
330
3
100
AcDbSymbolTableRecord
100
AcDbTextStyleTableRecord
  2
TEXTSTYLE_2
 70
     0
 40
0.0
 41
1.04
 50
0.0
 71
     0
 42
0.2
  3
txt
  4

  0
STYLE
  5
20B
330
3
100
AcDbSymbolTableRecord
100
AcDbTextStyleTableRecord
  2
TEXTSTYLE_3
 70
     0
 40
0.0
 41
0.9399999999999998
 50
0.0
 71
     0
 42
0.2
  3
txt
  4

  0
STYLE
  5
20C
330
3
100
AcDbSymbolTableRecord
100
AcDbTextStyleTableRecord
  2
TEXTSTYLE_4
 70
     0
 40
0.0
 41
1.0
 50
0.0
 71
     0
 42
0.2
  3
txt
  4

  0
STYLE
  5
20D
330
3
100
AcDbSymbolTableRecord
100
AcDbTextStyleTableRecord
  2
TEXTSTYLE_5
 70
     0
 40
0.0
 41
1.199999999999999
 50
0.0
 71
     0
 42
0.2
  3
txt
  4

  0
STYLE
  5
20E
330
3
100
AcDbSymbolTableRecord
100
AcDbTextStyleTableRecord
  2
TEXTSTYLE_6
 70
     0
 40
0.0
 41
1.02
 50
0.0
 71
     0
 42
0.2
  3
txt
  4

  0
STYLE
  5
20F
330
3
100
AcDbSymbolTableRecord
100
AcDbTextStyleTableRecord
  2
TEXTSTYLE_7
 70
     0
 40
0.0
 41
0.925
 50
0.0
 71
     0
 42
0.2
  3
txt
  4

  0
STYLE
  5
210
330
3
100
AcDbSymbolTableRecord
100
AcDbTextStyleTableRecord
  2
TEXTSTYLE_8
 70
     0
 40
0.0
 41
0.85
 50
0.0
 71
     0
 42
0.2
  3
txt
  4

  0
STYLE
  5
211
330
3
100
AcDbSymbolTableRecord
100
AcDbTextStyleTableRecord
  2
TEXTSTYLE_9
 70
     0
 40
0.0
 41
1.05
 50
0.0
 71
     0
 42
0.2
  3
txt
  4

  0
STYLE
  5
212
330
3
100
AcDbSymbolTableRecord
100
AcDbTextStyleTableRecord
  2
TEXTSTYLE_10
 70
     0
 40
0.0
 41
1.09
 50
0.0
 71
     0
 42
0.2
  3
txt
  4

  0
STYLE
  5
213
330
3
100
AcDbSymbolTableRecord
100
AcDbTextStyleTableRecord
  2
TEXTSTYLE_11
 70
     0
 40
0.0
 41
0.99
 50
0.0
 71
     0
 42
0.2
  3
txt
  4

  0
STYLE
  5
214
330
3
100
AcDbSymbolTableRecord
100
AcDbTextStyleTableRecord
  2
TEXTSTYLE_12
 70
     0
 40
0.0
 41
1.07
 50
0.0
 71
     0
 42
0.2
  3
txt
  4

  0
STYLE
  5
215
330
3
100
AcDbSymbolTableRecord
100
AcDbTextStyleTableRecord
  2
TEXTSTYLE_13
 70
     0
 40
0.0
 41
1.229999999999999
 50
0.0
 71
     0
 42
0.2
  3
txt
  4

  0
STYLE
  5
216
330
3
100
AcDbSymbolTableRecord
100
AcDbTextStyleTableRecord
  2
TEXTSTYLE_14
 70
     0
 40
0.0
 41
1.01
 50
0.0
 71
     0
 42
0.2
  3
txt
  4

  0
STYLE
  5
217
330
3
100
AcDbSymbolTableRecord
100
AcDbTextStyleTableRecord
  2
TEXTSTYLE_15
 70
     0
 40
0.0
 41
1.03
 50
0.0
 71
     0
 42
0.2
  3
txt
  4

  0
STYLE
  5
218
330
3
100
AcDbSymbolTableRecord
100
AcDbTextStyleTableRecord
  2
TEXTSTYLE_16
 70
     0
 40
0.0
 41
0.9700055556
 50
0.0
 71
     0
 42
0.2
  3
txt
  4

  0
STYLE
  5
219
330
3
100
AcDbSymbolTableRecord
100
AcDbTextStyleTableRecord
  2
TEXTSTYLE_17
 70
     0
 40
0.0
 41
1.379999999999999
 50
0.0
 71
     0
 42
0.2
  3
txt
  4

  0
STYLE
  5
21A
330
3
100
AcDbSymbolTableRecord
100
AcDbTextStyleTableRecord
  2
TEXTSTYLE_18
 70
     0
 40
0.0
 41
0.95
 50
0.0
 71
     0
 42
0.2
  3
txt
  4

  0
ENDTAB
  0
TABLE
  2
VIEW
  5
6
330
0
100
AcDbSymbolTable
 70
     0
  0
ENDTAB
  0
TABLE
  2
UCS
  5
7
330
0
100
AcDbSymbolTable
 70
     0
  0
ENDTAB
  0
TABLE
  2
APPID
  5
9
330
0
100
AcDbSymbolTable
 70
     2
  0
APPID
  5
21B
330
9
100
AcDbSymbolTableRecord
100
AcDbRegAppTableRecord
  2
ACAD
 70
     0
  0
APPID
  5
5FA
330
9
100
AcDbSymbolTableRecord
100
AcDbRegAppTableRecord
  2
ACAD_MLEADERVER
 70
     0
  0
ENDTAB
  0
TABLE
  2
DIMSTYLE
  5
A
330
0
100
AcDbSymbolTable
 70
     1
100
AcDbDimStyleTable
 71
     0
  0
DIMSTYLE
105
226
330
A
100
AcDbSymbolTableRecord
100
AcDbDimStyleTableRecord
  2
STANDARD
 70
     0
 41
0.1875
 47
0.1
 48
0.1
 71
     1
 78
     4
140
0.15625
271
     1
272
     1
284
     4
340
11
  0
ENDTAB
  0
TABLE
  2
BLOCK_RECORD
  5
1
330
0
100
AcDbSymbolTable
 70
     8
  0
BLOCK_RECORD
  5
21C
330
1
100
AcDbSymbolTableRecord
100
AcDbBlockTableRecord
  2
*Model_Space
340
5A5
  0
BLOCK_RECORD
  5
21D
330
1
100
AcDbSymbolTableRecord
100
AcDbBlockTableRecord
  2
*Paper_Space
340
5A6
  0
BLOCK_RECORD
  5
21E
330
1
100
AcDbSymbolTableRecord
100
AcDbBlockTableRecord
  2
C_ARROW_BL3
340
0
  0
BLOCK_RECORD
  5
21F
330
1
100
AcDbSymbolTableRecord
100
AcDbBlockTableRecord
  2
C_ARROW_BL2
340
0
  0
BLOCK_RECORD
  5
220
330
1
100
AcDbSymbolTableRecord
100
AcDbBlockTableRecord
  2
C_ARROW_BL1
340
0
  0
BLOCK_RECORD
  5
221
330
1
100
AcDbSymbolTableRecord
100
AcDbBlockTableRecord
  2
C_ARROW_BL0
340
0
  0
ENDTAB
  0
ENDSEC
  0
SECTION
  2
BLOCKS
  0
BLOCK
  5
20
330
21C
100
AcDbEntity
  8
0
100
AcDbBlockBegin
  2
*Model_Space
 70
     0
 10
0.0
 20
0.0
 30
0.0
  3
*Model_Space
  1

  0
ENDBLK
  5
21
330
21C
100
AcDbEntity
  8
0
100
AcDbBlockEnd
  0
BLOCK
  5
1C
330
21D
100
AcDbEntity
 67
     1
  8
0
100
AcDbBlockBegin
  2
*Paper_Space
 70
     0
 10
0.0
 20
0.0
 30
0.0
  3
*Paper_Space
  1

  0
ENDBLK
  5
1D
330
21D
100
AcDbEntity
 67
     1
  8
0
100
AcDbBlockEnd
  0
BLOCK
  5
227
330
21E
100
AcDbEntity
  8
DEFAULT_2
  6
HIDDEN
 62
     8
100
AcDbBlockBegin
  2
C_ARROW_BL3
 70
     0
 10
43.6878685885
 20
17.0
 30
0.0
  3
C_ARROW_BL3
  1

  0
LINE
  5
228
330
21E
100
AcDbEntity
  8
DEFAULT_2
  6
HIDDEN
 62
     8
100
AcDbLine
 10
43.5003685885
 20
17.0
 30
0.0
 11
43.6878685885
 21
16.90625
 31
0.0
  0
LINE
  5
229
330
21E
100
AcDbEntity
  8
DEFAULT_2
  6
HIDDEN
 62
     8
100
AcDbLine
 10
43.5003685885
 20
17.0
 30
0.0
 11
43.6878685885
 21
17.09375
 31
0.0
  0
LINE
  5
22A
330
21E
100
AcDbEntity
  8
DEFAULT_2
  6
HIDDEN
 62
     8
100
AcDbLine
 10
43.6878685885
 20
17.0234375
 30
0.0
 11
43.6878685885
 21
17.09375
 31
0.0
  0
LINE
  5
22B
330
21E
100
AcDbEntity
  8
DEFAULT_2
  6
HIDDEN
 62
     8
100
AcDbLine
 10
43.8753685885
 20
17.0234375
 30
0.0
 11
43.6878685885
 21
17.0234375
 31
0.0
  0
LINE
  5
22C
330
21E
100
AcDbEntity
  8
DEFAULT_2
  6
HIDDEN
 62
     8
100
AcDbLine
 10
43.8753685885
 20
17.0234375
 30
0.0
 11
43.8753685885
 21
16.9765625
 31
0.0
  0
LINE
  5
22D
330
21E
100
AcDbEntity
  8
DEFAULT_2
  6
HIDDEN
 62
     8
100
AcDbLine
 10
43.6878685885
 20
16.9765625
 30
0.0
 11
43.8753685885
 21
16.9765625
 31
0.0
  0
LINE
  5
22E
330
21E
100
AcDbEntity
  8
DEFAULT_2
  6
HIDDEN
 62
     8
100
AcDbLine
 10
43.6878685885
 20
16.90625
 30
0.0
 11
43.6878685885
 21
16.9765625
 31
0.0
  0
LWPOLYLINE
  5
22F
330
21E
100
AcDbEntity
  8
DEFAULT_2
  6
HIDDEN
 62
     8
100
AcDbPolyline
 90
        8
 70
     0
 43
0.0
 10
43.5003685885
 20
17.0
 10
43.6878685885
 20
17.09375
 10
43.6878685885
 20
17.0234375
 10
43.8753685885
 20
17.0234375
 10
43.8753685885
 20
16.9765625
 10
43.6878685885
 20
16.9765625
 10
43.6878685885
 20
16.90625
 10
43.5003685885
 20
17.0
  0
HATCH
  5
230
330
21E
100
AcDbEntity
  8
DEFAULT_2
  6
HIDDEN
 62
     8
100
AcDbHatch
 10
0.0
 20
0.0
 30
0.0
210
0.0
220
0.0
230
1.0
  2
SOLID
 70
     1
 71
     1
 91
        1
 92
        1
 93
        7
 72
     1
 10
43.5003685885
 20
17.0
 11
43.6878685885
 21
17.09375
 72
     1
 10
43.6878685885
 20
17.09375
 11
43.6878685885
 21
17.0234375
 72
     1
 10
43.6878685885
 20
17.0234375
 11
43.8753685885
 21
17.0234375
 72
     1
 10
43.8753685885
 20
17.0234375
 11
43.8753685885
 21
16.9765625
 72
     1
 10
43.8753685885
 20
16.9765625
 11
43.6878685885
 21
16.9765625
 72
     1
 10
43.6878685885
 20
16.9765625
 11
43.6878685885
 21
16.90625
 72
     1
 10
43.6878685885
 20
16.90625
 11
43.5003685885
 21
17.0
 97
        1
330
22F
 75
     0
 76
     1
 98
        1
 10
0.0
 20
0.0
  0
ENDBLK
  5
231
330
21E
100
AcDbEntity
  8
0
  6
ByBlock
 62
     0
100
AcDbBlockEnd
  0
BLOCK
  5
232
330
21F
100
AcDbEntity
  8
DEFAULT_2
  6
HIDDEN
 62
     8
100
AcDbBlockBegin
  2
C_ARROW_BL2
 70
     0
 10
22.0
 20
0.3125
 30
0.0
  3
C_ARROW_BL2
  1

  0
LINE
  5
233
330
21F
100
AcDbEntity
  8
DEFAULT_2
  6
HIDDEN
 62
     8
100
AcDbLine
 10
22.0
 20
0.5
 30
0.0
 11
21.90625
 21
0.3125
 31
0.0
  0
LINE
  5
234
330
21F
100
AcDbEntity
  8
DEFAULT_2
  6
HIDDEN
 62
     8
100
AcDbLine
 10
22.0
 20
0.5
 30
0.0
 11
22.09375
 21
0.3125
 31
0.0
  0
LINE
  5
235
330
21F
100
AcDbEntity
  8
DEFAULT_2
  6
HIDDEN
 62
     8
100
AcDbLine
 10
22.0234375
 20
0.3125
 30
0.0
 11
22.09375
 21
0.3125
 31
0.0
  0
LINE
  5
236
330
21F
100
AcDbEntity
  8
DEFAULT_2
  6
HIDDEN
 62
     8
100
AcDbLine
 10
22.0234375
 20
0.125
 30
0.0
 11
22.0234375
 21
0.3125
 31
0.0
  0
LINE
  5
237
330
21F
100
AcDbEntity
  8
DEFAULT_2
  6
HIDDEN
 62
     8
100
AcDbLine
 10
22.0234375
 20
0.125
 30
0.0
 11
21.9765625
 21
0.125
 31
0.0
  0
LINE
  5
238
330
21F
100
AcDbEntity
  8
DEFAULT_2
  6
HIDDEN
 62
     8
100
AcDbLine
 10
21.9765625
 20
0.3125
 30
0.0
 11
21.9765625
 21
0.125
 31
0.0
  0
LINE
  5
239
330
21F
100
AcDbEntity
  8
DEFAULT_2
  6
HIDDEN
 62
     8
100
AcDbLine
 10
21.90625
 20
0.3125
 30
0.0
 11
21.9765625
 21
0.3125
 31
0.0
  0
LWPOLYLINE
  5
23A
330
21F
100
AcDbEntity
  8
DEFAULT_2
  6
HIDDEN
 62
     8
100
AcDbPolyline
 90
        8
 70
     0
 43
0.0
 10
22.0
 20
0.5
 10
22.09375
 20
0.3125
 10
22.0234375
 20
0.3125
 10
22.0234375
 20
0.125
 10
21.9765625
 20
0.125
 10
21.9765625
 20
0.3125
 10
21.90625
 20
0.3125
 10
22.0
 20
0.5
  0
HATCH
  5
23B
330
21F
100
AcDbEntity
  8
DEFAULT_2
  6
HIDDEN
 62
     8
100
AcDbHatch
 10
0.0
 20
0.0
 30
0.0
210
0.0
220
0.0
230
1.0
  2
SOLID
 70
     1
 71
     1
 91
        1
 92
        1
 93
        7
 72
     1
 10
22.0
 20
0.5
 11
22.09375
 21
0.3125
 72
     1
 10
22.09375
 20
0.3125
 11
22.0234375
 21
0.3125
 72
     1
 10
22.0234375
 20
0.3125
 11
22.0234375
 21
0.125
 72
     1
 10
22.0234375
 20
0.125
 11
21.9765625
 21
0.125
 72
     1
 10
21.9765625
 20
0.125
 11
21.9765625
 21
0.3125
 72
     1
 10
21.9765625
 20
0.3125
 11
21.90625
 21
0.3125
 72
     1
 10
21.90625
 20
0.3125
 11
22.0
 21
0.5
 97
        1
330
23A
 75
     0
 76
     1
 98
        1
 10
0.0
 20
0.0
  0
ENDBLK
  5
23C
330
21F
100
AcDbEntity
  8
0
  6
ByBlock
 62
     0
100
AcDbBlockEnd
  0
BLOCK
  5
23D
330
220
100
AcDbEntity
  8
DEFAULT_2
  6
HIDDEN
 62
     8
100
AcDbBlockBegin
  2
C_ARROW_BL1
 70
     0
 10
0.3120169847
 20
17.0
 30
0.0
  3
C_ARROW_BL1
  1

  0
LINE
  5
23E
330
220
100
AcDbEntity
  8
DEFAULT_2
  6
HIDDEN
 62
     8
100
AcDbLine
 10
0.4995169847
 20
17.0
 30
0.0
 11
0.3120169847
 21
17.09375
 31
0.0
  0
LINE
  5
23F
330
220
100
AcDbEntity
  8
DEFAULT_2
  6
HIDDEN
 62
     8
100
AcDbLine
 10
0.4995169847
 20
17.0
 30
0.0
 11
0.3120169847
 21
16.90625
 31
0.0
  0
LINE
  5
240
330
220
100
AcDbEntity
  8
DEFAULT_2
  6
HIDDEN
 62
     8
100
AcDbLine
 10
0.3120169847
 20
16.9765625
 30
0.0
 11
0.3120169847
 21
16.90625
 31
0.0
  0
LINE
  5
241
330
220
100
AcDbEntity
  8
DEFAULT_2
  6
HIDDEN
 62
     8
100
AcDbLine
 10
0.1245169847
 20
16.9765625
 30
0.0
 11
0.3120169847
 21
16.9765625
 31
0.0
  0
LINE
  5
242
330
220
100
AcDbEntity
  8
DEFAULT_2
  6
HIDDEN
 62
     8
100
AcDbLine
 10
0.1245169847
 20
16.9765625
 30
0.0
 11
0.1245169847
 21
17.0234375
 31
0.0
  0
LINE
  5
243
330
220
100
AcDbEntity
  8
DEFAULT_2
  6
HIDDEN
 62
     8
100
AcDbLine
 10
0.3120169847
 20
17.0234375
 30
0.0
 11
0.1245169847
 21
17.0234375
 31
0.0
  0
LINE
  5
244
330
220
100
AcDbEntity
  8
DEFAULT_2
  6
HIDDEN
 62
     8
100
AcDbLine
 10
0.3120169847
 20
17.09375
 30
0.0
 11
0.3120169847
 21
17.0234375
 31
0.0
  0
LWPOLYLINE
  5
245
330
220
100
AcDbEntity
  8
DEFAULT_2
  6
HIDDEN
 62
     8
100
AcDbPolyline
 90
        8
 70
     0
 43
0.0
 10
0.4995169847
 20
17.0
 10
0.3120169847
 20
16.90625
 10
0.3120169847
 20
16.9765625
 10
0.1245169847
 20
16.9765625
 10
0.1245169847
 20
17.0234375
 10
0.3120169847
 20
17.0234375
 10
0.3120169847
 20
17.09375
 10
0.4995169847
 20
17.0
  0
HATCH
  5
246
330
220
100
AcDbEntity
  8
DEFAULT_2
  6
HIDDEN
 62
     8
100
AcDbHatch
 10
0.0
 20
0.0
 30
0.0
210
0.0
220
0.0
230
1.0
  2
SOLID
 70
     1
 71
     1
 91
        1
 92
        1
 93
        7
 72
     1
 10
0.4995169847
 20
17.0
 11
0.3120169847
 21
16.90625
 72
     1
 10
0.3120169847
 20
16.90625
 11
0.3120169847
 21
16.9765625
 72
     1
 10
0.3120169847
 20
16.9765625
 11
0.1245169847
 21
16.9765625
 72
     1
 10
0.1245169847
 20
16.9765625
 11
0.1245169847
 21
17.0234375
 72
     1
 10
0.1245169847
 20
17.0234375
 11
0.3120169847
 21
17.0234375
 72
     1
 10
0.3120169847
 20
17.0234375
 11
0.3120169847
 21
17.09375
 72
     1
 10
0.3120169847
 20
17.09375
 11
0.4995169847
 21
17.0
 97
        1
330
245
 75
     0
 76
     1
 98
        1
 10
0.0
 20
0.0
  0
ENDBLK
  5
247
330
220
100
AcDbEntity
  8
0
  6
ByBlock
 62
     0
100
AcDbBlockEnd
  0
BLOCK
  5
248
330
221
100
AcDbEntity
  8
DEFAULT_2
  6
HIDDEN
 62
     8
100
AcDbBlockBegin
  2
C_ARROW_BL0
 70
     0
 10
22.0
 20
33.6875
 30
0.0
  3
C_ARROW_BL0
  1

  0
LINE
  5
249
330
221
100
AcDbEntity
  8
DEFAULT_2
  6
HIDDEN
 62
     8
100
AcDbLine
 10
22.0
 20
33.5
 30
0.0
 11
22.09375
 21
33.6875
 31
0.0
  0
LINE
  5
24A
330
221
100
AcDbEntity
  8
DEFAULT_2
  6
HIDDEN
 62
     8
100
AcDbLine
 10
22.0
 20
33.5
 30
0.0
 11
21.90625
 21
33.6875
 31
0.0
  0
LINE
  5
24B
330
221
100
AcDbEntity
  8
DEFAULT_2
  6
HIDDEN
 62
     8
100
AcDbLine
 10
21.9765625
 20
33.6875
 30
0.0
 11
21.90625
 21
33.6875
 31
0.0
  0
LINE
  5
24C
330
221
100
AcDbEntity
  8
DEFAULT_2
  6
HIDDEN
 62
     8
100
AcDbLine
 10
21.9765625
 20
33.875
 30
0.0
 11
21.9765625
 21
33.6875
 31
0.0
  0
LINE
  5
24D
330
221
100
AcDbEntity
  8
DEFAULT_2
  6
HIDDEN
 62
     8
100
AcDbLine
 10
21.9765625
 20
33.875
 30
0.0
 11
22.0234375
 21
33.875
 31
0.0
  0
LINE
  5
24E
330
221
100
AcDbEntity
  8
DEFAULT_2
  6
HIDDEN
 62
     8
100
AcDbLine
 10
22.0234375
 20
33.6875
 30
0.0
 11
22.0234375
 21
33.875
 31
0.0
  0
LINE
  5
24F
330
221
100
AcDbEntity
  8
DEFAULT_2
  6
HIDDEN
 62
     8
100
AcDbLine
 10
22.09375
 20
33.6875
 30
0.0
 11
22.0234375
 21
33.6875
 31
0.0
  0
LWPOLYLINE
  5
250
330
221
100
AcDbEntity
  8
DEFAULT_2
  6
HIDDEN
 62
     8
100
AcDbPolyline
 90
        8
 70
     0
 43
0.0
 10
22.0
 20
33.5
 10
21.90625
 20
33.6875
 10
21.9765625
 20
33.6875
 10
21.9765625
 20
33.875
 10
22.0234375
 20
33.875
 10
22.0234375
 20
33.6875
 10
22.09375
 20
33.6875
 10
22.0
 20
33.5
  0
HATCH
  5
251
330
221
100
AcDbEntity
  8
DEFAULT_2
  6
HIDDEN
 62
     8
100
AcDbHatch
 10
0.0
 20
0.0
 30
0.0
210
0.0
220
0.0
230
1.0
  2
SOLID
 70
     1
 71
     1
 91
        1
 92
        1
 93
        7
 72
     1
 10
22.0
 20
33.5
 11
21.90625
 21
33.6875
 72
     1
 10
21.90625
 20
33.6875
 11
21.9765625
 21
33.6875
 72
     1
 10
21.9765625
 20
33.6875
 11
21.9765625
 21
33.875
 72
     1
 10
21.9765625
 20
33.875
 11
22.0234375
 21
33.875
 72
     1
 10
22.0234375
 20
33.875
 11
22.0234375
 21
33.6875
 72
     1
 10
22.0234375
 20
33.6875
 11
22.09375
 21
33.6875
 72
     1
 10
22.09375
 20
33.6875
 11
22.0
 21
33.5
 97
        1
330
250
 75
     0
 76
     1
 98
        1
 10
0.0
 20
0.0
  0
ENDBLK
  5
252
330
221
100
AcDbEntity
  8
0
  6
ByBlock
 62
     0
100
AcDbBlockEnd
  0
ENDSEC
  0
SECTION
  2
ENTITIES
  0
LINE
  5
470
330
21C
100
AcDbEntity
  8
0
  6
Continuous
 62
     7
100
AcDbLine
 10
8.557737345399999
 20
14.7034700989
 30
0.0
 11
8.557737345399999
 21
14.6404779729
 31
0.0
  0
LINE
  5
471
330
21C
100
AcDbEntity
  8
0
  6
Continuous
 62
     7
100
AcDbLine
 10
8.8766349832
 20
14.4081945083
 30
0.0
 11
8.8766349832
 21
14.6404779729
 31
0.0
  0
LINE
  5
472
330
21C
100
AcDbEntity
  8
0
  6
Continuous
 62
     7
100
AcDbLine
 10
8.8923830146
 20
14.4081945083
 30
0.0
 11
8.8923830146
 21
14.6404779729
 31
0.0
  0
LWPOLYLINE
  5
473
330
21C
100
AcDbEntity
  8
0
  6
Continuous
 62
     7
100
AcDbPolyline
 90
      200
 70
     0
 43
0.0
 10
9.515176847200001
 20
11.6819683426
 10
9.5154139421
 20
11.678871471
 10
9.515665483599999
 20
11.6757660606
 10
9.515931700700001
 20
11.6726509682
 10
9.516212620499999
 20
11.6695274812
 10
9.516508013699999
 20
11.6663993123
 10
9.516817954299998
 20
11.6632665318
 10
9.517142515899999
 20
11.6601292096
 10
9.517481371599998
 20
11.6569910502
 10
9.517834521799999
 20
11.6538523284
 10
9.518202012599999
 20
11.6507129021
 10
9.518583495799999
 20
11.6475758413
 10
9.518978824199999
 20
11.6444422235
 10
9.519388101799998
 20
11.6413110938
 10
9.5198113173
 20
11.6381824696
 10
9.520248417199999
 20
11.6350566691
 10
9.520699418299999
 20
11.6319334969
 10
9.5211644259
 20
11.6288122014
 10
9.521643474999999
 20
11.6256925757
 10
9.5221365188
 20
11.622574953
 10
9.522643550099999
 20
11.6194593939
 10
9.5231645736
 20
11.6163458873
 10
9.523699569399999
 20
11.6132345701
 10
9.524248489699999
 20
11.6101257248
 10
9.52481131
 20
11.6070194852
 10
9.5253880307
 20
11.6039158417
 10
9.525978638799999
 20
11.6008148611
 10
9.526583117799999
 20
11.5977166265
 10
9.5272014588
 20
11.5946211787
 10
9.5278336609
 20
11.5915285206
 10
9.528479715700001
 20
11.5884386953
 10
9.529139606599999
 20
11.5853517838
 10
9.5298133208
 20
11.5822678459
 10
9.5305008464
 20
11.5791869374
 10
9.5312021685
 20
11.5761091264
 10
9.5319172694
 20
11.5730344905
 10
9.5326461337
 20
11.5699630964
 10
9.5333887476
 20
11.5668950006
 10
9.534145096199999
 20
11.5638302657
 10
9.534915163799999
 20
11.5607689547
 10
9.535698935199999
 20
11.5577111273
 10
9.5364963959
 20
11.5546568407
 10
9.537307530099999
 20
11.5516061548
 10
9.538132321399999
 20
11.5485591322
 10
9.538970753099999
 20
11.5455158336
 10
9.5398228088
 20
11.5424763196
 10
9.540688471000001
 20
11.5394406518
 10
9.541567722199999
 20
11.5364088922
 10
9.5424605446
 20
11.5333811019
 10
9.5433669204
 20
11.5303573413
 10
9.544286831399999
 20
11.5273376714
 10
9.545220259
 20
11.5243221526
 10
9.546167184599999
 20
11.5213108455
 10
9.547127589299998
 20
11.5183038102
 10
9.548101453799999
 20
11.5153011069
 10
9.549088758499999
 20
11.5123027959
 10
9.5500894837
 20
11.5093089374
 10
9.5511036093
 20
11.5063195913
 10
9.552131114899999
 20
11.5033348176
 10
9.55317198
 20
11.5003546765
 10
9.5542261835
 20
11.4973792276
 10
9.5552937044
 20
11.4944085306
 10
9.5563745213
 20
11.4914426452
 10
9.5574686123
 20
11.4884816309
 10
9.5585759557
 20
11.4855255471
 10
9.5596965292
 20
11.4825744531
 10
9.5608303102
 20
11.4796284081
 10
9.5619772762
 20
11.47668747119999
 10
9.563137403899999
 20
11.4737517014
 10
9.564310670199999
 20
11.4708211576
 10
9.565497051599999
 20
11.4678958986
 10
9.566696524199999
 20
11.4649759831
 10
9.5679090639
 20
11.4620614697
 10
9.5691346464
 20
11.4591524169
 10
9.5703732472
 20
11.456248883
 10
9.5716248414
 20
11.4533509263
 10
9.572889403799999
 20
11.450458605
 10
9.574166909099998
 20
11.447571977
 10
9.575457331699999
 20
11.4446911004
 10
9.5767606457
 20
11.4418160328
 10
9.5780768249
 20
11.438946832
 10
9.579405842899999
 20
11.4360835555
 10
9.580747672999999
 20
11.4332262609
 10
9.582102288399999
 20
11.4303750054
 10
9.583469661799998
 20
11.4275298462
 10
9.584849765899999
 20
11.4246908404
 10
9.586242572799999
 20
11.4218580451
 10
9.5876480548
 20
11.4190315169
 10
9.589066183499999
 20
11.4162113127
 10
9.590496930499998
 20
11.413397489
 10
9.5919402671
 20
11.4105901023
 10
9.593396164400001
 20
11.4077892089
 10
9.5948645932
 20
11.404994865
 10
9.5963455239
 20
11.4022071266
 10
9.597838926899999
 20
11.3994260498
 10
9.5993447722
 20
11.3966516903
 10
9.600863029600001
 20
11.3938841037
 10
9.602393668599999
 20
11.3911233456
 10
9.6039366585
 20
11.3883694715
 10
9.6054919684
 20
11.3856225364
 10
9.607059567
 20
11.3828825957
 10
9.608639422999999
 20
11.3801497042
 10
9.610231504499999
 20
11.3774239167
 10
9.611835779699999
 20
11.374705288
 10
9.6134522164
 20
11.3719938726
 10
9.615080782099999
 20
11.3692897249
 10
9.616721444099999
 20
11.3665928992
 10
9.6183741696
 20
11.3639034496
 10
9.620038925399999
 20
11.36122143
 10
9.621715677999999
 20
11.3585468943
 10
9.623404393899999
 20
11.355879896
 10
9.625105039099999
 20
11.3532204888
 10
9.6268175796
 20
11.350568726
 10
9.628541980899999
 20
11.3479246608
 10
9.6302782085
 20
11.3452883462
 10
9.6320262275
 20
11.3426598352
 10
9.633786002899999
 20
11.3400391804
 10
9.635557499299999
 20
11.3374264345
 10
9.637340681299999
 20
11.3348216498
 10
9.639135512999999
 20
11.3322248787
 10
9.6409419584
 20
11.3296361733
 10
9.642759981199999
 20
11.3270555854
 10
9.6445895451
 20
11.3244831669
 10
9.646430613299999
 20
11.3219189694
 10
9.648283148799999
 20
11.3193630443
 10
9.650147114400001
 20
11.316815443
 10
9.652022472899998
 20
11.3142762164
 10
9.653909186499999
 20
11.3117454156
 10
9.655807217399999
 20
11.3092230914
 10
9.657716527499999
 20
11.3067092943
 10
9.659637078499999
 20
11.3042040748
 10
9.6615688319
 20
11.3017074832
 10
9.663511748899999
 20
11.2992195695
 10
9.665465790599998
 20
11.2967403837
 10
9.667430917599999
 20
11.2942699756
 10
9.6694070906
 20
11.2918083946
 10
9.67139427
 20
11.2893556902
 10
9.6733924159
 20
11.2869119115
 10
9.675401488099998
 20
11.2844771077
 10
9.6774214464
 20
11.2820513276
 10
9.6794522502
 20
11.2796346197
 10
9.681493858899999
 20
11.2772270328
 10
9.683546231299999
 20
11.2748286149
 10
9.685609326399999
 20
11.2724394143
 10
9.687683102799999
 20
11.270059479
 10
9.6897675188
 20
11.2676888565
 10
9.6918625326
 20
11.2653275946
 10
9.693968102299999
 20
11.2629757406
 10
9.6960841854
 20
11.2606333416
 10
9.6982107397
 20
11.2583004447
 10
9.7003477224
 20
11.2559770967
 10
9.702495090599999
 20
11.2536633442
 10
9.704652801199999
 20
11.2513592336
 10
9.7068208111
 20
11.2490648112
 10
9.708999076599999
 20
11.246780123
 10
9.711187554
 20
11.2445052148
 10
9.7133861995
 20
11.2422401323
 10
9.715594968999999
 20
11.2399849209
 10
9.717813817999999
 20
11.2377396259
 10
9.7200427021
 20
11.2355042922
 10
9.7222815767
 20
11.2332789649
 10
9.7245303966
 20
11.2310636885
 10
9.7267891169
 20
11.2288585075
 10
9.729057692299999
 20
11.226663466
 10
9.731336077099999
 20
11.2244786083
 10
9.733624225699999
 20
11.222303978
 10
9.7359220922
 20
11.2201396188
 10
9.738229630399999
 20
11.2179855742
 10
9.7405467941
 20
11.2158418874
 10
9.742873536799999
 20
11.2137086014
 10
9.745209811799998
 20
11.2115857589
 10
9.747555572199999
 20
11.2094734026
 10
9.749910770899999
 20
11.2073715749
 10
9.7522753608
 20
11.205280318
 10
9.7546492942
 20
11.2031996737
 10
9.757032523799999
 20
11.2011296838
 10
9.7594250015
 20
11.19907039
 10
9.7618266794
 20
11.1970218334
 10
9.764237509299999
 20
11.1949840552
 10
9.766657442899999
 20
11.1929570963
 10
9.769086431499999
 20
11.1909409973
 10
9.771524426499999
 20
11.1889357988
 10
9.773971378999998
 20
11.1869415408
 10
9.7764272397
 20
11.1849582636
 10
9.778891959600001
 20
11.1829860067
 10
9.781365489
 20
11.1810248099
 10
9.7838477784
 20
11.1790747125
 10
9.786338777999999
 20
11.1771357535
 10
9.788838437799999
 20
11.1752079719
 10
9.7913467076
 20
11.1732914064
 10
9.7938635372
 20
11.1713860954
 10
9.796388875899999
 20
11.1694920772
 10
9.798922673199999
 20
11.1676093898
 10
9.8014648782
 20
11.1657380708
 10
9.80401544
 20
11.163878158
 10
9.8065743072
 20
11.1620296885
 10
9.8091414286
 20
11.1601926996
 10
9.8117167527
 20
11.158367228
 10
9.8143002278
 20
11.1565533103
 10
9.8168918021
 20
11.154750983
  0
LWPOLYLINE
  5
474
330
21C
100
AcDbEntity
  8
0
  6
Continuous
 62
     7
100
AcDbPolyline
 90
      129
 70
     0
 43
0.0
 10
9.8168918021
 20
11.154750983
 10
9.8194914235
 20
11.1529602823
 10
9.822099039999999
 20
11.1511812439
 10
9.8247145991
 20
11.1494139038
 10
9.827338048499999
 20
11.1476582973
 10
9.829969335399999
 20
11.1459144595
 10
9.8326084071
 20
11.1441824257
 10
9.835255210699999
 20
11.1424622304
 10
9.8379096929
 20
11.1407539082
 10
9.840571800700001
 20
11.1390574933
 10
9.843241480399999
 20
11.1373730199
 10
9.8459186787
 20
11.1357005216
 10
9.848603341699998
 20
11.1340400322
 10
9.851295415599999
 20
11.1323915848
 10
9.853994846499999
 20
11.1307552125
 10
9.856701579999999
 20
11.1291309483
 10
9.859415562
 20
11.1275188246
 10
9.8621367379
 20
11.1259188738
 10
9.8648650532
 20
11.1243311281
 10
9.867600453099999
 20
11.1227556192
 10
9.870342882699999
 20
11.1211923788
 10
9.8730922871
 20
11.1196414383
 10
9.875848611
 20
11.1181028287
 10
9.878611799199999
 20
11.116576581
 10
9.881381796099999
 20
11.1150627258
 10
9.8841585463
 20
11.1135612934
 10
9.886941993999998
 20
11.112072314
 10
9.8897320834
 20
11.1105958174
 10
9.892528758500001
 20
11.1091318333
 10
9.8953319631
 20
11.107680391
 10
9.898141641
 20
11.1062415197
 10
9.900957736
 20
11.1048152482
 10
9.903780191299999
 20
11.1034016052
 10
9.906608950499999
 20
11.102000619
 10
9.909443956699998
 20
11.1006123177
 10
9.9122851532
 20
11.0992367292
 10
9.9151324827
 20
11.09787388109999
 10
9.9179858884
 20
11.0965238006
 10
9.920845312799999
 20
11.0951865151
 10
9.9237106987
 20
11.0938620511
 10
9.9265819885
 20
11.0925504354
 10
9.929459124600001
 20
11.0912516942
 10
9.932342049299998
 20
11.0899658536
 10
9.9352307047
 20
11.0886929394
 10
9.9381250329
 20
11.0874329771
 10
9.941024975899999
 20
11.086185992
 10
9.9439304754
 20
11.0849520092
 10
9.946841473099999
 20
11.0837310533
 10
9.949757910599998
 20
11.082523149
 10
9.952679729499999
 20
11.0813283203
 10
9.955606871
 20
11.0801465914
 10
9.958539276499999
 20
11.0789779859
 10
9.961476887099999
 20
11.0778225272
 10
9.964419643899999
 20
11.0766802386
 10
9.967367487799998
 20
11.0755511429
 10
9.9703203598
 20
11.0744352629
 10
9.973278200399999
 20
11.0733326208
 10
9.976240950499999
 20
11.0722432389
 10
9.979208550499999
 20
11.0711671389
 10
9.982180940900001
 20
11.0701043426
 10
9.985158062
 20
11.0690548711
 10
9.988139854299999
 20
11.0680187456
 10
9.991126257699999
 20
11.0669959868
 10
9.9941172124
 20
11.0659866153
 10
9.9971126583
 20
11.0649906513
 10
10.0001125355
 20
11.0640081148
 10
10.0031167836
 20
11.0630390255
 10
10.0061253425
 20
11.0620834029
 10
10.0091381516
 20
11.0611412661
 10
10.0121551507
 20
11.0602126341
 10
10.0151762791
 20
11.0592975254
 10
10.0182014763
 20
11.0583959585
 10
10.0212306815
 20
11.0575079513
 10
10.024263834
 20
11.0566335219
 10
10.0273008729
 20
11.0557726875
 10
10.0303417372
 20
11.0549254657
 10
10.033386366
 20
11.0540918733
 10
10.0364346982
 20
11.053271927
 10
10.0394866726
 20
11.0524656434
 10
10.0425422279
 20
11.0516730386
 10
10.0456013029
 20
11.0508941286
 10
10.0486638362
 20
11.0501289288
 10
10.0517297664
 20
11.0493774548
 10
10.0547990318
 20
11.0486397215
 10
10.057871571
 20
11.0479157437
 10
10.0609473223
 20
11.04720553609999
 10
10.064026224
 20
11.0465091128
 10
10.0671082143
 20
11.0458264879
 10
10.0701932313
 20
11.045157675
 10
10.0732812132
 20
11.0445026874
 10
10.076372098
 20
11.0438615385
 10
10.0794658237
 20
11.043234241
 10
10.0825623282
 20
11.0426208076
 10
10.0856615494
 20
11.0420212504
 10
10.0887634251
 20
11.0414355817
 10
10.0918678931
 20
11.040863813
 10
10.0949748911
 20
11.040305956
 10
10.0980843567
 20
11.0397620217
 10
10.1011962276
 20
11.0392320211
 10
10.1043104412
 20
11.0387159649
 10
10.1074269352
 20
11.0382138633
 10
10.110545647
 20
11.0377257265
 10
10.1136665141
 20
11.0372515642
 10
10.1167894737
 20
11.036791386
 10
10.1199144633
 20
11.0363452012
 10
10.1230414201
 20
11.0359130185
 10
10.1261702815
 20
11.0354948468
 10
10.1293009845
 20
11.0350906944
 10
10.1324334665
 20
11.0347005694
 10
10.1355676646
 20
11.0343244796
 10
10.1387035158
 20
11.0339624327
 10
10.1418409573
 20
11.0336144358
 10
10.144979926
 20
11.033280496
 10
10.1481203591
 20
11.0329606199
 10
10.1512621936
 20
11.0326548139
 10
10.1544053663
 20
11.0323630843
 10
10.1575498142
 20
11.0320854368
 10
10.1606954743
 20
11.031821877
 10
10.1638422833
 20
11.0315724102
 10
10.1669901782
 20
11.0313370415
 10
10.1701390958
 20
11.0311157755
 10
10.173288973
 20
11.0309086166
 10
10.1764397465
 20
11.0307155691
 10
10.1795913531
 20
11.0305366368
 10
10.1827437295
 20
11.0303718233
 10
10.1858968126
 20
11.0302211319
 10
10.1890505391
 20
11.0300845656
 10
10.1922048456
 20
11.0299621272
 10
12.0786539057
 20
10.9640849139
  0
LINE
  5
475
330
21C
100
AcDbEntity
  8
0
  6
Continuous
 62
     7
100
AcDbLine
 10
9.3161466678
 20
14.5281350042
 30
0.0
 11
9.5149540771
 21
11.6850565944
 31
0.0
  0
LINE
  5
476
330
21C
100
AcDbEntity
  8
0
  6
Continuous
 62
     7
100
AcDbLine
 10
9.515176847200001
 20
11.6819683426
 30
0.0
 11
9.5149527671
 21
11.6850753279
 31
0.0
  0
LINE
  5
477
330
21C
100
AcDbEntity
  8
0
  6
Continuous
 62
     7
100
AcDbLine
 10
10.7230916761
 20
14.5066197052
 30
0.0
 11
10.7230916761
 21
14.6404779729
 31
0.0
  0
LINE
  5
478
330
21C
100
AcDbEntity
  8
0
  6
Continuous
 62
     7
100
AcDbLine
 10
10.9691546682
 20
14.5853598627
 30
0.0
 11
10.9691546682
 21
14.4869346658
 31
0.0
  0
LINE
  5
479
330
21C
100
AcDbEntity
  8
0
  6
Continuous
 62
     7
100
AcDbLine
 10
11.2644302587
 20
14.4869346658
 30
0.0
 11
11.2644302587
 21
14.5853598627
 31
0.0
  0
LINE
  5
47A
330
21C
100
AcDbEntity
  8
0
  6
Continuous
 62
     7
100
AcDbLine
 10
11.5104932509
 20
14.5066197052
 30
0.0
 11
11.5104932509
 21
14.6404779729
 31
0.0
  0
LINE
  5
47B
330
21C
100
AcDbEntity
  8
0
  6
Continuous
 62
     7
100
AcDbLine
 10
12.110785487
 20
10.9539465069
 30
0.0
 11
12.1229481812
 21
10.9460407557
 31
0.0
  0
LINE
  5
47C
330
21C
100
AcDbEntity
  8
0
  6
Continuous
 62
     7
100
AcDbLine
 10
8.948852092399999
 20
14.6404779729
 30
0.0
 11
8.962375827999998
 21
14.6269542373
 31
0.0
  0
LINE
  5
47D
330
21C
100
AcDbEntity
  8
0
  6
Continuous
 62
     7
100
AcDbLine
 10
12.1472948228
 20
10.9357802964
 30
0.0
 11
12.3748852019
 21
10.8845724611
 31
0.0
  0
LINE
  5
47E
330
21C
100
AcDbEntity
  8
0
  6
Continuous
 62
     7
100
AcDbLine
 10
13.9219105737
 20
14.5066197052
 30
0.0
 11
13.9219105737
 21
14.6404779729
 31
0.0
  0
LINE
  5
47F
330
21C
100
AcDbEntity
  8
0
  6
Continuous
 62
     7
100
AcDbLine
 10
14.1679735658
 20
14.5853598627
 30
0.0
 11
14.1679735658
 21
14.4869346658
 31
0.0
  0
LINE
  5
480
330
21C
100
AcDbEntity
  8
0
  6
Continuous
 62
     7
100
AcDbLine
 10
21.6020381357
 20
11.5263314775
 30
0.0
 11
21.3744477566
 21
11.4751236422
 31
0.0
  0
LINE
  5
481
330
21C
100
AcDbEntity
  8
0
  6
Continuous
 62
     7
100
AcDbLine
 10
14.4632491564
 20
14.4869346658
 30
0.0
 11
14.4632491564
 21
14.5853598627
 31
0.0
  0
LINE
  5
482
330
21C
100
AcDbEntity
  8
0
  6
Continuous
 62
     7
100
AcDbLine
 10
14.7093121485
 20
14.5066197052
 30
0.0
 11
14.7093121485
 21
14.6404779729
 31
0.0
  0
LINE
  5
483
330
21C
100
AcDbEntity
  8
0
  6
Continuous
 62
     7
100
AcDbLine
 10
16.3315588879
 20
11.0299206664
 30
0.0
 11
14.4462696039
 21
10.9640849139
 31
0.0
  0
LINE
  5
484
330
21C
100
AcDbEntity
  8
0
  6
Continuous
 62
     7
100
AcDbLine
 10
12.374885203
 20
10.8845724611
 30
0.0
 11
14.1500383066
 21
10.8845724611
 31
0.0
  0
LINE
  5
485
330
21C
100
AcDbEntity
  8
0
  6
Continuous
 62
     7
100
AcDbLine
 10
14.3776286868
 20
10.9357802964
 30
0.0
 11
14.1500383077
 21
10.8845724611
 31
0.0
  0
LINE
  5
486
330
21C
100
AcDbEntity
  8
0
  6
Continuous
 62
     7
100
AcDbLine
 10
22.3147024395
 20
11.5771258872
 30
0.0
 11
21.6706790527
 21
11.554636095
 31
0.0
  0
LINE
  5
487
330
21C
100
AcDbEntity
  8
0
  6
Continuous
 62
     7
100
AcDbLine
 10
19.5992946507
 20
11.4751236422
 30
0.0
 11
21.3744477565
 21
11.4751236422
 31
0.0
  0
LINE
  5
488
330
21C
100
AcDbEntity
  8
0
  6
Continuous
 62
     7
100
AcDbLine
 10
18.6590399677
 20
11.5771258872
 30
0.0
 11
19.3030633545
 21
11.554636095
 31
0.0
  0
LINE
  5
489
330
21C
100
AcDbEntity
  8
0
  6
Continuous
 62
     7
100
AcDbLine
 10
19.3717042716
 20
11.5263314775
 30
0.0
 11
19.5992946507
 21
11.4751236422
 31
0.0
  0
LINE
  5
48A
330
21C
100
AcDbEntity
  8
0
  6
Continuous
 62
     7
100
AcDbLine
 10
14.4141380226
 20
10.9539465069
 30
0.0
 11
14.4019753284
 21
10.9460407557
 31
0.0
  0
LINE
  5
48B
330
21C
100
AcDbEntity
  8
0
  6
Continuous
 62
     7
100
AcDbLine
 10
17.1207294713
 20
14.5066197052
 30
0.0
 11
17.1207294713
 21
14.6404779729
 31
0.0
  0
LINE
  5
48C
330
21C
100
AcDbEntity
  8
0
  6
Continuous
 62
     7
100
AcDbLine
 10
17.0099694325
 20
11.6850565944
 30
0.0
 11
17.2005143662
 21
14.4099760983
 31
0.0
  0
LINE
  5
48D
330
21C
100
AcDbEntity
  8
0
  6
Continuous
 62
     7
100
AcDbLine
 10
19.3351949359
 20
11.544497688
 30
0.0
 11
19.34735763
 21
11.5365919368
 31
0.0
  0
LINE
  5
48E
330
21C
100
AcDbEntity
  8
0
  6
Continuous
 62
     7
100
AcDbLine
 10
17.3667924635
 20
14.5853598627
 30
0.0
 11
17.3667924635
 21
14.4869346658
 31
0.0
  0
LINE
  5
48F
330
21C
100
AcDbEntity
  8
0
  6
Continuous
 62
     7
100
AcDbLine
 10
17.662068054
 20
14.4869346658
 30
0.0
 11
17.662068054
 21
14.5853598627
 31
0.0
  0
LINE
  5
490
330
21C
100
AcDbEntity
  8
0
  6
Continuous
 62
     7
100
AcDbLine
 10
21.6482885265
 20
14.4081945083
 30
0.0
 11
21.0577373454
 21
14.4081945083
 31
0.0
  0
LINE
  5
491
330
21C
100
AcDbEntity
  8
0
  6
Continuous
 62
     7
100
AcDbLine
 10
17.8097058493
 20
14.4081945083
 30
0.0
 11
17.2191546682
 21
14.4081945083
 31
0.0
  0
LINE
  5
492
330
21C
100
AcDbEntity
  8
0
  6
Continuous
 62
     7
100
AcDbLine
 10
14.6108869517
 20
14.4081945083
 30
0.0
 11
14.0203357706
 21
14.4081945083
 31
0.0
  0
LINE
  5
493
330
21C
100
AcDbEntity
  8
0
  6
Continuous
 62
     7
100
AcDbLine
 10
8.8766349832
 20
14.4081945083
 30
0.0
 11
8.8923830146
 21
14.4081945083
 31
0.0
  0
LINE
  5
494
330
21C
100
AcDbEntity
  8
0
  6
Continuous
 62
     7
100
AcDbLine
 10
10.8215168729
 20
14.4081945083
 30
0.0
 11
11.412068054
 21
14.4081945083
 31
0.0
  0
LINE
  5
495
330
21C
100
AcDbEntity
  8
0
  6
Continuous
 62
     7
100
AcDbLine
 10
23.5774223847
 20
14.4081945083
 30
0.0
 11
23.5931704162
 21
14.4081945083
 31
0.0
  0
LINE
  5
496
330
21C
100
AcDbEntity
  8
0
  6
Continuous
 62
     7
100
AcDbLine
 10
17.8283461513
 20
14.4099760983
 30
0.0
 11
17.9801016153
 21
12.2397718548
 31
0.0
  0
LINE
  5
497
330
21C
100
AcDbEntity
  8
0
  6
Continuous
 62
     7
100
AcDbLine
 10
17.9081310461
 20
14.5066197052
 30
0.0
 11
17.9081310461
 21
14.6404779729
 31
0.0
  0
LINE
  5
498
330
21C
100
AcDbEntity
  8
0
  6
Continuous
 62
     7
100
AcDbLine
 10
10.9691546682
 20
14.4869346658
 30
0.0
 11
11.2644302587
 21
14.4869346658
 31
0.0
  0
LINE
  5
499
330
21C
100
AcDbEntity
  8
0
  6
Continuous
 62
     7
100
AcDbLine
 10
14.1679735658
 20
14.4869346658
 30
0.0
 11
14.4632491564
 21
14.4869346658
 31
0.0
  0
LINE
  5
49A
330
21C
100
AcDbEntity
  8
0
  6
Continuous
 62
     7
100
AcDbLine
 10
17.3667924635
 20
14.4869346658
 30
0.0
 11
17.662068054
 21
14.4869346658
 31
0.0
  0
LINE
  5
49B
330
21C
100
AcDbEntity
  8
0
  6
Continuous
 62
     7
100
AcDbLine
 10
21.2053751406
 20
14.4869346658
 30
0.0
 11
21.5006507312
 21
14.4869346658
 31
0.0
  0
LINE
  5
49C
330
21C
100
AcDbEntity
  8
0
  6
Continuous
 62
     7
100
AcDbLine
 10
21.5006507312
 20
14.5853598627
 30
0.0
 11
21.2053751406
 21
14.5853598627
 31
0.0
  0
LINE
  5
49D
330
21C
100
AcDbEntity
  8
0
  6
Continuous
 62
     7
100
AcDbLine
 10
17.662068054
 20
14.5853598627
 30
0.0
 11
17.3667924635
 21
14.5853598627
 31
0.0
  0
LINE
  5
49E
330
21C
100
AcDbEntity
  8
0
  6
Continuous
 62
     7
100
AcDbLine
 10
14.4632491564
 20
14.5853598627
 30
0.0
 11
14.1679735658
 21
14.5853598627
 31
0.0
  0
LINE
  5
49F
330
21C
100
AcDbEntity
  8
0
  6
Continuous
 62
     7
100
AcDbLine
 10
11.2644302587
 20
14.5853598627
 30
0.0
 11
10.9691546682
 21
14.5853598627
 31
0.0
  0
LINE
  5
4A0
330
21C
100
AcDbEntity
  8
0
  6
Continuous
 62
     7
100
AcDbLine
 10
23.454535757
 20
14.605044902
 30
0.0
 11
21.7467137233
 21
14.605044902
 31
0.0
  0
LINE
  5
4A1
330
21C
100
AcDbEntity
  8
0
  6
Continuous
 62
     7
100
AcDbLine
 10
20.9593121485
 20
14.605044902
 30
0.0
 11
17.9081310461
 21
14.605044902
 31
0.0
  0
LINE
  5
4A2
330
21C
100
AcDbEntity
  8
0
  6
Continuous
 62
     7
100
AcDbLine
 10
17.1207294713
 20
14.605044902
 30
0.0
 11
14.7093121485
 21
14.605044902
 31
0.0
  0
LINE
  5
4A3
330
21C
100
AcDbEntity
  8
0
  6
Continuous
 62
     7
100
AcDbLine
 10
13.9219105737
 20
14.605044902
 30
0.0
 11
11.5104932509
 21
14.605044902
 31
0.0
  0
LINE
  5
4A4
330
21C
100
AcDbEntity
  8
0
  6
Continuous
 62
     7
100
AcDbLine
 10
10.7230916761
 20
14.605044902
 30
0.0
 11
9.015269642299999
 21
14.605044902
 31
0.0
  0
LINE
  5
4A5
330
21C
100
AcDbEntity
  8
0
  6
Continuous
 62
     7
100
AcDbLine
 10
8.557737345399999
 20
14.6404779729
 30
0.0
 11
23.912068054
 21
14.6404779729
 31
0.0
  0
LINE
  5
4A6
330
21C
100
AcDbEntity
  8
0
  6
Continuous
 62
     7
100
AcDbLine
 10
8.5734853769
 20
14.7192181304
 30
0.0
 11
23.8963200225
 21
14.7192181304
 31
0.0
  0
LINE
  5
4A7
330
21C
100
AcDbEntity
  8
0
  6
Continuous
 62
     7
100
AcDbLine
 10
23.520953307
 20
14.6404779729
 30
0.0
 11
23.5074295714
 21
14.6269542373
 31
0.0
  0
LINE
  5
4A8
330
21C
100
AcDbEntity
  8
0
  6
Continuous
 62
     7
100
AcDbLine
 10
21.6385474714
 20
11.544497688
 30
0.0
 11
21.6263847772
 21
11.5365919368
 31
0.0
  0
LINE
  5
4A9
330
21C
100
AcDbEntity
  8
0
  6
Continuous
 62
     7
100
AcDbLine
 10
20.9593121485
 20
14.5066197052
 30
0.0
 11
20.9593121485
 21
14.6404779729
 31
0.0
  0
LINE
  5
4AA
330
21C
100
AcDbEntity
  8
0
  6
Continuous
 62
     7
100
AcDbLine
 10
21.2053751406
 20
14.5853598627
 30
0.0
 11
21.2053751406
 21
14.4869346658
 31
0.0
  0
LINE
  5
4AB
330
21C
100
AcDbEntity
  8
0
  6
Continuous
 62
     7
100
AcDbLine
 10
21.5006507312
 20
14.4869346658
 30
0.0
 11
21.5006507312
 21
14.5853598627
 31
0.0
  0
LINE
  5
4AC
330
21C
100
AcDbEntity
  8
0
  6
Continuous
 62
     7
100
AcDbLine
 10
21.7467137233
 20
14.5066197052
 30
0.0
 11
21.7467137233
 21
14.6404779729
 31
0.0
  0
LINE
  5
4AD
330
21C
100
AcDbEntity
  8
0
  6
Continuous
 62
     7
100
AcDbLine
 10
23.1536587316
 20
14.5281350042
 30
0.0
 11
22.9931156453
 21
12.2322619078
 31
0.0
  0
LINE
  5
4AE
330
21C
100
AcDbEntity
  8
0
  6
Continuous
 62
     7
100
AcDbLine
 10
23.5774223847
 20
14.4081945083
 30
0.0
 11
23.5774223847
 21
14.6404779729
 31
0.0
  0
LINE
  5
4AF
330
21C
100
AcDbEntity
  8
0
  6
Continuous
 62
     7
100
AcDbLine
 10
23.5931704162
 20
14.6404779729
 30
0.0
 11
23.5931704162
 21
14.4081945083
 31
0.0
  0
LINE
  5
4B0
330
21C
100
AcDbEntity
  8
0
  6
Continuous
 62
     7
100
AcDbLine
 10
23.912068054
 20
14.7034700989
 30
0.0
 11
23.912068054
 21
14.6404779729
 31
0.0
  0
ARC
  5
527
330
21C
100
AcDbEntity
  8
0
  6
Continuous
 62
     7
100
AcDbCircle
 10
16.3069616963
 20
11.7342156837
 30
0.0
 40
0.7047244094
100
AcDbArc
 50
272.0
 51
356.0
  0
ARC
  5
528
330
21C
100
AcDbEntity
  8
0
  6
Continuous
 62
     7
100
AcDbCircle
 10
18.6836344982
 20
12.2814209975
 30
0.0
 40
0.7047244094
100
AcDbArc
 50
184.0075665670999
 51
268.0
  0
ARC
  5
529
330
21C
100
AcDbEntity
  8
0
  6
Continuous
 62
     7
100
AcDbCircle
 10
22.2901079091
 20
12.2814209975
 30
0.0
 40
0.7047244094
100
AcDbArc
 50
272.0
 51
356.0
  0
ARC
  5
52A
330
21C
100
AcDbEntity
  8
0
  6
Continuous
 62
     7
100
AcDbCircle
 10
16.3069630063
 20
11.7342344177
 30
0.0
 40
0.7047244094
100
AcDbArc
 50
355.9904816154
 51
356.0
  0
ARC
  5
52B
330
21C
100
AcDbEntity
  8
0
  6
Continuous
 62
     7
100
AcDbCircle
 10
10.2179605033
 20
11.7342344177
 30
0.0
 40
0.7047244094
100
AcDbArc
 50
184.0
 51
184.0105740705
  0
ARC
  5
52C
330
21C
100
AcDbEntity
  8
0
  6
Continuous
 62
     7
100
AcDbCircle
 10
14.6108869517
 20
14.5066197052
 30
0.0
 40
0.0984251969
100
AcDbArc
 50
270.0
 51
360.0
  0
ARC
  5
52D
330
21C
100
AcDbEntity
  8
0
  6
Continuous
 62
     7
100
AcDbCircle
 10
14.0203357706
 20
14.5066197052
 30
0.0
 40
0.0984251969
100
AcDbArc
 50
180.0
 51
270.0
  0
ARC
  5
52E
330
21C
100
AcDbEntity
  8
0
  6
Continuous
 62
     7
100
AcDbCircle
 10
10.8215168729
 20
14.5066197052
 30
0.0
 40
0.0984251969
100
AcDbArc
 50
180.0
 51
270.0
  0
ARC
  5
52F
330
21C
100
AcDbEntity
  8
0
  6
Continuous
 62
     7
100
AcDbCircle
 10
11.412068054
 20
14.5066197052
 30
0.0
 40
0.0984251969
100
AcDbArc
 50
270.0
 51
360.0
  0
ARC
  5
530
330
21C
100
AcDbEntity
  8
0
  6
Continuous
 62
     7
100
AcDbCircle
 10
21.6482885265
 20
14.5066197052
 30
0.0
 40
0.0984251969
100
AcDbArc
 50
270.0
 51
360.0
  0
ARC
  5
531
330
21C
100
AcDbEntity
  8
0
  6
Continuous
 62
     7
100
AcDbCircle
 10
21.0577373454
 20
14.5066197052
 30
0.0
 40
0.0984251969
100
AcDbArc
 50
180.0
 51
270.0
  0
ARC
  5
532
330
21C
100
AcDbEntity
  8
0
  6
Continuous
 62
     7
100
AcDbCircle
 10
17.8097058493
 20
14.5066197052
 30
0.0
 40
0.0984251969
100
AcDbArc
 50
270.0
 51
360.0
  0
ARC
  5
533
330
21C
100
AcDbEntity
  8
0
  6
Continuous
 62
     7
100
AcDbCircle
 10
17.2191546682
 20
14.5066197052
 30
0.0
 40
0.0984251969
100
AcDbArc
 50
180.0
 51
270.0
  0
ARC
  5
534
330
21C
100
AcDbEntity
  8
0
  6
Continuous
 62
     7
100
AcDbCircle
 10
23.2361344995
 20
14.5223677367
 30
0.0
 40
0.0826771654
100
AcDbArc
 50
90.0
 51
176.0
  0
ARC
  5
535
330
21C
100
AcDbEntity
  8
0
  6
Continuous
 62
     7
100
AcDbCircle
 10
9.233670899899999
 20
14.5223677367
 30
0.0
 40
0.0826771654
100
AcDbArc
 50
4.0
 51
90.0
  0
ARC
  5
536
330
21C
100
AcDbEntity
  8
0
  6
Continuous
 62
     7
100
AcDbCircle
 10
21.5856179321
 20
11.59931016
 30
0.0
 40
0.0748031496
100
AcDbArc
 50
282.6803834918
 51
303.0238675558
  0
ARC
  5
537
330
21C
100
AcDbEntity
  8
0
  6
Continuous
 62
     7
100
AcDbCircle
 10
19.3881244752
 20
11.59931016
 30
0.0
 40
0.0748031496
100
AcDbArc
 50
236.9761324442
 51
257.3196165082
  0
ARC
  5
538
330
21C
100
AcDbEntity
  8
0
  6
Continuous
 62
     7
100
AcDbCircle
 10
14.3612084833
 20
11.0087589789
 30
0.0
 40
0.0748031496
100
AcDbArc
 50
282.6803834918
 51
303.0238675558
  0
ARC
  5
539
330
21C
100
AcDbEntity
  8
0
  6
Continuous
 62
     7
100
AcDbCircle
 10
12.1637150263
 20
11.0087589789
 30
0.0
 40
0.0748031496
100
AcDbArc
 50
236.9761324442
 51
257.3196165082
  0
ARC
  5
53A
330
21C
100
AcDbEntity
  8
0
  6
Continuous
 62
     7
100
AcDbCircle
 10
23.454535757
 20
14.6798480516
 30
0.0
 40
0.0748031496
100
AcDbArc
 50
270.0
 51
315.0
  0
ARC
  5
53B
330
21C
100
AcDbEntity
  8
0
  6
Continuous
 62
     7
100
AcDbCircle
 10
9.015269642299999
 20
14.6798480516
 30
0.0
 40
0.0748031496
100
AcDbArc
 50
225.0
 51
270.0
  0
ARC
  5
53C
330
21C
100
AcDbEntity
  8
0
  6
Continuous
 62
     7
100
AcDbCircle
 10
14.4484679974
 20
10.901131161
 30
0.0
 40
0.062992126
100
AcDbArc
 50
92.0
 51
123.0238675558
  0
ARC
  5
53D
330
21C
100
AcDbEntity
  8
0
  6
Continuous
 62
     7
100
AcDbCircle
 10
12.0764555122
 20
10.901131161
 30
0.0
 40
0.062992126
100
AcDbArc
 50
56.9761324442
 51
88.0
  0
ARC
  5
53E
330
21C
100
AcDbEntity
  8
0
  6
Continuous
 62
     7
100
AcDbCircle
 10
21.6728774462
 20
11.4916823421
 30
0.0
 40
0.062992126
100
AcDbArc
 50
92.0
 51
123.0238675558
  0
ARC
  5
53F
330
21C
100
AcDbEntity
  8
0
  6
Continuous
 62
     7
100
AcDbCircle
 10
19.300864961
 20
11.4916823421
 30
0.0
 40
0.062992126
100
AcDbArc
 50
56.9761324442
 51
88.0
  0
ARC
  5
540
330
21C
100
AcDbEntity
  8
0
  6
Continuous
 62
     7
100
AcDbCircle
 10
8.5734853769
 20
14.7034700989
 30
0.0
 40
0.0157480315
100
AcDbArc
 50
90.0
 51
180.0
  0
ARC
  5
541
330
21C
100
AcDbEntity
  8
0
  6
Continuous
 62
     7
100
AcDbCircle
 10
23.8963200225
 20
14.7034700989
 30
0.0
 40
0.0157480315
100
AcDbArc
 50
0.0
 51
90.0
  0
ENDSEC
  0
SECTION
  2
OBJECTS
  0
DICTIONARY
  5
C
330
0
100
AcDbDictionary
281
     1
  3
ACAD_COLOR
350
5D5
  3
ACAD_GROUP
350
D
  3
ACAD_LAYOUT
350
1A
  3
ACAD_MATERIAL
350
5AB
  3
ACAD_MLEADERSTYLE
350
5F8
  3
ACAD_MLINESTYLE
350
17
  3
ACAD_PLOTSETTINGS
350
19
  3
ACAD_PLOTSTYLENAME
350
E
  3
ACAD_SCALELIST
350
5D6
  3
ACAD_TABLESTYLE
350
5A4
  3
ACAD_VISUALSTYLE
350
5C4
  3
ACDB_RECOMPOSE_DATA
350
611
  3
AcDbVariableDictionary
350
612
  3
DWGPROPS
350
659
  0
DICTIONARY
  5
61D
330
10
100
AcDbDictionary
280
     1
281
     1
  3
ADSK_XREC_LAYER_RECONCILED
360
61E
  0
DICTIONARY
  5
61F
330
1FA
100
AcDbDictionary
280
     1
281
     1
  3
ADSK_XREC_LAYER_RECONCILED
360
620
  0
DICTIONARY
  5
621
330
1FB
100
AcDbDictionary
280
     1
281
     1
  3
ADSK_XREC_LAYER_RECONCILED
360
622
  0
DICTIONARY
  5
623
330
1FC
100
AcDbDictionary
280
     1
281
     1
  3
ADSK_XREC_LAYER_RECONCILED
360
624
  0
DICTIONARY
  5
625
330
1FD
100
AcDbDictionary
280
     1
281
     1
  3
ADSK_XREC_LAYER_RECONCILED
360
626
  0
DICTIONARY
  5
627
330
1FE
100
AcDbDictionary
280
     1
281
     1
  3
ADSK_XREC_LAYER_RECONCILED
360
628
  0
DICTIONARY
  5
629
330
1FF
100
AcDbDictionary
280
     1
281
     1
  3
ADSK_XREC_LAYER_RECONCILED
360
62A
  0
DICTIONARY
  5
62B
330
200
100
AcDbDictionary
280
     1
281
     1
  3
ADSK_XREC_LAYER_RECONCILED
360
62C
  0
DICTIONARY
  5
62D
330
201
100
AcDbDictionary
280
     1
281
     1
  3
ADSK_XREC_LAYER_RECONCILED
360
62E
  0
DICTIONARY
  5
62F
330
202
100
AcDbDictionary
280
     1
281
     1
  3
ADSK_XREC_LAYER_RECONCILED
360
630
  0
DICTIONARY
  5
631
330
203
100
AcDbDictionary
280
     1
281
     1
  3
ADSK_XREC_LAYER_RECONCILED
360
632
  0
DICTIONARY
  5
633
330
204
100
AcDbDictionary
280
     1
281
     1
  3
ADSK_XREC_LAYER_RECONCILED
360
634
  0
DICTIONARY
  5
635
330
205
100
AcDbDictionary
280
     1
281
     1
  3
ADSK_XREC_LAYER_RECONCILED
360
636
  0
DICTIONARY
  5
637
330
206
100
AcDbDictionary
280
     1
281
     1
  3
ADSK_XREC_LAYER_RECONCILED
360
638
  0
DICTIONARY
  5
639
330
207
100
AcDbDictionary
280
     1
281
     1
  3
ADSK_XREC_LAYER_RECONCILED
360
63A
  0
DICTIONARY
  5
63B
330
208
100
AcDbDictionary
280
     1
281
     1
  3
ADSK_XREC_LAYER_RECONCILED
360
63C
  0
DICTIONARY
  5
5D5
102
{ACAD_REACTORS
330
C
102
}
330
C
100
AcDbDictionary
281
     1
  0
DICTIONARY
  5
D
102
{ACAD_REACTORS
330
C
102
}
330
C
100
AcDbDictionary
281
     1
  0
DICTIONARY
  5
1A
102
{ACAD_REACTORS
330
C
102
}
330
C
100
AcDbDictionary
281
     1
  3
Layout1
350
5A6
  3
Model
350
5A5
  0
DICTIONARY
  5
5AB
102
{ACAD_REACTORS
330
C
102
}
330
C
100
AcDbDictionary
281
     1
  3
ByBlock
350
5B4
  3
ByLayer
350
5AC
  3
Global
350
5BC
  0
DICTIONARY
  5
5F8
102
{ACAD_REACTORS
330
C
102
}
330
C
100
AcDbDictionary
281
     1
  3
Standard
350
5F9
  0
DICTIONARY
  5
17
102
{ACAD_REACTORS
330
C
102
}
330
C
100
AcDbDictionary
281
     1
  3
Standard
350
18
  0
DICTIONARY
  5
19
102
{ACAD_REACTORS
330
C
102
}
330
C
100
AcDbDictionary
281
     1
  0
ACDBDICTIONARYWDFLT
  5
E
102
{ACAD_REACTORS
330
C
102
}
330
C
100
AcDbDictionary
281
     1
  3
Normal
350
F
100
AcDbDictionaryWithDefault
340
F
  0
DICTIONARY
  5
5D6
102
{ACAD_REACTORS
330
C
102
}
330
C
100
AcDbDictionary
281
     1
  3
A0
350
5D7
  3
A1
350
5D8
  3
A2
350
5D9
  3
A3
350
5DA
  3
A4
350
5DB
  3
A5
350
5DC
  3
A6
350
5DD
  3
A7
350
5DE
  3
A8
350
5DF
  3
A9
350
5E0
  3
B0
350
5E1
  3
B1
350
5E2
  3
B2
350
5E3
  3
B3
350
5E4
  3
B4
350
5E5
  3
B5
350
5E6
  3
B6
350
5E7
  3
B7
350
5E8
  3
B8
350
5E9
  3
B9
350
5EA
  3
C0
350
5EB
  3
C1
350
5EC
  3
C2
350
5ED
  3
C3
350
5EE
  3
C4
350
5EF
  3
C5
350
5F0
  3
C6
350
5F1
  3
C7
350
5F2
  3
C8
350
5F3
  3
C9
350
5F4
  3
D0
350
5F5
  3
D1
350
5F6
  3
D2
350
5F7
  0
DICTIONARY
  5
5A4
330
C
100
AcDbDictionary
281
     1
  3
Standard
350
5A7
  3
Standard1
350
5A8
  0
DICTIONARY
  5
5C4
102
{ACAD_REACTORS
330
C
102
}
330
C
100
AcDbDictionary
281
     1
  3
2dWireframe
350
5CA
  3
3D Hidden
350
5CC
  3
3dWireframe
350
5CB
  3
Basic
350
5C9
  3
Brighten
350
5D0
  3
ColorChange
350
5D4
  3
Conceptual
350
5CD
  3
Dim
350
5CF
  3
Facepattern
350
5D3
  3
Flat
350
5C5
  3
FlatWithEdges
350
5C6
  3
Gouraud
350
5C7
  3
GouraudWithEdges
350
5C8
  3
Linepattern
350
5D2
  3
Realistic
350
5CE
  3
Thicken
350
5D1
  0
XRECORD
  5
611
102
{ACAD_REACTORS
330
C
102
}
330
C
100
AcDbXrecord
280
     1
 90
        1
330
5A7
330
5A8
  0
DICTIONARY
  5
612
102
{ACAD_REACTORS
330
C
102
}
330
C
100
AcDbDictionary
281
     1
  3
CANNOSCALE
350
615
  3
CMLEADERSTYLE
350
614
  3
CTABLESTYLE
350
613
  3
DIMASSOC
350
656
  3
HIDETEXT
350
655
  3
INDEXCTL
350
654
  3
LIGHTINGUNITS
350
652
  3
MSLTSCALE
350
651
  3
SORTENTS
350
653
  0
XRECORD
  5
659
102
{ACAD_REACTORS
330
C
102
}
330
C
100
AcDbXrecord
280
     1
  1
DWGPROPS COOKIE
  2

  3

  4

  6

  7

  8
ko58941
  9

300
=
301
=
302
=
303
=
304
=
305
=
306
=
307
=
308
=
309
=
 40
0.0002440162037037
 41
2455637.650741967
 42
2455637.654682697
  1

 90
        0
  0
XRECORD
  5
61E
102
{ACAD_REACTORS
330
61D
102
}
330
61D
100
AcDbXrecord
280
     1
290
     1
  0
XRECORD
  5
620
102
{ACAD_REACTORS
330
61F
102
}
330
61F
100
AcDbXrecord
280
     1
290
     1
  0
XRECORD
  5
622
102
{ACAD_REACTORS
330
621
102
}
330
621
100
AcDbXrecord
280
     1
290
     1
  0
XRECORD
  5
624
102
{ACAD_REACTORS
330
623
102
}
330
623
100
AcDbXrecord
280
     1
290
     1
  0
XRECORD
  5
626
102
{ACAD_REACTORS
330
625
102
}
330
625
100
AcDbXrecord
280
     1
290
     1
  0
XRECORD
  5
628
102
{ACAD_REACTORS
330
627
102
}
330
627
100
AcDbXrecord
280
     1
290
     1
  0
XRECORD
  5
62A
102
{ACAD_REACTORS
330
629
102
}
330
629
100
AcDbXrecord
280
     1
290
     1
  0
XRECORD
  5
62C
102
{ACAD_REACTORS
330
62B
102
}
330
62B
100
AcDbXrecord
280
     1
290
     1
  0
XRECORD
  5
62E
102
{ACAD_REACTORS
330
62D
102
}
330
62D
100
AcDbXrecord
280
     1
290
     1
  0
XRECORD
  5
630
102
{ACAD_REACTORS
330
62F
102
}
330
62F
100
AcDbXrecord
280
     1
290
     1
  0
XRECORD
  5
632
102
{ACAD_REACTORS
330
631
102
}
330
631
100
AcDbXrecord
280
     1
290
     1
  0
XRECORD
  5
634
102
{ACAD_REACTORS
330
633
102
}
330
633
100
AcDbXrecord
280
     1
290
     1
  0
XRECORD
  5
636
102
{ACAD_REACTORS
330
635
102
}
330
635
100
AcDbXrecord
280
     1
290
     1
  0
XRECORD
  5
638
102
{ACAD_REACTORS
330
637
102
}
330
637
100
AcDbXrecord
280
     1
290
     1
  0
XRECORD
  5
63A
102
{ACAD_REACTORS
330
639
102
}
330
639
100
AcDbXrecord
280
     1
290
     1
  0
XRECORD
  5
63C
102
{ACAD_REACTORS
330
63B
102
}
330
63B
100
AcDbXrecord
280
     1
290
     1
  0
LAYOUT
  5
5A6
102
{ACAD_XDICTIONARY
360
65C
102
}
102
{ACAD_REACTORS
330
1A
102
}
330
1A
100
AcDbPlotSettings
  1

  2
none_device
  4
ANSI_E_(44.00_x_34.00_Inches)
  6

 40
0.0
 41
0.0
 42
0.0
 43
0.0
 44
1117.6
 45
863.6000000000001
 46
0.0
 47
0.0
 48
0.0
 49
0.0
140
0.0
141
0.0
142
1.0
143
1.0
 70
     0
 72
     0
 73
     0
 74
     0
  7

 75
     0
147
1.0
148
0.0
149
0.0
100
AcDbLayout
  1
Layout1
 70
     1
 71
     1
 10
0.0
 20
0.0
 11
12.0
 21
9.0
 12
0.0
 22
0.0
 32
0.0
 14
1.000000000000000E+20
 24
1.000000000000000E+20
 34
1.000000000000000E+20
 15
-1.000000000000000E+20
 25
-1.000000000000000E+20
 35
-1.000000000000000E+20
146
0.0
 13
0.0
 23
0.0
 33
0.0
 16
1.0
 26
0.0
 36
0.0
 17
0.0
 27
1.0
 37
0.0
 76
     0
330
21D
  0
LAYOUT
  5
5A5
102
{ACAD_XDICTIONARY
360
65A
102
}
102
{ACAD_REACTORS
330
1A
102
}
330
1A
100
AcDbPlotSettings
  1

  2
none_device
  4
ANSI_E_(44.00_x_34.00_Inches)
  6

 40
0.0
 41
0.0
 42
0.0
 43
0.0
 44
1117.6
 45
863.6000000000001
 46
0.0
 47
0.0
 48
0.0
 49
0.0
140
0.0
141
0.0
142
1.0
143
1.0
 70
  1024
 72
     0
 73
     0
 74
     0
  7

 75
     0
147
1.0
148
0.0
149
0.0
100
AcDbLayout
  1
Model
 70
     0
 71
     0
 10
0.0
 20
0.0
 11
44.0
 21
34.0
 12
0.0
 22
0.0
 32
0.0
 14
0.0
 24
0.0
 34
0.0
 15
0.0
 25
0.0
 35
0.0
146
0.0
 13
0.0
 23
0.0
 33
0.0
 16
1.0
 26
0.0
 36
0.0
 17
0.0
 27
1.0
 37
0.0
 76
     0
330
21C
331
1F4
  0
MATERIAL
  5
5B4
102
{ACAD_XDICTIONARY
360
5B5
102
}
102
{ACAD_REACTORS
330
5AB
102
}
330
5AB
100
AcDbMaterial
  1
ByBlock
 72
     0
 43
0.0208333333333333
 43
0.0
 43
0.0
 43
0.0
 43
0.0
 43
0.0208333333333333
 43
0.0
 43
0.0
 43
0.0
 43
0.0
 43
1.0
 43
0.0
 43
0.0
 43
0.0
 43
0.0
 43
1.0
 77
     0
 47
0.0208333333333333
 47
0.0
 47
0.0
 47
0.0
 47
0.0
 47
0.0208333333333333
 47
0.0
 47
0.0
 47
0.0
 47
0.0
 47
1.0
 47
0.0
 47
0.0
 47
0.0
 47
0.0
 47
1.0
171
     0
 49
0.0208333333333333
 49
0.0
 49
0.0
 49
0.0
 49
0.0
 49
0.0208333333333333
 49
0.0
 49
0.0
 49
0.0
 49
0.0
 49
1.0
 49
0.0
 49
0.0
 49
0.0
 49
0.0
 49
1.0
175
     0
142
0.0208333333333333
142
0.0
142
0.0
142
0.0
142
0.0
142
0.0208333333333333
142
0.0
142
0.0
142
0.0
142
0.0
142
1.0
142
0.0
142
0.0
142
0.0
142
0.0
142
1.0
179
     0
144
0.0208333333333333
144
0.0
144
0.0
144
0.0
144
0.0
144
0.0208333333333333
144
0.0
144
0.0
144
0.0
144
0.0
144
1.0
144
0.0
144
0.0
144
0.0
144
0.0
144
1.0
147
0.0208333333333333
147
0.0
147
0.0
147
0.0
147
0.0
147
0.0208333333333333
147
0.0
147
0.0
147
0.0
147
0.0
147
1.0
147
0.0
147
0.0
147
0.0
147
0.0
147
1.0
  0
MATERIAL
  5
5AC
102
{ACAD_XDICTIONARY
360
5AD
102
}
102
{ACAD_REACTORS
330
5AB
102
}
330
5AB
100
AcDbMaterial
  1
ByLayer
 72
     0
 43
0.0208333333333333
 43
0.0
 43
0.0
 43
0.0
 43
0.0
 43
0.0208333333333333
 43
0.0
 43
0.0
 43
0.0
 43
0.0
 43
1.0
 43
0.0
 43
0.0
 43
0.0
 43
0.0
 43
1.0
 77
     0
 47
0.0208333333333333
 47
0.0
 47
0.0
 47
0.0
 47
0.0
 47
0.0208333333333333
 47
0.0
 47
0.0
 47
0.0
 47
0.0
 47
1.0
 47
0.0
 47
0.0
 47
0.0
 47
0.0
 47
1.0
171
     0
 49
0.0208333333333333
 49
0.0
 49
0.0
 49
0.0
 49
0.0
 49
0.0208333333333333
 49
0.0
 49
0.0
 49
0.0
 49
0.0
 49
1.0
 49
0.0
 49
0.0
 49
0.0
 49
0.0
 49
1.0
175
     0
142
0.0208333333333333
142
0.0
142
0.0
142
0.0
142
0.0
142
0.0208333333333333
142
0.0
142
0.0
142
0.0
142
0.0
142
1.0
142
0.0
142
0.0
142
0.0
142
0.0
142
1.0
179
     0
144
0.0208333333333333
144
0.0
144
0.0
144
0.0
144
0.0
144
0.0208333333333333
144
0.0
144
0.0
144
0.0
144
0.0
144
1.0
144
0.0
144
0.0
144
0.0
144
0.0
144
1.0
147
0.0208333333333333
147
0.0
147
0.0
147
0.0
147
0.0
147
0.0208333333333333
147
0.0
147
0.0
147
0.0
147
0.0
147
1.0
147
0.0
147
0.0
147
0.0
147
0.0
147
1.0
  0
MATERIAL
  5
5BC
102
{ACAD_XDICTIONARY
360
5BD
102
}
102
{ACAD_REACTORS
330
5AB
102
}
330
5AB
100
AcDbMaterial
  1
Global
 72
     0
 43
0.0208333333333333
 43
0.0
 43
0.0
 43
0.0
 43
0.0
 43
0.0208333333333333
 43
0.0
 43
0.0
 43
0.0
 43
0.0
 43
1.0
 43
0.0
 43
0.0
 43
0.0
 43
0.0
 43
1.0
 77
     0
 47
0.0208333333333333
 47
0.0
 47
0.0
 47
0.0
 47
0.0
 47
0.0208333333333333
 47
0.0
 47
0.0
 47
0.0
 47
0.0
 47
1.0
 47
0.0
 47
0.0
 47
0.0
 47
0.0
 47
1.0
171
     0
 49
0.0208333333333333
 49
0.0
 49
0.0
 49
0.0
 49
0.0
 49
0.0208333333333333
 49
0.0
 49
0.0
 49
0.0
 49
0.0
 49
1.0
 49
0.0
 49
0.0
 49
0.0
 49
0.0
 49
1.0
175
     0
142
0.0208333333333333
142
0.0
142
0.0
142
0.0
142
0.0
142
0.0208333333333333
142
0.0
142
0.0
142
0.0
142
0.0
142
1.0
142
0.0
142
0.0
142
0.0
142
0.0
142
1.0
179
     0
144
0.0208333333333333
144
0.0
144
0.0
144
0.0
144
0.0
144
0.0208333333333333
144
0.0
144
0.0
144
0.0
144
0.0
144
1.0
144
0.0
144
0.0
144
0.0
144
0.0
144
1.0
147
0.0208333333333333
147
0.0
147
0.0
147
0.0
147
0.0
147
0.0208333333333333
147
0.0
147
0.0
147
0.0
147
0.0
147
1.0
147
0.0
147
0.0
147
0.0
147
0.0
147
1.0
  0
MLEADERSTYLE
  5
5F9
102
{ACAD_REACTORS
330
5F8
102
}
330
5F8
100
AcDbMLeaderStyle
170
     2
171
     1
172
     0
 90
        2
 40
0.0
 41
0.0
173
     1
 91
-1056964608
340
14
 92
       -2
290
     1
 42
0.09
291
     1
 43
0.36
  3
Standard
 44
0.18
300

342
11
174
     1
178
     6
175
     1
176
     0
 93
-1056964608
 45
0.18
292
     0
297
     0
 46
0.18
 94
-1056964608
 47
1.0
 49
1.0
140
1.0
293
     1
141
0.0
294
     1
177
     0
142
1.0
295
     0
296
     0
143
0.125
1001
ACAD_MLEADERVER
1070
     2
  0
MLINESTYLE
  5
18
102
{ACAD_REACTORS
330
17
102
}
330
17
100
AcDbMlineStyle
  2
STANDARD
 70
     0
  3

 62
   256
 51
90.0
 52
90.0
 71
     2
 49
0.5
 62
   256
  6
BYLAYER
 49
-0.5
 62
   256
  6
BYLAYER
  0
ACDBPLACEHOLDER
  5
F
102
{ACAD_REACTORS
330
E
102
}
330
E
  0
SCALE
  5
5D7
102
{ACAD_REACTORS
330
5D6
102
}
330
5D6
100
AcDbScale
 70
     0
300
1:1
140
1.0
141
1.0
290
     1
  0
SCALE
  5
5D8
102
{ACAD_REACTORS
330
5D6
102
}
330
5D6
100
AcDbScale
 70
     0
300
1:2
140
1.0
141
2.0
290
     0
  0
SCALE
  5
5D9
102
{ACAD_REACTORS
330
5D6
102
}
330
5D6
100
AcDbScale
 70
     0
300
1:4
140
1.0
141
4.0
290
     0
  0
SCALE
  5
5DA
102
{ACAD_REACTORS
330
5D6
102
}
330
5D6
100
AcDbScale
 70
     0
300
1:5
140
1.0
141
5.0
290
     0
  0
SCALE
  5
5DB
102
{ACAD_REACTORS
330
5D6
102
}
330
5D6
100
AcDbScale
 70
     0
300
1:8
140
1.0
141
8.0
290
     0
  0
SCALE
  5
5DC
102
{ACAD_REACTORS
330
5D6
102
}
330
5D6
100
AcDbScale
 70
     0
300
1:10
140
1.0
141
10.0
290
     0
  0
SCALE
  5
5DD
102
{ACAD_REACTORS
330
5D6
102
}
330
5D6
100
AcDbScale
 70
     0
300
1:16
140
1.0
141
16.0
290
     0
  0
SCALE
  5
5DE
102
{ACAD_REACTORS
330
5D6
102
}
330
5D6
100
AcDbScale
 70
     0
300
1:20
140
1.0
141
20.0
290
     0
  0
SCALE
  5
5DF
102
{ACAD_REACTORS
330
5D6
102
}
330
5D6
100
AcDbScale
 70
     0
300
1:30
140
1.0
141
30.0
290
     0
  0
SCALE
  5
5E0
102
{ACAD_REACTORS
330
5D6
102
}
330
5D6
100
AcDbScale
 70
     0
300
1:40
140
1.0
141
40.0
290
     0
  0
SCALE
  5
5E1
102
{ACAD_REACTORS
330
5D6
102
}
330
5D6
100
AcDbScale
 70
     0
300
1:50
140
1.0
141
50.0
290
     0
  0
SCALE
  5
5E2
102
{ACAD_REACTORS
330
5D6
102
}
330
5D6
100
AcDbScale
 70
     0
300
1:100
140
1.0
141
100.0
290
     0
  0
SCALE
  5
5E3
102
{ACAD_REACTORS
330
5D6
102
}
330
5D6
100
AcDbScale
 70
     0
300
2:1
140
2.0
141
1.0
290
     0
  0
SCALE
  5
5E4
102
{ACAD_REACTORS
330
5D6
102
}
330
5D6
100
AcDbScale
 70
     0
300
4:1
140
4.0
141
1.0
290
     0
  0
SCALE
  5
5E5
102
{ACAD_REACTORS
330
5D6
102
}
330
5D6
100
AcDbScale
 70
     0
300
8:1
140
8.0
141
1.0
290
     0
  0
SCALE
  5
5E6
102
{ACAD_REACTORS
330
5D6
102
}
330
5D6
100
AcDbScale
 70
     0
300
10:1
140
10.0
141
1.0
290
     0
  0
SCALE
  5
5E7
102
{ACAD_REACTORS
330
5D6
102
}
330
5D6
100
AcDbScale
 70
     0
300
100:1
140
100.0
141
1.0
290
     0
  0
SCALE
  5
5E8
102
{ACAD_REACTORS
330
5D6
102
}
330
5D6
100
AcDbScale
 70
     0
300
1/128" = 1'-0"
140
0.0078125
141
12.0
290
     0
  0
SCALE
  5
5E9
102
{ACAD_REACTORS
330
5D6
102
}
330
5D6
100
AcDbScale
 70
     0
300
1/64" = 1'-0"
140
0.015625
141
12.0
290
     0
  0
SCALE
  5
5EA
102
{ACAD_REACTORS
330
5D6
102
}
330
5D6
100
AcDbScale
 70
     0
300
1/32" = 1'-0"
140
0.03125
141
12.0
290
     0
  0
SCALE
  5
5EB
102
{ACAD_REACTORS
330
5D6
102
}
330
5D6
100
AcDbScale
 70
     0
300
1/16" = 1'-0"
140
0.0625
141
12.0
290
     0
  0
SCALE
  5
5EC
102
{ACAD_REACTORS
330
5D6
102
}
330
5D6
100
AcDbScale
 70
     0
300
3/32" = 1'-0"
140
0.09375
141
12.0
290
     0
  0
SCALE
  5
5ED
102
{ACAD_REACTORS
330
5D6
102
}
330
5D6
100
AcDbScale
 70
     0
300
1/8" = 1'-0"
140
0.125
141
12.0
290
     0
  0
SCALE
  5
5EE
102
{ACAD_REACTORS
330
5D6
102
}
330
5D6
100
AcDbScale
 70
     0
300
3/16" = 1'-0"
140
0.1875
141
12.0
290
     0
  0
SCALE
  5
5EF
102
{ACAD_REACTORS
330
5D6
102
}
330
5D6
100
AcDbScale
 70
     0
300
1/4" = 1'-0"
140
0.25
141
12.0
290
     0
  0
SCALE
  5
5F0
102
{ACAD_REACTORS
330
5D6
102
}
330
5D6
100
AcDbScale
 70
     0
300
3/8" = 1'-0"
140
0.375
141
12.0
290
     0
  0
SCALE
  5
5F1
102
{ACAD_REACTORS
330
5D6
102
}
330
5D6
100
AcDbScale
 70
     0
300
1/2" = 1'-0"
140
0.5
141
12.0
290
     0
  0
SCALE
  5
5F2
102
{ACAD_REACTORS
330
5D6
102
}
330
5D6
100
AcDbScale
 70
     0
300
3/4" = 1'-0"
140
0.75
141
12.0
290
     0
  0
SCALE
  5
5F3
102
{ACAD_REACTORS
330
5D6
102
}
330
5D6
100
AcDbScale
 70
     0
300
1" = 1'-0"
140
1.0
141
12.0
290
     0
  0
SCALE
  5
5F4
102
{ACAD_REACTORS
330
5D6
102
}
330
5D6
100
AcDbScale
 70
     0
300
1-1/2" = 1'-0"
140
1.5
141
12.0
290
     0
  0
SCALE
  5
5F5
102
{ACAD_REACTORS
330
5D6
102
}
330
5D6
100
AcDbScale
 70
     0
300
3" = 1'-0"
140
3.0
141
12.0
290
     0
  0
SCALE
  5
5F6
102
{ACAD_REACTORS
330
5D6
102
}
330
5D6
100
AcDbScale
 70
     0
300
6" = 1'-0"
140
6.0
141
12.0
290
     0
  0
SCALE
  5
5F7
102
{ACAD_REACTORS
330
5D6
102
}
330
5D6
100
AcDbScale
 70
     0
300
1'-0" = 1'-0"
140
12.0
141
12.0
290
     0
  0
TABLESTYLE
  5
5A7
102
{ACAD_XDICTIONARY
360
60D
102
}
102
{ACAD_REACTORS
330
5A4
102
}
330
5A4
100
AcDbTableStyle
  3
Standard
 70
     0
 71
     0
 40
0.06
 41
0.06
280
     1
281
     1
  7
STANDARD
140
0.18
170
     1
 62
     0
 63
     7
283
     0
274
    -2
284
     1
 64
     0
275
    -2
285
     1
 65
     0
276
    -2
286
     1
 66
     0
277
    -2
287
     1
 67
     0
278
    -2
288
     1
 68
     0
279
    -2
289
     1
 69
     0
  7
STANDARD
140
0.18
170
     1
 62
     0
 63
     7
283
     0
274
    -2
284
     1
 64
     0
275
    -2
285
     1
 65
     0
276
    -2
286
     1
 66
     0
277
    -2
287
     1
 67
     0
278
    -2
288
     1
 68
     0
279
    -2
289
     1
 69
     0
  7
STANDARD
140
0.18
170
     1
 62
     0
 63
     7
283
     0
274
    -2
284
     1
 64
     0
275
    -2
285
     1
 65
     0
276
    -2
286
     1
 66
     0
277
    -2
287
     1
 67
     0
278
    -2
288
     1
 68
     0
279
    -2
289
     1
 69
     0
  0
TABLESTYLE
  5
5A8
102
{ACAD_XDICTIONARY
360
60F
102
}
102
{ACAD_REACTORS
330
5A4
102
}
330
5A4
100
AcDbTableStyle
  3
Standard1
 70
     1
 71
     0
 40
0.06
 41
0.06
280
     1
281
     1
  7
STANDARD
140
0.18
170
     1
 62
     0
 63
     7
283
     0
274
    -2
284
     1
 64
     0
275
    -2
285
     1
 65
     0
276
    -2
286
     1
 66
     0
277
    -2
287
     1
 67
     0
278
    -2
288
     1
 68
     0
279
    -2
289
     1
 69
     0
  7
STANDARD
140
0.18
170
     1
 62
     0
 63
     7
283
     0
274
    -2
284
     1
 64
     0
275
    -2
285
     1
 65
     0
276
    -2
286
     1
 66
     0
277
    -2
287
     1
 67
     0
278
    -2
288
     1
 68
     0
279
    -2
289
     1
 69
     0
  7
STANDARD
140
0.18
170
     1
 62
     0
 63
     7
283
     0
274
    -2
284
     1
 64
     0
275
    -2
285
     1
 65
     0
276
    -2
286
     1
 66
     0
277
    -2
287
     1
 67
     0
278
    -2
288
     1
 68
     0
279
    -2
289
     1
 69
     0
  0
VISUALSTYLE
  5
5CA
102
{ACAD_REACTORS
330
5C4
102
}
330
5C4
100
AcDbVisualStyle
  2
2dWireframe
 70
     4
 71
     0
 72
     2
 73
     0
 90
        0
 40
-0.6
 41
-30.0
 62
     5
 63
     7
 74
     1
 91
        4
 64
     7
 65
   257
 75
     1
175
     1
 42
1.0
 92
        0
 66
   257
 43
1.0
 76
     1
 77
     6
 78
     2
 67
     7
 79
     5
170
     0
171
     0
290
     0
174
     0
 93
        1
 44
0.0
173
     0
291
     0
 45
0.0
1001
ACAD
1000
AcDbSavedByObjectVersion
1070
     0
  0
VISUALSTYLE
  5
5CC
102
{ACAD_REACTORS
330
5C4
102
}
330
5C4
100
AcDbVisualStyle
  2
3D Hidden
 70
     6
 71
     1
 72
     2
 73
     2
 90
        0
 40
-0.6
 41
-30.0
 62
     5
 63
     7
 74
     2
 91
        2
 64
     7
 65
   257
 75
     2
175
     1
 42
40.0
 92
        0
 66
   257
 43
1.0
 76
     1
 77
     6
 78
     2
 67
     7
 79
     3
170
     0
171
     0
290
     0
174
     0
 93
        1
 44
0.0
173
     0
291
     0
 45
0.0
1001
ACAD
1000
AcDbSavedByObjectVersion
1070
     0
  0
VISUALSTYLE
  5
5CB
102
{ACAD_REACTORS
330
5C4
102
}
330
5C4
100
AcDbVisualStyle
  2
3dWireframe
 70
     5
 71
     0
 72
     2
 73
     0
 90
        0
 40
-0.6
 41
-30.0
 62
     5
 63
     7
 74
     1
 91
        4
 64
     7
 65
   257
 75
     1
175
     1
 42
1.0
 92
        0
 66
   257
 43
1.0
 76
     1
 77
     6
 78
     2
 67
     7
 79
     5
170
     0
171
     0
290
     0
174
     0
 93
        1
 44
0.0
173
     0
291
     0
 45
0.0
1001
ACAD
1000
AcDbSavedByObjectVersion
1070
     0
  0
VISUALSTYLE
  5
5C9
102
{ACAD_REACTORS
330
5C4
102
}
330
5C4
100
AcDbVisualStyle
  2
Basic
 70
     7
 71
     1
 72
     0
 73
     1
 90
        0
 40
-0.6
 41
-30.0
 62
     5
 63
     7
 74
     0
 91
        4
 64
     7
 65
   257
 75
     1
175
     1
 42
1.0
 92
        8
 66
     7
 43
1.0
 76
     1
 77
     6
 78
     2
 67
     7
 79
     5
170
     0
171
     0
290
     0
174
     0
 93
        1
 44
0.0
173
     0
291
     1
 45
0.0
1001
ACAD
1000
AcDbSavedByObjectVersion
1070
     0
  0
VISUALSTYLE
  5
5D0
102
{ACAD_REACTORS
330
5C4
102
}
330
5C4
100
AcDbVisualStyle
  2
Brighten
 70
    12
 71
     2
 72
     2
 73
     0
 90
        0
 40
-0.6
 41
-30.0
 62
     5
 63
     7
 74
     1
 91
        4
 64
     7
 65
   257
 75
     1
175
     1
 42
1.0
 92
        8
 66
     7
 43
1.0
 76
     1
 77
     6
 78
     2
 67
     7
 79
     5
170
     0
171
     0
290
     0
174
     0
 93
        1
 44
50.0
173
     0
291
     1
 45
0.0
1001
ACAD
1000
AcDbSavedByObjectVersion
1070
     0
  0
VISUALSTYLE
  5
5D4
102
{ACAD_REACTORS
330
5C4
102
}
330
5C4
100
AcDbVisualStyle
  2
ColorChange
 70
    16
 71
     2
 72
     2
 73
     3
 90
        0
 40
-0.6
 41
-30.0
 62
     5
 63
     8
 74
     1
 91
        4
 64
     7
 65
   257
 75
     1
175
     1
 42
1.0
 92
        8
 66
     8
 43
1.0
 76
     1
 77
     6
 78
     2
 67
     7
 79
     5
170
     0
171
     0
290
     0
174
     0
 93
        1
 44
0.0
173
     0
291
     1
 45
0.0
1001
ACAD
1000
AcDbSavedByObjectVersion
1070
     0
  0
VISUALSTYLE
  5
5CD
102
{ACAD_REACTORS
330
5C4
102
}
330
5C4
100
AcDbVisualStyle
  2
Conceptual
 70
     9
 71
     3
 72
     2
 73
     0
 90
        0
 40
-0.6
 41
-30.0
 62
     5
 63
     7
 74
     2
 91
        2
 64
     7
 65
   257
 75
     1
175
     1
 42
40.0
 92
        8
 66
     7
 43
1.0
 76
     1
 77
     6
 78
     2
 67
     7
 79
     3
170
     0
171
     0
290
     0
174
     0
 93
        1
 44
0.0
173
     0
291
     0
 45
0.0
1001
ACAD
1000
AcDbSavedByObjectVersion
1070
     0
  0
VISUALSTYLE
  5
5CF
102
{ACAD_REACTORS
330
5C4
102
}
330
5C4
100
AcDbVisualStyle
  2
Dim
 70
    11
 71
     2
 72
     2
 73
     0
 90
        0
 40
-0.6
 41
-30.0
 62
     5
 63
     7
 74
     1
 91
        4
 64
     7
 65
   257
 75
     1
175
     1
 42
1.0
 92
        8
 66
     7
 43
1.0
 76
     1
 77
     6
 78
     2
 67
     7
 79
     5
170
     0
171
     0
290
     0
174
     0
 93
        1
 44
-50.0
173
     0
291
     1
 45
0.0
1001
ACAD
1000
AcDbSavedByObjectVersion
1070
     0
  0
VISUALSTYLE
  5
5D3
102
{ACAD_REACTORS
330
5C4
102
}
330
5C4
100
AcDbVisualStyle
  2
Facepattern
 70
    15
 71
     2
 72
     2
 73
     0
 90
        0
 40
-0.6
 41
-30.0
 62
     5
 63
     7
 74
     1
 91
        4
 64
     7
 65
   257
 75
     1
175
     1
 42
1.0
 92
        8
 66
     7
 43
1.0
 76
     1
 77
     6
 78
     2
 67
     7
 79
     5
170
     0
171
     0
290
     0
174
     0
 93
        1
 44
0.0
173
     0
291
     1
 45
0.0
1001
ACAD
1000
AcDbSavedByObjectVersion
1070
     0
  0
VISUALSTYLE
  5
5C5
102
{ACAD_REACTORS
330
5C4
102
}
330
5C4
100
AcDbVisualStyle
  2
Flat
 70
     0
 71
     2
 72
     1
 73
     1
 90
        2
 40
-0.6
 41
30.0
 62
     5
 63
     7
 74
     0
 91
        4
 64
     7
 65
   257
 75
     1
175
     1
 42
1.0
 92
        8
 66
     7
 43
1.0
 76
     1
 77
     6
 78
     2
 67
     7
 79
     5
170
     0
171
     0
290
     0
174
     0
 93
       13
 44
0.0
173
     0
291
     1
 45
0.0
1001
ACAD
1000
AcDbSavedByObjectVersion
1070
     0
  0
VISUALSTYLE
  5
5C6
102
{ACAD_REACTORS
330
5C4
102
}
330
5C4
100
AcDbVisualStyle
  2
FlatWithEdges
 70
     1
 71
     2
 72
     1
 73
     1
 90
        2
 40
-0.6
 41
30.0
 62
     5
 63
     7
 74
     1
 91
        4
 64
     7
 65
   257
 75
     1
175
     1
 42
1.0
 92
        0
 66
   257
 43
1.0
 76
     1
 77
     6
 78
     2
 67
     7
 79
     5
170
     0
171
     0
290
     0
174
     0
 93
       13
 44
0.0
173
     0
291
     1
 45
0.0
1001
ACAD
1000
AcDbSavedByObjectVersion
1070
     0
  0
VISUALSTYLE
  5
5C7
102
{ACAD_REACTORS
330
5C4
102
}
330
5C4
100
AcDbVisualStyle
  2
Gouraud
 70
     2
 71
     2
 72
     2
 73
     1
 90
        2
 40
-0.6
 41
30.0
 62
     5
 63
     7
 74
     0
 91
        4
 64
     7
 65
   257
 75
     1
175
     1
 42
1.0
 92
        0
 66
     7
 43
1.0
 76
     1
 77
     6
 78
     2
 67
     7
 79
     5
170
     0
171
     0
290
     0
174
     0
 93
       13
 44
0.0
173
     0
291
     1
 45
0.0
1001
ACAD
1000
AcDbSavedByObjectVersion
1070
     0
  0
VISUALSTYLE
  5
5C8
102
{ACAD_REACTORS
330
5C4
102
}
330
5C4
100
AcDbVisualStyle
  2
GouraudWithEdges
 70
     3
 71
     2
 72
     2
 73
     1
 90
        2
 40
-0.6
 41
30.0
 62
     5
 63
     7
 74
     1
 91
        4
 64
     7
 65
   257
 75
     1
175
     1
 42
1.0
 92
        0
 66
   257
 43
1.0
 76
     1
 77
     6
 78
     2
 67
     7
 79
     5
170
     0
171
     0
290
     0
174
     0
 93
       13
 44
0.0
173
     0
291
     1
 45
0.0
1001
ACAD
1000
AcDbSavedByObjectVersion
1070
     0
  0
VISUALSTYLE
  5
5D2
102
{ACAD_REACTORS
330
5C4
102
}
330
5C4
100
AcDbVisualStyle
  2
Linepattern
 70
    14
 71
     2
 72
     2
 73
     0
 90
        0
 40
-0.6
 41
-30.0
 62
     5
 63
     7
 74
     1
 91
        4
 64
     7
 65
   257
 75
     7
175
     7
 42
1.0
 92
        8
 66
     7
 43
1.0
 76
     1
 77
     6
 78
     2
 67
     7
 79
     5
170
     0
171
     0
290
     0
174
     0
 93
        1
 44
0.0
173
     0
291
     1
 45
0.0
1001
ACAD
1000
AcDbSavedByObjectVersion
1070
     0
  0
VISUALSTYLE
  5
5CE
102
{ACAD_REACTORS
330
5C4
102
}
330
5C4
100
AcDbVisualStyle
  2
Realistic
 70
     8
 71
     2
 72
     2
 73
     0
 90
        0
 40
-0.6
 41
-30.0
 62
     5
 63
     7
 74
     1
 91
        0
 64
     7
 65
   257
 75
     1
175
     1
 42
1.0
 92
        8
 66
     8
 43
1.0
 76
     1
 77
     6
 78
     2
 67
     7
 79
     5
170
     0
171
     0
290
     0
174
     0
 93
       13
 44
0.0
173
     0
291
     0
 45
0.0
1001
ACAD
1000
AcDbSavedByObjectVersion
1070
     0
  0
VISUALSTYLE
  5
5D1
102
{ACAD_REACTORS
330
5C4
102
}
330
5C4
100
AcDbVisualStyle
  2
Thicken
 70
    13
 71
     2
 72
     2
 73
     0
 90
        0
 40
-0.6
 41
-30.0
 62
     5
 63
     7
 74
     1
 91
        4
 64
     7
 65
   257
 75
     1
175
     1
 42
1.0
 92
       12
 66
     7
 43
1.0
 76
     1
 77
     6
 78
     2
 67
     7
 79
     5
170
     0
171
     0
290
     0
174
     0
 93
        1
 44
0.0
173
     0
291
     1
 45
0.0
1001
ACAD
1000
AcDbSavedByObjectVersion
1070
     0
  0
DICTIONARYVAR
  5
615
102
{ACAD_REACTORS
330
612
102
}
330
612
100
DictionaryVariables
280
     0
  1
1:1
  0
DICTIONARYVAR
  5
614
102
{ACAD_REACTORS
330
612
102
}
330
612
100
DictionaryVariables
280
     0
  1
STANDARD
  0
DICTIONARYVAR
  5
613
102
{ACAD_REACTORS
330
612
102
}
330
612
100
DictionaryVariables
280
     0
  1
STANDARD
  0
DICTIONARYVAR
  5
656
102
{ACAD_REACTORS
330
612
102
}
330
612
100
DictionaryVariables
280
     0
  1
2
  0
DICTIONARYVAR
  5
655
102
{ACAD_REACTORS
330
612
102
}
330
612
100
DictionaryVariables
280
     0
  1
1
  0
DICTIONARYVAR
  5
654
102
{ACAD_REACTORS
330
612
102
}
330
612
100
DictionaryVariables
280
     0
  1
0
  0
DICTIONARYVAR
  5
652
102
{ACAD_REACTORS
330
612
102
}
330
612
100
DictionaryVariables
280
     0
  1
2
  0
DICTIONARYVAR
  5
651
102
{ACAD_REACTORS
330
612
102
}
330
612
100
DictionaryVariables
280
     0
  1
1
  0
DICTIONARYVAR
  5
653
102
{ACAD_REACTORS
330
612
102
}
330
612
100
DictionaryVariables
280
     0
  1
127
  0
DICTIONARY
  5
65C
330
5A6
100
AcDbDictionary
280
     1
281
     1
  3
ACAD_XREC_ROUNDTRIP
360
65D
  0
DICTIONARY
  5
65A
330
5A5
100
AcDbDictionary
280
     1
281
     1
  3
ACAD_XREC_ROUNDTRIP
360
65B
  0
DICTIONARY
  5
5B5
330
5B4
100
AcDbDictionary
280
     1
281
     1
  3
ACAD_XREC_ROUNDTRIP
360
661
  3
BUMPTILE
360
5B7
  3
DIFFUSETILE
360
5B6
  3
OPACITYTILE
360
5BA
  3
REFLECTIONTILE
360
5B9
  3
REFRACTIONTILE
360
5BB
  3
SPECULARTILE
360
5B8
  0
DICTIONARY
  5
5AD
330
5AC
100
AcDbDictionary
280
     1
281
     1
  3
ACAD_XREC_ROUNDTRIP
360
660
  3
BUMPTILE
360
5AF
  3
DIFFUSETILE
360
5AE
  3
OPACITYTILE
360
5B2
  3
REFLECTIONTILE
360
5B1
  3
REFRACTIONTILE
360
5B3
  3
SPECULARTILE
360
5B0
  0
DICTIONARY
  5
5BD
330
5BC
100
AcDbDictionary
280
     1
281
     1
  3
ACAD_XREC_ROUNDTRIP
360
662
  3
BUMPTILE
360
5BF
  3
DIFFUSETILE
360
5BE
  3
OPACITYTILE
360
5C2
  3
REFLECTIONTILE
360
5C1
  3
REFRACTIONTILE
360
5C3
  3
SPECULARTILE
360
5C0
  0
DICTIONARY
  5
60D
330
5A7
100
AcDbDictionary
280
     1
281
     1
  3
ACAD_ROUNDTRIP_2008_TABLESTYLE_CELLSTYLEMAP
360
657
  3
ACAD_XREC_ROUNDTRIP
360
65E
  0
DICTIONARY
  5
60F
330
5A8
100
AcDbDictionary
280
     1
281
     1
  3
ACAD_ROUNDTRIP_2008_TABLESTYLE_CELLSTYLEMAP
360
658
  3
ACAD_XREC_ROUNDTRIP
360
65F
  0
XRECORD
  5
65D
102
{ACAD_REACTORS
330
65C
102
}
330
65C
100
AcDbXrecord
280
     1
102
SHADEPLOT
 70
     0
102
SHADEPLOTRESLEVEL
 70
     2
102
SHADEPLOTCUSTOMDPI
 70
   300
  0
XRECORD
  5
65B
102
{ACAD_REACTORS
330
65A
102
}
330
65A
100
AcDbXrecord
280
     1
102
SHADEPLOT
 70
     0
102
SHADEPLOTRESLEVEL
 70
     2
102
SHADEPLOTCUSTOMDPI
 70
   300
  0
XRECORD
  5
661
102
{ACAD_REACTORS
330
5B5
102
}
330
5B5
100
AcDbXrecord
280
     1
102
MATERIAL
148
0.0
149
0.0
149
0.0
 93
        0
 94
      127
282
     0
 72
     0
 77
     0
171
     0
175
     0
179
     0
273
     0
  0
XRECORD
  5
5B7
102
{ACAD_REACTORS
330
5B5
102
}
330
5B5
100
AcDbXrecord
280
     1
270
     1
271
     1
  0
XRECORD
  5
5B6
102
{ACAD_REACTORS
330
5B5
102
}
330
5B5
100
AcDbXrecord
280
     1
270
     1
271
     1
  0
XRECORD
  5
5BA
102
{ACAD_REACTORS
330
5B5
102
}
330
5B5
100
AcDbXrecord
280
     1
270
     1
271
     1
  0
XRECORD
  5
5B9
102
{ACAD_REACTORS
330
5B5
102
}
330
5B5
100
AcDbXrecord
280
     1
270
     1
271
     1
  0
XRECORD
  5
5BB
102
{ACAD_REACTORS
330
5B5
102
}
330
5B5
100
AcDbXrecord
280
     1
270
     1
271
     1
  0
XRECORD
  5
5B8
102
{ACAD_REACTORS
330
5B5
102
}
330
5B5
100
AcDbXrecord
280
     1
270
     1
271
     1
  0
XRECORD
  5
660
102
{ACAD_REACTORS
330
5AD
102
}
330
5AD
100
AcDbXrecord
280
     1
102
MATERIAL
148
0.0
149
0.0
149
0.0
 93
        0
 94
      127
282
     0
 72
     0
 77
     0
171
     0
175
     0
179
     0
273
     0
  0
XRECORD
  5
5AF
102
{ACAD_REACTORS
330
5AD
102
}
330
5AD
100
AcDbXrecord
280
     1
270
     1
271
     1
  0
XRECORD
  5
5AE
102
{ACAD_REACTORS
330
5AD
102
}
330
5AD
100
AcDbXrecord
280
     1
270
     1
271
     1
  0
XRECORD
  5
5B2
102
{ACAD_REACTORS
330
5AD
102
}
330
5AD
100
AcDbXrecord
280
     1
270
     1
271
     1
  0
XRECORD
  5
5B1
102
{ACAD_REACTORS
330
5AD
102
}
330
5AD
100
AcDbXrecord
280
     1
270
     1
271
     1
  0
XRECORD
  5
5B3
102
{ACAD_REACTORS
330
5AD
102
}
330
5AD
100
AcDbXrecord
280
     1
270
     1
271
     1
  0
XRECORD
  5
5B0
102
{ACAD_REACTORS
330
5AD
102
}
330
5AD
100
AcDbXrecord
280
     1
270
     1
271
     1
  0
XRECORD
  5
662
102
{ACAD_REACTORS
330
5BD
102
}
330
5BD
100
AcDbXrecord
280
     1
102
MATERIAL
148
0.0
149
0.0
149
0.0
 93
        0
 94
      127
282
     0
 72
     0
 77
     0
171
     0
175
     0
179
     0
273
     0
  0
XRECORD
  5
5BF
102
{ACAD_REACTORS
330
5BD
102
}
330
5BD
100
AcDbXrecord
280
     1
270
     1
271
     1
  0
XRECORD
  5
5BE
102
{ACAD_REACTORS
330
5BD
102
}
330
5BD
100
AcDbXrecord
280
     1
270
     1
271
     1
  0
XRECORD
  5
5C2
102
{ACAD_REACTORS
330
5BD
102
}
330
5BD
100
AcDbXrecord
280
     1
270
     1
271
     1
  0
XRECORD
  5
5C1
102
{ACAD_REACTORS
330
5BD
102
}
330
5BD
100
AcDbXrecord
280
     1
270
     1
271
     1
  0
XRECORD
  5
5C3
102
{ACAD_REACTORS
330
5BD
102
}
330
5BD
100
AcDbXrecord
280
     1
270
     1
271
     1
  0
XRECORD
  5
5C0
102
{ACAD_REACTORS
330
5BD
102
}
330
5BD
100
AcDbXrecord
280
     1
270
     1
271
     1
  0
CELLSTYLEMAP
  5
657
102
{ACAD_REACTORS
330
60D
102
}
330
60D
100
AcDbCellStyleMap
 90
        3
300
CELLSTYLE
  1
TABLEFORMAT_BEGIN
 90
        5
170
     1
 91
        0
 92
    32768
 62
   257
 93
        1
300
CONTENTFORMAT
  1
CONTENTFORMAT_BEGIN
 90
        0
 91
        0
 92
      512
 93
        0
300

 40
0.0
140
1.0
 94
        1
 62
     0
340
11
144
0.18
309
CONTENTFORMAT_END
171
     0
 94
        0
309
TABLEFORMAT_END
  1
CELLSTYLE_BEGIN
 90
        1
 91
        1
300
_TITLE
309
CELLSTYLE_END
300
CELLSTYLE
  1
TABLEFORMAT_BEGIN
 90
        5
170
     1
 91
        0
 92
        0
 62
   257
 93
        1
300
CONTENTFORMAT
  1
CONTENTFORMAT_BEGIN
 90
        0
 91
        0
 92
      512
 93
        0
300

 40
0.0
140
1.0
 94
        1
 62
     0
340
11
144
0.18
309
CONTENTFORMAT_END
171
     0
 94
        0
309
TABLEFORMAT_END
  1
CELLSTYLE_BEGIN
 90
        2
 91
        1
300
_HEADER
309
CELLSTYLE_END
300
CELLSTYLE
  1
TABLEFORMAT_BEGIN
 90
        5
170
     1
 91
        0
 92
        0
 62
   257
 93
        1
300
CONTENTFORMAT
  1
CONTENTFORMAT_BEGIN
 90
        0
 91
        0
 92
      512
 93
        0
300

 40
0.0
140
1.0
 94
        1
 62
     0
340
11
144
0.18
309
CONTENTFORMAT_END
171
     0
 94
        0
309
TABLEFORMAT_END
  1
CELLSTYLE_BEGIN
 90
        3
 91
        2
300
_DATA
309
CELLSTYLE_END
  0
XRECORD
  5
65E
102
{ACAD_REACTORS
330
60D
102
}
330
60D
100
AcDbXrecord
280
     1
102
ACAD_ROUNDTRIP_PRE2007_TABLESTYLE
 90
      512
 91
        0
  1

 92
      512
 93
        0
  2

 94
      512
 95
        0
  3

  0
CELLSTYLEMAP
  5
658
102
{ACAD_REACTORS
330
60F
102
}
330
60F
100
AcDbCellStyleMap
 90
        3
300
CELLSTYLE
  1
TABLEFORMAT_BEGIN
 90
        5
170
     1
 91
        0
 92
    32768
 62
   257
 93
        1
300
CONTENTFORMAT
  1
CONTENTFORMAT_BEGIN
 90
        0
 91
        0
 92
      512
 93
        0
300

 40
0.0
140
1.0
 94
        1
 62
     0
340
11
144
0.18
309
CONTENTFORMAT_END
171
     0
 94
        0
309
TABLEFORMAT_END
  1
CELLSTYLE_BEGIN
 90
        1
 91
        1
300
_TITLE
309
CELLSTYLE_END
300
CELLSTYLE
  1
TABLEFORMAT_BEGIN
 90
        5
170
     1
 91
        0
 92
        0
 62
   257
 93
        1
300
CONTENTFORMAT
  1
CONTENTFORMAT_BEGIN
 90
        0
 91
        0
 92
      512
 93
        0
300

 40
0.0
140
1.0
 94
        1
 62
     0
340
11
144
0.18
309
CONTENTFORMAT_END
171
     0
 94
        0
309
TABLEFORMAT_END
  1
CELLSTYLE_BEGIN
 90
        2
 91
        1
300
_HEADER
309
CELLSTYLE_END
300
CELLSTYLE
  1
TABLEFORMAT_BEGIN
 90
        5
170
     1
 91
        0
 92
        0
 62
   257
 93
        1
300
CONTENTFORMAT
  1
CONTENTFORMAT_BEGIN
 90
        0
 91
        0
 92
      512
 93
        0
300

 40
0.0
140
1.0
 94
        1
 62
     0
340
11
144
0.18
309
CONTENTFORMAT_END
171
     0
 94
        0
309
TABLEFORMAT_END
  1
CELLSTYLE_BEGIN
 90
        3
 91
        2
300
_DATA
309
CELLSTYLE_END
  0
XRECORD
  5
65F
102
{ACAD_REACTORS
330
60F
102
}
330
60F
100
AcDbXrecord
280
     1
102
ACAD_ROUNDTRIP_PRE2007_TABLESTYLE
 90
      512
 91
        0
  1

 92
      512
 93
        0
  2

 94
      512
 95
        0
  3

  0
ENDSEC
  0
EOF
