  0
SECTION
  2
HEADER
  9
$ACADVER
  1
AC1009
  9
$INSBASE
 10
0.0
 20
0.0
 30
0.0
  9
$EXTMIN
 10
-15.37675
 20
-10.056337
 30
0.0
  9
$EXTMAX
 10
15.377972
 20
10.058745
 30
0.0
  9
$LIMMIN
 10
0.0
 20
0.0
  9
$LIMMAX
 10
12.0
 20
9.0
  9
$ORTHOMODE
 70
     0
  9
$REGENMODE
 70
     1
  9
$FILLMODE
 70
     0
  9
$QTEXTMODE
 70
     0
  9
$MIRRTEXT
 70
     1
  9
$DRAGMODE
 70
     2
  9
$LTSCALE
 40
1.0
  9
$OSMODE
 70
     0
  9
$ATTMODE
 70
     1
  9
$TEXTSIZE
 40
0.001
  9
$TRACEWID
 40
0.05
  9
$TEXTSTYLE
  7
STANDARD
  9
$CLAYER
  8
0
  9
$CELTYPE
  6
BYLAYER
  9
$CECOLOR
 62
   256
  9
$DIMSCALE
 40
1.0
  9
$DIMASZ
 40
0.18
  9
$DIMEXO
 40
0.0625
  9
$DIMDLI
 40
0.38
  9
$DIMRND
 40
0.0
  9
$DIMDLE
 40
0.0
  9
$DIMEXE
 40
0.18
  9
$DIMTP
 40
0.0
  9
$DIMTM
 40
0.0
  9
$DIMTXT
 40
0.18
  9
$DIMCEN
 40
0.09
  9
$DIMTSZ
 40
0.0
  9
$DIMTOL
 70
     0
  9
$DIMLIM
 70
     0
  9
$DIMTIH
 70
     1
  9
$DIMTOH
 70
     1
  9
$DIMSE1
 70
     0
  9
$DIMSE2
 70
     0
  9
$DIMTAD
 70
     0
  9
$DIMZIN
 70
     0
  9
$DIMBLK
  1

  9
$DIMASO
 70
     1
  9
$DIMSHO
 70
     1
  9
$DIMPOST
  1

  9
$DIMAPOST
  1

  9
$DIMALT
 70
     0
  9
$DIMALTD
 70
     2
  9
$DIMALTF
 40
25.4
  9
$DIMLFAC
 40
1.0
  9
$DIMTOFL
 70
     0
  9
$DIMTVP
 40
0.0
  9
$DIMTIX
 70
     0
  9
$DIMSOXD
 70
     0
  9
$DIMSAH
 70
     0
  9
$DIMBLK1
  1

  9
$DIMBLK2
  1

  9
$DIMSTYLE
  2
*UNNAMED
  9
$DIMCLRD
 70
     0
  9
$DIMCLRE
 70
     0
  9
$DIMCLRT
 70
     0
  9
$DIMTFAC
 40
1.0
  9
$DIMGAP
 40
0.09
  9
$LUNITS
 70
     2
  9
$LUPREC
 70
     4
  9
$SKETCHINC
 40
0.1
  9
$FILLETRAD
 40
0.0
  9
$AUNITS
 70
     0
  9
$AUPREC
 70
     0
  9
$MENU
  1
acad
  9
$ELEVATION
 40
0.0
  9
$PELEVATION
 40
0.0
  9
$THICKNESS
 40
0.0
  9
$LIMCHECK
 70
     0
  9
$BLIPMODE
 70
     0
  9
$CHAMFERA
 40
0.0
  9
$CHAMFERB
 40
0.0
  9
$SKPOLY
 70
     0
  9
$TDCREATE
 40
2450911.566458449
  9
$TDUPDATE
 40
2450911.566669560
  9
$TDINDWG
 40
0.0000349537
  9
$TDUSRTIMER
 40
0.0000349537
  9
$USRTIMER
 70
     1
  9
$ANGBASE
 50
0.0
  9
$ANGDIR
 70
     0
  9
$PDMODE
 70
     0
  9
$PDSIZE
 40
0.0
  9
$PLINEWID
 40
0.0
  9
$COORDS
 70
     1
  9
$SPLFRAME
 70
     0
  9
$SPLINETYPE
 70
     6
  9
$SPLINESEGS
 70
     8
  9
$ATTDIA
 70
     0
  9
$ATTREQ
 70
     1
  9
$HANDLING
 70
     0
  9
$HANDSEED
  5
0
  9
$SURFTAB1
 70
     6
  9
$SURFTAB2
 70
     6
  9
$SURFTYPE
 70
     6
  9
$SURFU
 70
     6
  9
$SURFV
 70
     6
  9
$UCSNAME
  2

  9
$UCSORG
 10
0.0
 20
0.0
 30
0.0
  9
$UCSXDIR
 10
1.0
 20
0.0
 30
0.0
  9
$UCSYDIR
 10
0.0
 20
1.0
 30
0.0
  9
$PUCSNAME
  2

  9
$PUCSORG
 10
0.0
 20
0.0
 30
0.0
  9
$PUCSXDIR
 10
1.0
 20
0.0
 30
0.0
  9
$PUCSYDIR
 10
0.0
 20
1.0
 30
0.0
  9
$USERI1
 70
     0
  9
$USERI2
 70
     0
  9
$USERI3
 70
     0
  9
$USERI4
 70
     0
  9
$USERI5
 70
     0
  9
$USERR1
 40
0.0
  9
$USERR2
 40
0.0
  9
$USERR3
 40
0.0
  9
$USERR4
 40
0.0
  9
$USERR5
 40
0.0
  9
$WORLDVIEW
 70
     1
  9
$SHADEDGE
 70
     3
  9
$SHADEDIF
 70
    70
  9
$TILEMODE
 70
     1
  9
$MAXACTVP
 70
    16
  9
$PINSBASE
 10
0.0
 20
0.0
 30
0.0
  9
$PLIMCHECK
 70
     0
  9
$PEXTMIN
 10
1.000000E+20
 20
1.000000E+20
 30
1.000000E+20
  9
$PEXTMAX
 10
-1.000000E+20
 20
-1.000000E+20
 30
-1.000000E+20
  9
$PLIMMIN
 10
0.0
 20
0.0
  9
$PLIMMAX
 10
12.0
 20
9.0
  9
$UNITMODE
 70
     0
  9
$VISRETAIN
 70
     0
  9
$PLINEGEN
 70
     0
  9
$PSLTSCALE
 70
     1
  9
$TREEDEPTH
 70
  3020
  9
$DWGCODEPAGE
  3
iso8859-1
  0
ENDSEC
  0
SECTION
  2
TABLES
  0
TABLE
  2
VPORT
 70
     2
  0
VPORT
  2
*ACTIVE
 70
     0
 10
0.0
 20
0.0
 11
1.0
 21
1.0
 12
1.273318
 22
0.44202
 13
0.0
 23
0.0
 14
1.0
 24
1.0
 15
0.0
 25
0.0
 16
0.0
 26
0.0
 36
1.0
 17
0.0
 27
0.0
 37
0.0
 40
23.32968
 41
1.573846
 42
50.0
 43
0.0
 44
0.0
 50
0.0
 51
0.0
 71
     0
 72
   100
 73
     1
 74
     1
 75
     0
 76
     0
 77
     0
 78
     0
  0
ENDTAB
  0
TABLE
  2
LTYPE
 70
     2
  0
LTYPE
  2
CONTINUOUS
 70
    64
  3
Solid line
 72
    65
 73
     0
 40
0.0
  0
LTYPE
  2
HIDDEN
 70
    64
  3
__ __ __ __ __ __ __ __ __ __ __ __ __ __ __ __
 72
    65
 73
     2
 40
0.375
 49
0.25
 49
-0.125
  0
ENDTAB
  0
TABLE
  2
LAYER
 70
     1
  0
LAYER
  2
0
 70
    64
 62
     7
  6
CONTINUOUS
  0
ENDTAB
  0
TABLE
  2
STYLE
 70
     1
  0
STYLE
  2
STANDARD
 70
    64
 40
0.0
 41
1.0
 50
0.0
 71
     0
 42
0.001
  3
txt
  4

  0
ENDTAB
  0
TABLE
  2
VIEW
 70
     0
  0
ENDTAB
  0
TABLE
  2
UCS
 70
     0
  0
ENDTAB
  0
TABLE
  2
APPID
 70
     1
  0
APPID
  2
ACAD
 70
    64
  0
ENDTAB
  0
TABLE
  2
DIMSTYLE
 70
     0
  0
ENDTAB
  0
ENDSEC
  0
SECTION
  2
BLOCKS
  0
ENDSEC
  0
SECTION
  2
ENTITIES
  0
ARC
  8
0
 10
-1.039782
 20
4.287787
 30
0.0
 40
4.761909
 50
2.665231
 51
87.876882
  0
ARC
  8
0
 10
-1.123778
 20
4.216289
 30
0.0
 40
4.596921
 50
3.372513
 51
86.978164
  0
ARC
  8
0
 10
-1.131048
 20
-4.209857
 30
0.0
 40
4.616792
 50
272.89412
 51
356.897343
  0
ARC
  8
0
 10
-1.166817
 20
-4.16843
 30
0.0
 40
4.902832
 50
273.398798
 51
356.487899
  0
LINE
  8
0
  6
HIDDEN
 10
1.137684
 20
10.039218
 30
0.0
 11
-13.986489
 21
10.058745
 31
0.0
  0
LINE
  8
0
  6
HIDDEN
 10
-13.962705
 20
-10.056337
 30
0.0
 11
13.985268
 21
-10.056337
 31
0.0
  0
CIRCLE
  8
0
 10
-5.320194
 20
3.504346
 30
0.0
 40
1.804995
  0
CIRCLE
  8
0
 10
-5.363322
 20
3.504346
 30
0.0
 40
2.311572
  0
ARC
  8
0
 10
75.434432
 20
0.119185
 30
0.0
 40
89.920331
 50
177.229937
 51
182.958111
  0
ARC
  8
0
 10
101.917215
 20
-0.160796
 30
0.0
 40
116.143297
 50
177.719667
 51
182.151028
  0
LINE
  8
0
  6
HIDDEN
 10
-15.37675
 20
8.648979
 30
0.0
 11
-15.37675
 21
-8.656712
 31
0.0
  0
ARC
  8
0
 10
-9.48015
 20
-4.176335
 30
0.0
 40
4.898091
 50
184.037765
 51
266.523379
  0
ARC
  8
0
 10
-9.500661
 20
-4.170878
 30
0.0
 40
4.656693
 50
184.300655
 51
268.262259
  0
LINE
  8
0
  6
HIDDEN
 10
-15.37675
 20
-8.656712
 30
0.0
 11
-13.962705
 21
-10.056337
 31
0.0
  0
ARC
  8
0
 10
-5.352368
 20
73.449464
 30
0.0
 40
82.633429
 50
266.93049
 51
273.105208
  0
ARC
  8
0
 10
-5.316272
 20
78.01739
 30
0.0
 40
86.950481
 50
267.148479
 51
272.912699
  0
ARC
  8
0
 10
-9.508379
 20
4.162662
 30
0.0
 40
4.881813
 50
93.348885
 51
176.45114
  0
ARC
  8
0
 10
-9.506263
 20
4.184761
 30
0.0
 40
4.636048
 50
93.648496
 51
176.591345
  0
LINE
  8
0
  6
HIDDEN
 10
-13.986489
 20
10.058745
 30
0.0
 11
-15.37675
 21
8.648979
 31
0.0
  0
ARC
  8
0
 10
-5.239251
 20
-68.794258
 30
0.0
 40
77.963531
 50
86.793567
 51
93.348885
  0
ARC
  8
0
 10
-5.338904
 20
-75.715923
 30
0.0
 40
84.645043
 50
86.978041
 51
93.021959
  0
ARC
  8
0
 10
9.580156
 20
1.836556
 30
0.0
 40
4.868607
 50
2.406882
 51
177.787229
  0
ARC
  8
0
 10
9.573236
 20
1.801149
 30
0.0
 40
4.630084
 50
2.688841
 51
177.617386
  0
LINE
  8
0
  6
HIDDEN
 10
15.377972
 20
-8.651388
 30
0.0
 11
15.377972
 21
6.158593
 31
0.0
  0
ARC
  8
0
 10
-82.170788
 20
-0.073834
 30
0.0
 40
86.009955
 50
357.071022
 51
3.054459
  0
ARC
  8
0
 10
-66.495677
 20
-0.094403
 30
0.0
 40
70.110686
 50
356.430253
 51
3.746444
  0
ARC
  8
0
 10
9.566204
 20
-4.305879
 30
0.0
 40
4.865368
 50
181.917336
 51
358.067238
  0
ARC
  8
0
 10
9.57289
 20
-4.309946
 30
0.0
 40
4.609208
 50
182.165952
 51
357.806455
  0
CIRCLE
  8
0
 10
9.57364
 20
-1.221603
 30
0.0
 40
2.290739
  0
ARC
  8
0
 10
86.316524
 20
-1.368103
 30
0.0
 40
81.67184
 50
177.619255
 51
182.175679
  0
ARC
  8
0
 10
88.120106
 20
-0.990797
 30
0.0
 40
83.226479
 50
177.944981
 51
182.405641
  0
CIRCLE
  8
0
 10
9.579189
 20
-1.221604
 30
0.0
 40
1.802627
  0
ARC
  8
0
 10
-58.2475
 20
-1.424264
 30
0.0
 40
72.740096
 50
357.600261
 51
2.732309
  0
ARC
  8
0
 10
-67.349168
 20
-1.051586
 30
0.0
 40
81.60021
 50
357.58755
 51
2.213868
  0
LINE
  8
0
  6
HIDDEN
 10
13.985268
 20
-10.056337
 30
0.0
 11
15.377972
 21
-8.651388
 31
0.0
  0
LINE
  8
0
  6
HIDDEN
 10
13.982579
 20
7.553146
 30
0.0
 11
4.493385
 21
7.553146
 31
0.0
  0
ARC
  8
0
  6
HIDDEN
 10
119.097203
 20
125.630592
 30
0.0
 40
165.153909
 50
224.419056
 51
225.357742
  0
ARC
  8
0
  6
HIDDEN
 10
4.491183
 20
9.669596
 30
0.0
 40
2.116452
 50
226.9784
 51
270.059604
  0
LINE
  8
0
  6
HIDDEN
 10
15.377972
 20
6.158593
 30
0.0
 11
13.982579
 21
7.553146
 31
0.0
  0
ATTDEF
  8
0
 10
0.0
 20
0.0
 30
0.0
 40
0.001
  1
K-3355
  3

  2
MODELNUMBER
 70
     8
  0
ATTDEF
  8
0
 10
0.0
 20
-0.001667
 30
0.0
 40
0.001
  1
UNDERTONE
  3

  2
TRADENAME
 70
     8
  0
ATTDEF
  8
0
 10
0.0
 20
-0.003333
 30
0.0
 40
0.001
  1
SINKS
  3

  2
PRODUCT
 70
     8
  0
ATTDEF
  8
0
 10
0.0
 20
-0.005
 30
0.0
 40
0.001
  1
STAINLESS STEEL
  3

  2
MATERIAL
 70
     8
  0
ENDSEC
  0
EOF
