  0
SECTION
  2
HEADER
  9
$ACADVER
  1
AC1009
  9
$INSBASE
 10
0.0
 20
0.0
 30
0.0
  9
$EXTMIN
 10
-15.364907
 20
-9.607971
 30
0.0
  9
$EXTMAX
 10
15.364907
 20
0.052082
 30
0.0
  9
$LIMMIN
 10
0.0
 20
0.0
  9
$LIMMAX
 10
12.0
 20
9.0
  9
$ORTHOMODE
 70
     0
  9
$REGENMODE
 70
     1
  9
$FILLMODE
 70
     0
  9
$QTEXTMODE
 70
     0
  9
$MIRRTEXT
 70
     1
  9
$DRAGMODE
 70
     2
  9
$LTSCALE
 40
1.0
  9
$OSMODE
 70
     0
  9
$ATTMODE
 70
     1
  9
$TEXTSIZE
 40
0.001
  9
$TRACEWID
 40
0.05
  9
$TEXTSTYLE
  7
STANDARD
  9
$CLAYER
  8
0
  9
$CELTYPE
  6
BYLAYER
  9
$CECOLOR
 62
   256
  9
$DIMSCALE
 40
1.0
  9
$DIMASZ
 40
0.18
  9
$DIMEXO
 40
0.0625
  9
$DIMDLI
 40
0.38
  9
$DIMRND
 40
0.0
  9
$DIMDLE
 40
0.0
  9
$DIMEXE
 40
0.18
  9
$DIMTP
 40
0.0
  9
$DIMTM
 40
0.0
  9
$DIMTXT
 40
0.18
  9
$DIMCEN
 40
0.09
  9
$DIMTSZ
 40
0.0
  9
$DIMTOL
 70
     0
  9
$DIMLIM
 70
     0
  9
$DIMTIH
 70
     1
  9
$DIMTOH
 70
     1
  9
$DIMSE1
 70
     0
  9
$DIMSE2
 70
     0
  9
$DIMTAD
 70
     0
  9
$DIMZIN
 70
     0
  9
$DIMBLK
  1

  9
$DIMASO
 70
     1
  9
$DIMSHO
 70
     1
  9
$DIMPOST
  1

  9
$DIMAPOST
  1

  9
$DIMALT
 70
     0
  9
$DIMALTD
 70
     2
  9
$DIMALTF
 40
25.4
  9
$DIMLFAC
 40
1.0
  9
$DIMTOFL
 70
     0
  9
$DIMTVP
 40
0.0
  9
$DIMTIX
 70
     0
  9
$DIMSOXD
 70
     0
  9
$DIMSAH
 70
     0
  9
$DIMBLK1
  1

  9
$DIMBLK2
  1

  9
$DIMSTYLE
  2
*UNNAMED
  9
$DIMCLRD
 70
     0
  9
$DIMCLRE
 70
     0
  9
$DIMCLRT
 70
     0
  9
$DIMTFAC
 40
1.0
  9
$DIMGAP
 40
0.09
  9
$LUNITS
 70
     2
  9
$LUPREC
 70
     4
  9
$SKETCHINC
 40
0.1
  9
$FILLETRAD
 40
0.0
  9
$AUNITS
 70
     0
  9
$AUPREC
 70
     0
  9
$MENU
  1
acad
  9
$ELEVATION
 40
0.0
  9
$PELEVATION
 40
0.0
  9
$THICKNESS
 40
0.0
  9
$LIMCHECK
 70
     0
  9
$BLIPMODE
 70
     0
  9
$CHAMFERA
 40
0.0
  9
$CHAMFERB
 40
0.0
  9
$SKPOLY
 70
     0
  9
$TDCREATE
 40
2450911.565981134
  9
$TDUPDATE
 40
2450911.566599652
  9
$TDINDWG
 40
0.0000496528
  9
$TDUSRTIMER
 40
0.0000496528
  9
$USRTIMER
 70
     1
  9
$ANGBASE
 50
0.0
  9
$ANGDIR
 70
     0
  9
$PDMODE
 70
     0
  9
$PDSIZE
 40
0.0
  9
$PLINEWID
 40
0.0
  9
$COORDS
 70
     1
  9
$SPLFRAME
 70
     0
  9
$SPLINETYPE
 70
     6
  9
$SPLINESEGS
 70
     8
  9
$ATTDIA
 70
     0
  9
$ATTREQ
 70
     1
  9
$HANDLING
 70
     0
  9
$HANDSEED
  5
0
  9
$SURFTAB1
 70
     6
  9
$SURFTAB2
 70
     6
  9
$SURFTYPE
 70
     6
  9
$SURFU
 70
     6
  9
$SURFV
 70
     6
  9
$UCSNAME
  2

  9
$UCSORG
 10
0.0
 20
0.0
 30
0.0
  9
$UCSXDIR
 10
1.0
 20
0.0
 30
0.0
  9
$UCSYDIR
 10
0.0
 20
1.0
 30
0.0
  9
$PUCSNAME
  2

  9
$PUCSORG
 10
0.0
 20
0.0
 30
0.0
  9
$PUCSXDIR
 10
1.0
 20
0.0
 30
0.0
  9
$PUCSYDIR
 10
0.0
 20
1.0
 30
0.0
  9
$USERI1
 70
     0
  9
$USERI2
 70
     0
  9
$USERI3
 70
     0
  9
$USERI4
 70
     0
  9
$USERI5
 70
     0
  9
$USERR1
 40
0.0
  9
$USERR2
 40
0.0
  9
$USERR3
 40
0.0
  9
$USERR4
 40
0.0
  9
$USERR5
 40
0.0
  9
$WORLDVIEW
 70
     1
  9
$SHADEDGE
 70
     3
  9
$SHADEDIF
 70
    70
  9
$TILEMODE
 70
     1
  9
$MAXACTVP
 70
    16
  9
$PINSBASE
 10
-8.414393E+99
 20
0.0
 30
0.0
  9
$PLIMCHECK
 70
     0
  9
$PEXTMIN
 10
1.000000E+20
 20
1.000000E+20
 30
1.000000E+20
  9
$PEXTMAX
 10
-1.000000E+20
 20
-1.000000E+20
 30
-1.000000E+20
  9
$PLIMMIN
 10
0.0
 20
0.0
  9
$PLIMMAX
 10
12.0
 20
9.0
  9
$UNITMODE
 70
     0
  9
$VISRETAIN
 70
     0
  9
$PLINEGEN
 70
     0
  9
$PSLTSCALE
 70
     1
  9
$TREEDEPTH
 70
  3020
  9
$DWGCODEPAGE
  3
iso8859-1
  0
ENDSEC
  0
SECTION
  2
TABLES
  0
TABLE
  2
VPORT
 70
     2
  0
VPORT
  2
*ACTIVE
 70
     0
 10
0.0
 20
0.0
 11
1.0
 21
1.0
 12
1.271676
 22
0.881883
 13
0.0
 23
0.0
 14
1.0
 24
1.0
 15
0.0
 25
0.0
 16
0.0
 26
0.0
 36
1.0
 17
0.0
 27
0.0
 37
0.0
 40
23.310785
 41
1.573846
 42
50.0
 43
0.0
 44
0.0
 50
0.0
 51
0.0
 71
     0
 72
   100
 73
     1
 74
     1
 75
     0
 76
     0
 77
     0
 78
     0
  0
ENDTAB
  0
TABLE
  2
LTYPE
 70
     2
  0
LTYPE
  2
CONTINUOUS
 70
    64
  3
Solid line
 72
    65
 73
     0
 40
0.0
  0
LTYPE
  2
HIDDEN
 70
    64
  3
__ __ __ __ __ __ __ __ __ __ __ __ __ __ __ __
 72
    65
 73
     2
 40
0.375
 49
0.25
 49
-0.125
  0
ENDTAB
  0
TABLE
  2
LAYER
 70
     1
  0
LAYER
  2
0
 70
    64
 62
     7
  6
CONTINUOUS
  0
ENDTAB
  0
TABLE
  2
STYLE
 70
     1
  0
STYLE
  2
STANDARD
 70
    64
 40
0.0
 41
1.0
 50
0.0
 71
     0
 42
0.001
  3
txt
  4

  0
ENDTAB
  0
TABLE
  2
VIEW
 70
     0
  0
ENDTAB
  0
TABLE
  2
UCS
 70
     0
  0
ENDTAB
  0
TABLE
  2
APPID
 70
     1
  0
APPID
  2
ACAD
 70
    64
  0
ENDTAB
  0
TABLE
  2
DIMSTYLE
 70
     0
  0
ENDTAB
  0
ENDSEC
  0
SECTION
  2
BLOCKS
  0
ENDSEC
  0
SECTION
  2
ENTITIES
  0
LINE
  8
0
  6
HIDDEN
 10
2.133839
 20
-9.230213
 30
0.0
 11
-2.949133
 21
-9.448885
 31
0.0
  0
LINE
  8
0
  6
HIDDEN
 10
3.963051
 20
-0.244986
 30
0.0
 11
-14.290972
 21
-0.244986
 31
0.0
  0
LINE
  8
0
 10
-15.364907
 20
0.0
 30
0.0
 11
15.364907
 21
0.0
 31
0.0
  0
LINE
  8
0
  6
HIDDEN
 10
-14.28403
 20
-7.681927
 30
0.0
 11
-14.28403
 21
-0.310557
 31
0.0
  0
ARC
  8
0
  6
HIDDEN
 10
-12.73563
 20
-7.667887
 30
0.0
 40
1.548463
 50
180.519519
 51
267.18218
  0
LINE
  8
0
  6
HIDDEN
 10
-3.331552
 20
-9.607971
 30
0.0
 11
-7.330631
 21
-9.607971
 31
0.0
  0
LINE
  8
0
  6
HIDDEN
 10
-7.619168
 20
-9.495758
 30
0.0
 11
-3.052513
 21
-9.495758
 31
0.0
  0
LINE
  8
0
  6
HIDDEN
 10
-7.726475
 20
-9.464775
 30
0.0
 11
-12.811753
 21
-9.214478
 31
0.0
  0
LINE
  8
0
  6
HIDDEN
 10
-7.330631
 20
-9.607971
 30
0.0
 11
-7.619168
 21
-9.495758
 31
0.0
  0
ARC
  8
0
  6
HIDDEN
 10
-7.702775
 20
-9.58401
 30
0.0
 40
0.121567
 50
46.548085
 51
101.241952
  0
ARC
  8
0
  6
HIDDEN
 10
-2.942601
 20
-9.600735
 30
0.0
 40
0.15199
 50
92.463377
 51
142.273405
  0
LINE
  8
0
  6
HIDDEN
 10
-3.062816
 20
-9.507733
 30
0.0
 11
-3.331552
 21
-9.607971
 31
0.0
  0
ARC
  8
0
  6
HIDDEN
 10
-14.597169
 20
-0.310557
 30
0.0
 40
0.313139
 50
0.0
 51
82.636077
  0
LINE
  8
0
  6
HIDDEN
 10
14.300505
 20
-0.3108
 30
0.0
 11
14.300505
 21
-3.789209
 31
0.0
  0
LINE
  8
0
  6
HIDDEN
 10
4.837005
 20
-3.793536
 30
0.0
 11
4.837005
 21
-0.311752
 31
0.0
  0
LINE
  8
0
  6
HIDDEN
 10
3.623249
 20
-0.311752
 30
0.0
 11
3.623249
 21
-7.670688
 31
0.0
  0
LINE
  8
0
  6
HIDDEN
 10
7.186158
 20
-5.477008
 30
0.0
 11
11.907696
 21
-5.477008
 31
0.0
  0
LINE
  8
0
  6
HIDDEN
 10
11.574479
 20
-5.625358
 30
0.0
 11
7.57836
 21
-5.625358
 31
0.0
  0
ARC
  8
0
  6
HIDDEN
 10
2.061221
 20
-7.669873
 30
0.0
 40
1.562028
 50
272.664605
 51
359.970137
  0
ARC
  8
0
  6
HIDDEN
 10
6.401432
 20
-3.758328
 30
0.0
 40
1.564824
 50
181.289251
 51
260.911269
  0
LINE
  8
0
  6
HIDDEN
 10
7.57836
 20
-5.625358
 30
0.0
 11
7.271809
 21
-5.50364
 31
0.0
  0
LINE
  8
0
  6
HIDDEN
 10
7.186158
 20
-5.477008
 30
0.0
 11
6.154247
 21
-5.303506
 31
0.0
  0
ARC
  8
0
  6
HIDDEN
 10
7.055256
 20
-6.049037
 30
0.0
 40
0.586816
 50
68.344176
 51
77.110474
  0
ARC
  8
0
  6
HIDDEN
 10
12.770488
 20
-3.798859
 30
0.0
 40
1.530047
 50
278.087675
 51
0.361395
  0
ARC
  8
0
  6
HIDDEN
 10
11.993587
 20
-5.626528
 30
0.0
 40
0.172434
 50
97.959705
 51
149.102273
  0
LINE
  8
0
  6
HIDDEN
 10
11.845624
 20
-5.537982
 30
0.0
 11
11.574479
 21
-5.625358
 31
0.0
  0
LINE
  8
0
  6
HIDDEN
 10
12.985748
 20
-5.313689
 30
0.0
 11
11.969709
 21
-5.455755
 31
0.0
  0
LINE
  8
0
  6
HIDDEN
 10
14.327174
 20
-0.244986
 30
0.0
 11
3.963051
 21
-0.244986
 31
0.0
  0
ARC
  8
0
  6
HIDDEN
 10
3.9376
 20
-0.311752
 30
0.0
 40
0.314351
 50
97.194039
 51
180.0
  0
ARC
  8
0
  6
HIDDEN
 10
4.522654
 20
-0.311752
 30
0.0
 40
0.314351
 50
0.0
 51
82.805961
  0
LINE
  8
0
  6
HIDDEN
 10
14.493442
 20
-0.074639
 30
0.0
 11
14.339526
 21
-0.230635
 31
0.0
  0
ARC
  8
0
  6
HIDDEN
 10
14.438704
 20
-0.32849
 30
0.0
 40
0.139326
 50
135.384675
 51
172.705298
  0
ARC
  8
0
 10
14.730521
 20
-0.408556
 30
0.0
 40
0.409521
 50
95.578269
 51
125.374571
  0
ATTDEF
  8
0
 10
0.0
 20
0.0
 30
0.0
 40
0.001
  1
K-3355
  3

  2
MODELNUMBER
 70
     8
  0
ATTDEF
  8
0
 10
0.0
 20
-0.001667
 30
0.0
 40
0.001
  1
UNDERTONE
  3

  2
TRADENAME
 70
     8
  0
ATTDEF
  8
0
 10
0.0
 20
-0.003333
 30
0.0
 40
0.001
  1
SINKS
  3

  2
PRODUCT
 70
     8
  0
ATTDEF
  8
0
 10
0.0
 20
-0.005
 30
0.0
 40
0.001
  1
STAINLESS STEEL
  3

  2
MATERIAL
 70
     8
  0
ENDSEC
  0
EOF
