  0
SECTION
  2
HEADER
  9
$ACADVER
  1
AC1009
  9
$INSBASE
 10
0.0
 20
0.0
 30
0.0
  9
$EXTMIN
 10
-11.40696424756689
 20
-9.6248954454688587
 30
-0.0015258207003583
  9
$EXTMAX
 10
11.407843643590279
 20
9.6248955351022332
 30
0.0000000349246037
  9
$LIMMIN
 10
0.0
 20
0.0
  9
$LIMMAX
 10
12.0
 20
9.0
  9
$ORTHOMODE
 70
     0
  9
$REGENMODE
 70
     1
  9
$FILLMODE
 70
     1
  9
$QTEXTMODE
 70
     0
  9
$MIRRTEXT
 70
     1
  9
$DRAGMODE
 70
     2
  9
$LTSCALE
 40
1.0
  9
$OSMODE
 70
    37
  9
$ATTMODE
 70
     1
  9
$TEXTSIZE
 40
0.001
  9
$TRACEWID
 40
0.05
  9
$TEXTSTYLE
  7
STANDARD
  9
$CLAYER
  8
0
  9
$CELTYPE
  6
BYLAYER
  9
$CECOLOR
 62
   256
  9
$DIMSCALE
 40
1.0
  9
$DIMASZ
 40
0.18
  9
$DIMEXO
 40
0.0625
  9
$DIMDLI
 40
0.38
  9
$DIMRND
 40
0.0
  9
$DIMDLE
 40
0.0
  9
$DIMEXE
 40
0.18
  9
$DIMTP
 40
0.0
  9
$DIMTM
 40
0.0
  9
$DIMTXT
 40
0.18
  9
$DIMCEN
 40
0.09
  9
$DIMTSZ
 40
0.0
  9
$DIMTOL
 70
     0
  9
$DIMLIM
 70
     0
  9
$DIMTIH
 70
     1
  9
$DIMTOH
 70
     1
  9
$DIMSE1
 70
     0
  9
$DIMSE2
 70
     0
  9
$DIMTAD
 70
     0
  9
$DIMZIN
 70
     0
  9
$DIMBLK
  1

  9
$DIMASO
 70
     1
  9
$DIMSHO
 70
     1
  9
$DIMPOST
  1

  9
$DIMAPOST
  1

  9
$DIMALT
 70
     0
  9
$DIMALTD
 70
     2
  9
$DIMALTF
 40
25.399999999999999
  9
$DIMLFAC
 40
1.0
  9
$DIMTOFL
 70
     0
  9
$DIMTVP
 40
0.0
  9
$DIMTIX
 70
     0
  9
$DIMSOXD
 70
     0
  9
$DIMSAH
 70
     0
  9
$DIMBLK1
  1

  9
$DIMBLK2
  1

  9
$DIMSTYLE
  2
STANDARD
  9
$DIMCLRD
 70
     0
  9
$DIMCLRE
 70
     0
  9
$DIMCLRT
 70
     0
  9
$DIMTFAC
 40
1.0
  9
$DIMGAP
 40
0.09
  9
$LUNITS
 70
     2
  9
$LUPREC
 70
     4
  9
$SKETCHINC
 40
0.1
  9
$FILLETRAD
 40
0.0
  9
$AUNITS
 70
     0
  9
$AUPREC
 70
     0
  9
$MENU
  1
.
  9
$ELEVATION
 40
0.0
  9
$PELEVATION
 40
0.0
  9
$THICKNESS
 40
0.0
  9
$LIMCHECK
 70
     0
  9
$BLIPMODE
 70
     0
  9
$CHAMFERA
 40
0.5
  9
$CHAMFERB
 40
0.5
  9
$SKPOLY
 70
     0
  9
$TDCREATE
 40
2451380.5970990621
  9
$TDUPDATE
 40
2456524.7063928819
  9
$TDINDWG
 40
1.4533822917000001
  9
$TDUSRTIMER
 40
1.4533732523
  9
$USRTIMER
 70
     1
  9
$ANGBASE
 50
0.0
  9
$ANGDIR
 70
     0
  9
$PDMODE
 70
     0
  9
$PDSIZE
 40
0.0
  9
$PLINEWID
 40
0.0
  9
$COORDS
 70
     1
  9
$SPLFRAME
 70
     0
  9
$SPLINETYPE
 70
     6
  9
$SPLINESEGS
 70
     8
  9
$ATTDIA
 70
     0
  9
$ATTREQ
 70
     1
  9
$HANDLING
 70
     1
  9
$HANDSEED
  5
111F
  9
$SURFTAB1
 70
     6
  9
$SURFTAB2
 70
     6
  9
$SURFTYPE
 70
     6
  9
$SURFU
 70
     6
  9
$SURFV
 70
     6
  9
$UCSNAME
  2

  9
$UCSORG
 10
0.0
 20
0.0
 30
0.0
  9
$UCSXDIR
 10
1.0
 20
0.0
 30
0.0
  9
$UCSYDIR
 10
0.0
 20
1.0
 30
0.0
  9
$PUCSNAME
  2

  9
$PUCSORG
 10
0.0
 20
0.0
 30
0.0
  9
$PUCSXDIR
 10
1.0
 20
0.0
 30
0.0
  9
$PUCSYDIR
 10
0.0
 20
1.0
 30
0.0
  9
$USERI1
 70
     0
  9
$USERI2
 70
     0
  9
$USERI3
 70
     0
  9
$USERI4
 70
     0
  9
$USERI5
 70
     0
  9
$USERR1
 40
0.0
  9
$USERR2
 40
0.0
  9
$USERR3
 40
0.0
  9
$USERR4
 40
0.0
  9
$USERR5
 40
0.0
  9
$WORLDVIEW
 70
     1
  9
$SHADEDGE
 70
     3
  9
$SHADEDIF
 70
    70
  9
$TILEMODE
 70
     1
  9
$MAXACTVP
 70
    64
  9
$PLIMCHECK
 70
     0
  9
$PEXTMIN
 10
1.0000000000000000E+020
 20
1.0000000000000000E+020
 30
1.0000000000000000E+020
  9
$PEXTMAX
 10
-1.0000000000000000E+020
 20
-1.0000000000000000E+020
 30
-1.0000000000000000E+020
  9
$PLIMMIN
 10
0.0
 20
0.0
  9
$PLIMMAX
 10
12.0
 20
9.0
  9
$UNITMODE
 70
     0
  9
$VISRETAIN
 70
     1
  9
$PLINEGEN
 70
     0
  9
$PSLTSCALE
 70
     1
  0
ENDSEC
  0
SECTION
  2
TABLES
  0
TABLE
  2
VPORT
 70
     1
  0
VPORT
  2
*ACTIVE
 70
     0
 10
0.0
 20
0.0
 11
1.0
 21
1.0
 12
0.0004396980116956
 22
0.0000000448166873
 13
0.0
 23
0.0
 14
0.5
 24
0.5
 15
0.5
 25
0.5
 16
0.0
 26
0.0
 36
1.0
 17
0.0
 27
0.0
 37
0.0
 40
19.368861852615861
 41
1.976264189886481
 42
50.0
 43
0.0
 44
0.0
 50
0.0
 51
0.0
 71
     0
 72
  2500
 73
     1
 74
     1
 75
     0
 76
     0
 77
     0
 78
     0
  0
ENDTAB
  0
TABLE
  2
LTYPE
 70
     2
  0
LTYPE
  2
CONTINUOUS
 70
     0
  3
Solid line
 72
    65
 73
     0
 40
0.0
  0
LTYPE
  2
PHANTOM2
 70
     0
  3
Phantom (.5x) ___ _ _ ___ _ _ ___ _ _ ___ _ _
 72
    65
 73
     6
 40
1.25
 49
0.625
 49
-0.125
 49
0.125
 49
-0.125
 49
0.125
 49
-0.125
  0
ENDTAB
  0
TABLE
  2
LAYER
 70
     2
  0
LAYER
  2
0
 70
     0
 62
     7
  6
CONTINUOUS
  0
LAYER
  2
DEFPOINTS
 70
     0
 62
     7
  6
CONTINUOUS
  0
ENDTAB
  0
TABLE
  2
STYLE
 70
     1
  0
STYLE
  2
STANDARD
 70
     0
 40
0.0
 41
1.0
 50
0.0
 71
     0
 42
0.001
  3
txt
  4

  0
ENDTAB
  0
TABLE
  2
VIEW
 70
     0
  0
ENDTAB
  0
TABLE
  2
UCS
 70
     0
  0
ENDTAB
  0
TABLE
  2
APPID
 70
     4
  0
APPID
  2
ACAD
 70
     0
  0
APPID
  2
ACAD_NAV_VCDISPLAY
 70
     0
  0
APPID
  2
ACDBATTR
 70
     0
  0
APPID
  2
ACAD_MLEADERVER
 70
     0
  0
ENDTAB
  0
TABLE
  2
DIMSTYLE
 70
     1
  0
DIMSTYLE
  2
STANDARD
 70
     0
  3

  4

  5

  6

  7

 40
1.0
 41
0.18
 42
0.0625
 43
0.38
 44
0.18
 45
0.0
 46
0.0
 47
0.0
 48
0.0
140
0.18
141
0.09
142
0.0
143
25.399999999999999
144
1.0
145
0.0
146
1.0
147
0.09
 71
     0
 72
     0
 73
     1
 74
     1
 75
     0
 76
     0
 77
     0
 78
     0
170
     0
171
     2
172
     0
173
     0
174
     0
175
     0
176
     0
177
     0
178
     0
  0
ENDTAB
  0
ENDSEC
  0
SECTION
  2
BLOCKS
  0
BLOCK
  8
0
  2
$MODEL_SPACE
 70
     2
 10
0.0
 20
0.0
 30
0.0
  3
$MODEL_SPACE
  1

  0
ENDBLK
  5
16
  8
0
  0
BLOCK
 67
     1
  8
0
  2
$PAPER_SPACE
 70
     0
 10
0.0
 20
0.0
 30
0.0
  3
$PAPER_SPACE
  1

  0
ENDBLK
  5
1D
 67
     1
  8
0
  0
ENDSEC
  0
SECTION
  2
ENTITIES
  0
POLYLINE
  5
70
  8
0
 66
     1
 10
0.0
 20
0.0
 30
0.0
  0
VERTEX
  5
71
  8
0
 10
8.6568213819282391
 20
3.7528054558028989
 30
0.0
  0
VERTEX
  5
72
  8
0
 10
8.6531637682137443
 20
3.7576822740886651
 30
0.0
  0
VERTEX
  5
73
  8
0
 10
8.6496937244337442
 20
3.7625590923742029
 30
0.0
  0
VERTEX
  5
74
  8
0
 10
8.6454734009175809
 20
3.7679986204620941
 30
0.0
  0
VERTEX
  5
75
  8
0
 10
8.6414406473350027
 20
3.7732505786159432
 30
0.0
  0
VERTEX
  5
76
  8
0
 10
8.6370327538843412
 20
3.7785025367697922
 30
0.0
  0
VERTEX
  5
77
  8
0
 10
8.6324372905000928
 20
3.784129634791725
 30
0.0
  0
VERTEX
  5
78
  8
0
 10
8.6272791173132646
 20
3.789756732813657
 30
0.0
  0
VERTEX
  5
79
  8
0
 10
8.6223085140600233
 20
3.7955714007696311
 30
0.0
  0
VERTEX
  5
7A
  8
0
 10
8.616681416038773
 20
3.8015736386596468
 30
0.0
  0
VERTEX
  5
7B
  8
0
 10
8.610960533049365
 20
3.8077634464839321
 30
0.0
  0
VERTEX
  5
7C
  8
0
 10
8.6051458650936183
 20
3.8135781144399061
 30
0.0
  0
VERTEX
  5
7D
  8
0
 10
8.599049842236127
 20
3.820143062132046
 30
0.0
  0
VERTEX
  5
7E
  8
0
 10
8.5924848945442136
 20
3.8265204398903729
 30
0.0
  0
VERTEX
  5
7F
  8
0
 10
8.5858261618850502
 20
3.8332729575167832
 30
0.0
  0
VERTEX
  5
80
  8
0
 10
8.5715708468960656
 20
3.8465904228353329
 30
0.0
  0
VERTEX
  5
81
  8
0
 10
8.5638804795989927
 20
3.8535305103957849
 30
0.0
  0
VERTEX
  5
82
  8
0
 10
8.5560025423683328
 20
3.860470597956009
 30
0.0
  0
VERTEX
  5
83
  8
0
 10
8.5479370352040842
 20
3.8674106855164601
 30
0.0
  0
VERTEX
  5
84
  8
0
 10
8.5393088182363481
 20
3.8747259129449949
 30
0.0
  0
VERTEX
  5
85
  8
0
 10
8.5308681712040197
 20
3.8822287103075719
 30
0.0
  0
VERTEX
  5
86
  8
0
 10
8.5215834594673652
 20
3.8895439377361072
 30
0.0
  0
VERTEX
  5
87
  8
0
 10
8.5123925326979588
 20
3.8972343050327249
 30
0.0
  0
VERTEX
  5
88
  8
0
 10
8.5030140359949655
 20
3.9049246723295701
 30
0.0
  0
VERTEX
  5
89
  8
0
 10
8.4929790445230537
 20
3.9124274696921471
 30
0.0
  0
VERTEX
  5
8A
  8
0
 10
8.4828502680829843
 20
3.9203054069228069
 30
0.0
  0
VERTEX
  5
8B
  8
0
 10
8.4722525668084927
 20
3.9281833441534668
 30
0.0
  0
VERTEX
  5
8C
  8
0
 10
8.4703355397176381
 20
3.9295984886153681
 30
0.0
  0
SEQEND
  5
8D
  8
0
  0
POLYLINE
  5
8E
  8
0
 66
     1
 10
0.0
 20
0.0
 30
0.0
  0
VERTEX
  5
8F
  8
0
 10
7.7809635748126311
 20
2.5050902544035121
 30
0.0
  0
VERTEX
  5
90
  8
0
 10
7.7671771846589763
 20
2.5491691889087629
 30
0.0
  0
VERTEX
  5
91
  8
0
 10
7.7543286441750752
 20
2.5917475639414529
 30
0.0
  0
VERTEX
  5
92
  8
0
 10
7.7479512664167478
 20
2.6123802566885379
 30
0.0
  0
VERTEX
  5
93
  8
0
 10
7.7420428134937529
 20
2.6328253795015821
 30
0.0
  0
VERTEX
  5
94
  8
0
 10
7.7362281455380071
 20
2.6525202225784592
 30
0.0
  0
VERTEX
  5
95
  8
0
 10
7.7306948324830946
 20
2.6720274957210668
 30
0.0
  0
VERTEX
  5
96
  8
0
 10
7.7257242292307629
 20
2.6909720590617781
 30
0.0
  0
VERTEX
  5
97
  8
0
 10
7.7204722710766873
 20
2.709353912600136
 30
0.0
  0
VERTEX
  5
98
  8
0
 10
7.7156892377579416
 20
2.727735766138494
 30
0.0
  0
VERTEX
  5
99
  8
0
 10
7.711093774373694
 20
2.7455549098744991
 30
0.0
  0
VERTEX
  5
9A
  8
0
 10
7.7066858809230316
 20
2.7626237738745649
 30
0.0
  0
VERTEX
  5
9B
  8
0
 10
7.7028406972740413
 20
2.7793174980063209
 30
0.0
  0
VERTEX
  5
9C
  8
0
 10
7.6988079436923718
 20
2.7954485123359509
 30
0.0
  0
VERTEX
  5
9D
  8
0
 10
7.695150329977877
 20
2.8113919567313128
 30
0.0
  0
VERTEX
  5
9E
  8
0
 10
7.6916802861978786
 20
2.8269602612588178
 30
0.0
  0
VERTEX
  5
9F
  8
0
 10
7.6889605221540469
 20
2.8417782860499301
 30
0.0
  0
VERTEX
  5
A0
  8
0
 10
7.6859594032084706
 20
2.8560336010386891
 30
0.0
  0
VERTEX
  5
A1
  8
0
 10
7.6834272090991362
 20
2.8701013460936329
 30
0.0
  0
VERTEX
  5
A2
  8
0
 10
7.6810825849224784
 20
2.8834188114121839
 30
0.0
  0
VERTEX
  5
A3
  8
0
 10
7.6790193156484738
 20
2.8967362767307341
 30
0.0
  0
VERTEX
  5
A4
  8
0
 10
7.6770498313408089
 20
2.909303462313118
 30
0.0
  0
VERTEX
  5
A5
  8
0
 10
7.675549271867566
 20
2.9213079380933769
 30
0.0
  0
VERTEX
  5
A6
  8
0
 10
7.674236282329729
 20
2.932937274005325
 30
0.0
  0
VERTEX
  5
A7
  8
0
 10
7.6732046476918176
 20
2.9441914700491898
 30
0.0
  0
VERTEX
  5
A8
  8
0
 10
7.672266798022064
 20
2.9550705262249721
 30
0.0
  0
VERTEX
  5
A9
  8
0
 10
7.6715165182858982
 20
2.965199302664586
 30
0.0
  0
VERTEX
  5
AA
  8
0
 10
7.6713289483514009
 20
2.9753280791039738
 30
0.0
  0
VERTEX
  5
AB
  8
0
 10
7.671141378417814
 20
2.984706575807194
 30
0.0
  0
VERTEX
  5
AC
  8
0
 10
7.6713289483514009
 20
2.993334792774248
 30
0.0
  0
VERTEX
  5
AD
  8
0
 10
7.6720792280875676
 20
3.0019630097413019
 30
0.0
  0
VERTEX
  5
AE
  8
0
 10
7.6724543679556509
 20
3.0100285169060039
 30
0.0
  0
VERTEX
  5
AF
  8
0
 10
7.6734860025935632
 20
3.0173437443345388
 30
0.0
  0
VERTEX
  5
B0
  8
0
 10
7.6747989921314002
 20
3.0246589717630741
 30
0.0
  0
VERTEX
  5
B1
  8
0
 10
7.6764871215382291
 20
3.0310363495214001
 30
0.0
  0
VERTEX
  5
B2
  8
0
 10
7.6780814659778107
 20
3.0370385874114159
 30
0.0
  0
VERTEX
  5
B3
  8
0
 10
7.6801447352527239
 20
3.042478115499307
 30
0.0
  0
VERTEX
  5
B4
  8
0
 10
7.6824893594284731
 20
3.0477300736531561
 30
0.0
  0
VERTEX
  5
B5
  8
0
 10
7.6851153385050557
 20
3.0520441821365689
 30
0.0
  0
VERTEX
  5
B6
  8
0
 10
7.6882102424169707
 20
3.0559831507518989
 30
0.0
  0
VERTEX
  5
B7
  8
0
 10
7.691492716263383
 20
3.0593594095651042
 30
0.0
  0
SEQEND
  5
B8
  8
0
  0
POLYLINE
  5
B9
  8
0
 66
     1
 10
0.0
 20
0.0
 30
0.0
  0
VERTEX
  5
BA
  8
0
 10
7.7955940296696999
 20
2.4596983303597422
 30
0.0
  0
VERTEX
  5
BB
  8
0
 10
7.7809635748126311
 20
2.505465394271595
 30
0.0
  0
SEQEND
  5
BC
  8
0
  0
POLYLINE
  5
BD
  8
0
 66
     1
 10
0.0
 20
0.0
 30
0.0
  0
VERTEX
  5
BE
  8
0
 10
7.8107871943284399
 20
2.4128058468436389
 30
0.0
  0
VERTEX
  5
BF
  8
0
 10
7.7957815996032869
 20
2.4596983303597422
 30
0.0
  0
SEQEND
  5
C0
  8
0
  0
POLYLINE
  5
C1
  8
0
 66
     1
 10
0.0
 20
0.0
 30
0.0
  0
VERTEX
  5
C2
  8
0
 10
7.8265430687897597
 20
2.364037663986664
 30
0.0
  0
VERTEX
  5
C3
  8
0
 10
7.810599624394853
 20
2.4124307069753281
 30
0.0
  0
SEQEND
  5
C4
  8
0
  0
POLYLINE
  5
C5
  8
0
 66
     1
 10
0.0
 20
0.0
 30
0.0
  0
VERTEX
  5
C6
  8
0
 10
7.8514898700204858
 20
2.2899475400311071
 30
0.0
  0
VERTEX
  5
C7
  8
0
 10
7.826730638724257
 20
2.3644128038547469
 30
0.0
  0
SEQEND
  5
C8
  8
0
  0
POLYLINE
  5
C9
  8
0
 66
     1
 10
0.0
 20
0.0
 30
0.0
  0
VERTEX
  5
CA
  8
0
 10
7.9297065325263238
 20
2.0558602623179918
 30
0.0
  0
VERTEX
  5
CB
  8
0
 10
7.8514898700204858
 20
2.2897599700968381
 30
0.0
  0
SEQEND
  5
CC
  8
0
  0
POLYLINE
  5
CD
  8
0
 66
     1
 10
0.0
 20
0.0
 30
0.0
  0
VERTEX
  5
CE
  8
0
 10
8.0049220760856752
 20
1.874855275945492
 30
0.0
  0
VERTEX
  5
CF
  8
0
 10
7.9944181597784327
 20
1.9033659059232371
 30
0.0
  0
VERTEX
  5
D0
  8
0
 10
7.982882608833278
 20
1.9326268156373769
 30
0.0
  0
VERTEX
  5
D1
  8
0
 10
7.9705967781519567
 20
1.9624504351538681
 30
0.0
  0
VERTEX
  5
D2
  8
0
 10
7.957748237668965
 20
1.992836764472258
 30
0.0
  0
VERTEX
  5
D3
  8
0
 10
7.9442432024161462
 20
2.0243485133951249
 30
0.0
  0
VERTEX
  5
D4
  8
0
 10
7.9298941024599108
 20
2.0558602623179918
 30
0.0
  0
SEQEND
  5
D5
  8
0
  0
POLYLINE
  5
D6
  8
0
 66
     1
 10
0.0
 20
0.0
 30
0.0
  0
VERTEX
  5
D7
  8
0
 10
8.3545524331830165
 20
-0.0171626489668597
 30
0.0
  0
VERTEX
  5
D8
  8
0
 10
8.3538021534468498
 20
0.0614291534063796
 30
0.0
  0
VERTEX
  5
D9
  8
0
 10
8.3522078090072682
 20
0.1402085257136605
 30
0.0
  0
VERTEX
  5
DA
  8
0
 10
8.3491129050944437
 20
0.2188003280868997
 30
0.0
  0
VERTEX
  5
DB
  8
0
 10
8.3448925815782786
 20
0.2973921304599116
 30
0.0
  0
VERTEX
  5
DC
  8
0
 10
8.3397344083914504
 20
0.3761715027671926
 30
0.0
  0
VERTEX
  5
DD
  8
0
 10
8.3329818907650406
 20
0.4547633051404319
 30
0.0
  0
VERTEX
  5
DE
  8
0
 10
8.3251039535343807
 20
0.5335426774477128
 30
0.0
  0
VERTEX
  5
DF
  8
0
 10
8.3162881666339672
 20
0.6123220497549938
 30
0.0
  0
VERTEX
  5
E0
  8
0
 10
8.3063469601283941
 20
0.6911014220620473
 30
0.0
  0
VERTEX
  5
E1
  8
0
 10
8.294623839248743
 20
0.7700683643033699
 30
0.0
  0
VERTEX
  5
E2
  8
0
 10
8.2823380085674216
 20
0.8488477366106508
 30
0.0
  0
VERTEX
  5
E3
  8
0
 10
8.2682702635129317
 20
0.92743953898389
 30
0.0
  0
VERTEX
  5
E4
  8
0
 10
8.2532646687877786
 20
1.0065940511592539
 30
0.0
  0
VERTEX
  5
E5
  8
0
 10
8.2369460845238791
 20
1.0849982835984511
 30
0.0
  0
VERTEX
  5
E6
  8
0
 10
8.2196896505902242
 20
1.163965225839547
 30
0.0
  0
VERTEX
  5
E7
  8
0
 10
8.2006513022824947
 20
1.242932168081097
 30
0.0
  0
VERTEX
  5
E8
  8
0
 10
8.1808626742385968
 20
1.3220866802562341
 30
0.0
  0
VERTEX
  5
E9
  8
0
 10
8.1593859167878691
 20
1.4010536224975561
 30
0.0
  0
VERTEX
  5
EA
  8
0
 10
8.1370650946346341
 20
1.4800205647388791
 30
0.0
  0
VERTEX
  5
EB
  8
0
 10
8.1130561430745711
 20
1.5589875069802011
 30
0.0
  0
VERTEX
  5
EC
  8
0
 10
8.0881093418438468
 20
1.637766879287482
 30
0.0
  0
VERTEX
  5
ED
  8
0
 10
8.0613806262390426
 20
1.7169213914628469
 30
0.0
  0
VERTEX
  5
EE
  8
0
 10
8.033807845931733
 20
1.7958883337041689
 30
0.0
  0
VERTEX
  5
EF
  8
0
 10
8.0049220760856752
 20
1.8746677060114501
 30
0.0
  0
SEQEND
  5
F0
  8
0
  0
POLYLINE
  5
F1
  8
0
 66
     1
 10
0.0
 20
0.0
 30
0.0
  0
VERTEX
  5
F2
  8
0
 10
8.6716394067198053
 20
3.6627718874517541
 30
0.0
  0
VERTEX
  5
F3
  8
0
 10
-8.6714518367862183
 20
3.6627718874517541
 30
0.0
  0
SEQEND
  5
F4
  8
0
  0
POLYLINE
  5
F5
  8
0
 66
     1
 10
0.0
 20
0.0
 30
0.0
  0
VERTEX
  5
F6
  8
0
 10
-7.6909300064617119
 20
3.059546979499145
 30
0.0
  0
VERTEX
  5
F7
  8
0
 10
-7.6227483354296046
 20
3.0591718396310621
 30
0.0
  0
VERTEX
  5
F8
  8
0
 10
-7.5553169441327546
 20
3.058421559894668
 30
0.0
  0
VERTEX
  5
F9
  8
0
 10
-7.1091818559598323
 20
3.05504530108169
 30
0.0
  0
SEQEND
  5
FA
  8
0
  0
POLYLINE
  5
FB
  8
0
 66
     1
 10
0.0
 20
0.0
 30
0.0
  0
VERTEX
  5
FC
  8
0
 10
-7.108994286025335
 20
3.0546701612133802
 30
0.0
  0
VERTEX
  5
FD
  8
0
 10
-6.3583394098977797
 20
3.0496057729938002
 30
0.0
  0
SEQEND
  5
FE
  8
0
  0
POLYLINE
  5
FF
  8
0
 66
     1
 10
0.0
 20
0.0
 30
0.0
  0
VERTEX
  5
100
  8
0
 10
-6.3583394098977797
 20
3.0496057729938002
 30
0.0
  0
VERTEX
  5
101
  8
0
 10
-5.8942913930213763
 20
3.0464170841146361
 30
0.0
  0
SEQEND
  5
102
  8
0
  0
POLYLINE
  5
103
  8
0
 66
     1
 10
0.0
 20
0.0
 30
0.0
  0
VERTEX
  5
104
  8
0
 10
-5.8941038230877894
 20
3.0464170841146361
 30
0.0
  0
VERTEX
  5
105
  8
0
 10
-5.1381032038389094
 20
3.0421029756312228
 30
0.0
  0
SEQEND
  5
106
  8
0
  0
POLYLINE
  5
107
  8
0
 66
     1
 10
0.0
 20
0.0
 30
0.0
  0
VERTEX
  5
108
  8
0
 10
-5.1381032038389094
 20
3.0421029756312228
 30
0.0
  0
VERTEX
  5
109
  8
0
 10
-4.6201288309184738
 20
3.0396645664882271
 30
0.0
  0
SEQEND
  5
10A
  8
0
  0
POLYLINE
  5
10B
  8
0
 66
     1
 10
0.0
 20
0.0
 30
0.0
  0
VERTEX
  5
10C
  8
0
 10
-4.6201288309184738
 20
3.0396645664882271
 30
0.0
  0
VERTEX
  5
10D
  8
0
 10
-3.9856735289440621
 20
3.036475877609063
 30
0.0
  0
SEQEND
  5
10E
  8
0
  0
POLYLINE
  5
10F
  8
0
 66
     1
 10
0.0
 20
0.0
 30
0.0
  0
VERTEX
  5
110
  8
0
 10
-3.9860486688130541
 20
3.0362883076750218
 30
0.0
  0
VERTEX
  5
111
  8
0
 10
0.370075479910156
 20
3.0282228005103198
 30
0.0
  0
SEQEND
  5
112
  8
0
  0
POLYLINE
  5
113
  8
0
 66
     1
 10
0.0
 20
0.0
 30
0.0
  0
VERTEX
  5
114
  8
0
 10
0.7999857687864278
 20
3.028597940378404
 30
0.0
  0
VERTEX
  5
115
  8
0
 10
0.370075479910156
 20
3.0282228005103198
 30
0.0
  0
SEQEND
  5
116
  8
0
  0
POLYLINE
  5
117
  8
0
 66
     1
 10
0.0
 20
0.0
 30
0.0
  0
VERTEX
  5
118
  8
0
 10
1.6779068451769481
 20
3.0295357900488389
 30
0.0
  0
VERTEX
  5
119
  8
0
 10
1.2325220367401919
 20
3.029160650180529
 30
0.0
  0
VERTEX
  5
11A
  8
0
 10
0.7999857687864278
 20
3.0284103704443619
 30
0.0
  0
SEQEND
  5
11B
  8
0
  0
POLYLINE
  5
11C
  8
0
 66
     1
 10
0.0
 20
0.0
 30
0.0
  0
VERTEX
  5
11D
  8
0
 10
3.0865570500045569
 20
3.0336623285982109
 30
0.0
  0
VERTEX
  5
11E
  8
0
 10
2.5958741024905971
 20
3.031974199191608
 30
0.0
  0
VERTEX
  5
11F
  8
0
 10
2.149270089482342
 20
3.0306612096530889
 30
0.0
  0
VERTEX
  5
120
  8
0
 10
1.6779068451769481
 20
3.029723359982881
 30
0.0
  0
SEQEND
  5
121
  8
0
  0
POLYLINE
  5
122
  8
0
 66
     1
 10
0.0
 20
0.0
 30
0.0
  0
VERTEX
  5
123
  8
0
 10
3.72213777158322
 20
3.035913167806938
 30
0.0
  0
VERTEX
  5
124
  8
0
 10
3.0867446199381439
 20
3.033287188730128
 30
0.0
  0
SEQEND
  5
125
  8
0
  0
POLYLINE
  5
126
  8
0
 66
     1
 10
0.0
 20
0.0
 30
0.0
  0
VERTEX
  5
127
  8
0
 10
4.0776765816026446
 20
3.0366634475433321
 30
0.0
  0
VERTEX
  5
128
  8
0
 10
3.8967653801973929
 20
3.0362883076750218
 30
0.0
  0
VERTEX
  5
129
  8
0
 10
3.72213777158322
 20
3.035350458004813
 30
0.0
  0
SEQEND
  5
12A
  8
0
  0
POLYLINE
  5
12B
  8
0
 66
     1
 10
0.0
 20
0.0
 30
0.0
  0
VERTEX
  5
12C
  8
0
 10
4.2607448372500576
 20
3.037788867147583
 30
0.0
  0
VERTEX
  5
12D
  8
0
 10
4.0776765816026446
 20
3.0372261573454571
 30
0.0
  0
SEQEND
  5
12E
  8
0
  0
POLYLINE
  5
12F
  8
0
 66
     1
 10
0.0
 20
0.0
 30
0.0
  0
VERTEX
  5
130
  8
0
 10
4.4435317379966364
 20
3.0385391468839771
 30
0.0
  0
VERTEX
  5
131
  8
0
 10
4.260932407184554
 20
3.037788867147583
 30
0.0
  0
SEQEND
  5
132
  8
0
  0
POLYLINE
  5
133
  8
0
 66
     1
 10
0.0
 20
0.0
 30
0.0
  0
VERTEX
  5
134
  8
0
 10
4.879913189598482
 20
3.0407899860927041
 30
0.0
  0
VERTEX
  5
135
  8
0
 10
4.7078177750936439
 20
3.0398521364222679
 30
0.0
  0
VERTEX
  5
136
  8
0
 10
4.4433441680621391
 20
3.0385391468839771
 30
0.0
  0
SEQEND
  5
137
  8
0
  0
POLYLINE
  5
138
  8
0
 66
     1
 10
0.0
 20
0.0
 30
0.0
  0
VERTEX
  5
139
  8
0
 10
5.0520086041024106
 20
3.0419154056971811
 30
0.0
  0
VERTEX
  5
13A
  8
0
 10
4.879913189598482
 20
3.0409775560267458
 30
0.0
  0
SEQEND
  5
13B
  8
0
  0
POLYLINE
  5
13C
  8
0
 66
     1
 10
0.0
 20
0.0
 30
0.0
  0
VERTEX
  5
13D
  8
0
 10
5.2255107931123339
 20
3.0422905455652649
 30
0.0
  0
VERTEX
  5
13E
  8
0
 10
5.0518210341688237
 20
3.0417278357629121
 30
0.0
  0
SEQEND
  5
13F
  8
0
  0
POLYLINE
  5
140
  8
0
 66
     1
 10
0.0
 20
0.0
 30
0.0
  0
VERTEX
  5
141
  8
0
 10
5.4012638213316668
 20
3.043415965169515
 30
0.0
  0
VERTEX
  5
142
  8
0
 10
5.2255107931123339
 20
3.042478115499307
 30
0.0
  0
SEQEND
  5
143
  8
0
  0
POLYLINE
  5
144
  8
0
 66
     1
 10
0.0
 20
0.0
 30
0.0
  0
VERTEX
  5
145
  8
0
 10
5.6582346310005951
 20
3.045104094576117
 30
0.0
  0
VERTEX
  5
146
  8
0
 10
5.4014513912652538
 20
3.043415965169515
 30
0.0
  0
SEQEND
  5
147
  8
0
  0
POLYLINE
  5
148
  8
0
 66
     1
 10
0.0
 20
0.0
 30
0.0
  0
VERTEX
  5
149
  8
0
 10
5.8187944945602794
 20
3.0462295141805948
 30
0.0
  0
VERTEX
  5
14A
  8
0
 10
5.6582346310005951
 20
3.0452916645101591
 30
0.0
  0
SEQEND
  5
14B
  8
0
  0
POLYLINE
  5
14C
  8
0
 66
     1
 10
0.0
 20
0.0
 30
0.0
  0
VERTEX
  5
14D
  8
0
 10
5.9674436673067239
 20
3.0467922239827199
 30
0.0
  0
VERTEX
  5
14E
  8
0
 10
5.8186069246257821
 20
3.0460419442465532
 30
0.0
  0
SEQEND
  5
14F
  8
0
  0
POLYLINE
  5
150
  8
0
 66
     1
 10
0.0
 20
0.0
 30
0.0
  0
VERTEX
  5
151
  8
0
 10
6.2966289015903376
 20
3.0490430631914469
 30
0.0
  0
VERTEX
  5
152
  8
0
 10
6.1701129810635393
 20
3.0484803533893219
 30
0.0
  0
VERTEX
  5
153
  8
0
 10
5.9676312372403109
 20
3.0473549337848449
 30
0.0
  0
SEQEND
  5
154
  8
0
  0
POLYLINE
  5
155
  8
0
 66
     1
 10
0.0
 20
0.0
 30
0.0
  0
VERTEX
  5
156
  8
0
 10
6.4207064129741411
 20
3.0499809128618831
 30
0.0
  0
VERTEX
  5
157
  8
0
 10
6.2964413316558421
 20
3.0490430631914469
 30
0.0
  0
SEQEND
  5
158
  8
0
  0
POLYLINE
  5
159
  8
0
 66
     1
 10
0.0
 20
0.0
 30
0.0
  0
VERTEX
  5
15A
  8
0
 10
6.7324476433896052
 20
3.052231752070611
 30
0.0
  0
VERTEX
  5
15B
  8
0
 10
6.6070571424679647
 20
3.0511063324661332
 30
0.0
  0
VERTEX
  5
15C
  8
0
 10
6.4827920611496657
 20
3.0501684827959248
 30
0.0
  0
VERTEX
  5
15D
  8
0
 10
6.4211753378094718
 20
3.049793342927841
 30
0.0
  0
SEQEND
  5
15E
  8
0
  0
POLYLINE
  5
15F
  8
0
 66
     1
 10
0.0
 20
0.0
 30
0.0
  0
VERTEX
  5
160
  8
0
 10
6.9215181369272614
 20
3.0535447416091301
 30
0.0
  0
VERTEX
  5
161
  8
0
 10
6.7954711412357929
 20
3.0526068919386939
 30
0.0
  0
VERTEX
  5
162
  8
0
 10
6.7326352133241008
 20
3.052231752070611
 30
0.0
  0
SEQEND
  5
163
  8
0
  0
POLYLINE
  5
164
  8
0
 66
     1
 10
0.0
 20
0.0
 30
0.0
  0
VERTEX
  5
165
  8
0
 10
7.1722991387723587
 20
3.0556080108838151
 30
0.0
  0
VERTEX
  5
166
  8
0
 10
7.0469086378498096
 20
3.0544825912793381
 30
0.0
  0
VERTEX
  5
167
  8
0
 10
6.9213305669927641
 20
3.053357171675088
 30
0.0
  0
SEQEND
  5
168
  8
0
  0
POLYLINE
  5
169
  8
0
 66
     1
 10
0.0
 20
0.0
 30
0.0
  0
VERTEX
  5
16A
  8
0
 10
7.6229359053631924
 20
3.05898426969702
 30
0.0
  0
VERTEX
  5
16B
  8
0
 10
7.489198542374651
 20
3.057858850092543
 30
0.0
  0
VERTEX
  5
16C
  8
0
 10
7.2343847869469746
 20
3.0559831507518989
 30
0.0
  0
VERTEX
  5
16D
  8
0
 10
7.1719239989033658
 20
3.0557955808178572
 30
0.0
  0
SEQEND
  5
16E
  8
0
  0
POLYLINE
  5
16F
  8
0
 66
     1
 10
0.0
 20
0.0
 30
0.0
  0
VERTEX
  5
170
  8
0
 10
7.6916802861978786
 20
3.059546979499145
 30
0.0
  0
VERTEX
  5
171
  8
0
 10
7.6231234752967794
 20
3.0591718396310621
 30
0.0
  0
SEQEND
  5
172
  8
0
  0
POLYLINE
  5
173
  8
0
 66
     1
 10
0.0
 20
0.0
 30
0.0
  0
VERTEX
  5
174
  8
0
 10
7.6916802861978786
 20
3.059546979499145
 30
0.0
  0
VERTEX
  5
175
  8
0
 10
8.0034215166133436
 20
3.2512434521133851
 30
0.0
  0
SEQEND
  5
176
  8
0
  0
POLYLINE
  5
177
  8
0
 66
     1
 10
0.0
 20
0.0
 30
0.0
  0
VERTEX
  5
178
  8
0
 10
8.0034215166133436
 20
3.2512434521133851
 30
0.0
  0
VERTEX
  5
179
  8
0
 10
8.6718269766533922
 20
3.6627718874517541
 30
0.0
  0
SEQEND
  5
17A
  8
0
  0
POLYLINE
  5
17B
  8
0
 66
     1
 10
0.0
 20
0.0
 30
0.0
  0
VERTEX
  5
17C
  8
0
 10
-8.6712642668517201
 20
3.6627718874517541
 30
0.0
  0
VERTEX
  5
17D
  8
0
 10
-8.6736088910274702
 20
3.6638973070562311
 30
0.0
  0
VERTEX
  5
17E
  8
0
 10
-8.6756721603023834
 20
3.6644600168583561
 30
0.0
  0
VERTEX
  5
17F
  8
0
 10
-8.6776416446100484
 20
3.665397866528564
 30
0.0
  0
VERTEX
  5
180
  8
0
 10
-8.6793297740168782
 20
3.6665232861330419
 30
0.0
  0
VERTEX
  5
181
  8
0
 10
-8.6809241184564598
 20
3.6676487057375189
 30
0.0
  0
VERTEX
  5
182
  8
0
 10
-8.6822371079942968
 20
3.6687741253417689
 30
0.0
  0
VERTEX
  5
183
  8
0
 10
-8.6833625275985469
 20
3.6702746848143302
 30
0.0
  0
VERTEX
  5
184
  8
0
 10
-8.6844879472037064
 20
3.6717752442868909
 30
0.0
  0
VERTEX
  5
185
  8
0
 10
-8.6855195818407083
 20
3.6730882338254101
 30
0.0
  0
VERTEX
  5
186
  8
0
 10
-8.6866450014449583
 20
3.6745887932979708
 30
0.0
  0
VERTEX
  5
187
  8
0
 10
-8.6872077112475381
 20
3.676464492638388
 30
0.0
  0
VERTEX
  5
188
  8
0
 10
-8.6877704210492084
 20
3.6779650521109479
 30
0.0
  0
VERTEX
  5
189
  8
0
 10
-8.6879579909837048
 20
3.6800283213856342
 30
0.0
  0
VERTEX
  5
18A
  8
0
 10
-8.6883331308517882
 20
3.6820915906605469
 30
0.0
  0
VERTEX
  5
18B
  8
0
 10
-8.6883331308517882
 20
3.6882813984846048
 30
0.0
  0
VERTEX
  5
18C
  8
0
 10
-8.6877704210492084
 20
3.6907198076273739
 30
0.0
  0
VERTEX
  5
18D
  8
0
 10
-8.687395281181125
 20
3.69315821677037
 30
0.0
  0
VERTEX
  5
18E
  8
0
 10
-8.6868325713794547
 20
3.6957841958471809
 30
0.0
  0
VERTEX
  5
18F
  8
0
 10
-8.686082291643288
 20
3.69822260498995
 30
0.0
  0
VERTEX
  5
190
  8
0
 10
-8.6855195818407083
 20
3.700661014132947
 30
0.0
  0
VERTEX
  5
191
  8
0
 10
-8.68430037726921
 20
3.7036621330778412
 30
0.0
  0
VERTEX
  5
192
  8
0
 10
-8.6833625275985469
 20
3.706288112154879
 30
0.0
  0
VERTEX
  5
193
  8
0
 10
-8.6822371079942968
 20
3.7089140912316898
 30
0.0
  0
VERTEX
  5
194
  8
0
 10
-8.6809241184564598
 20
3.712102780110853
 30
0.0
  0
VERTEX
  5
195
  8
0
 10
-8.6793297740168782
 20
3.715103899055975
 30
0.0
  0
VERTEX
  5
196
  8
0
 10
-8.6776416446100484
 20
3.7182925879349109
 30
0.0
  0
VERTEX
  5
197
  8
0
 10
-8.6758597302359703
 20
3.7218564166821571
 30
0.0
  0
VERTEX
  5
198
  8
0
 10
-8.6739840308955536
 20
3.725232675495362
 30
0.0
  0
VERTEX
  5
199
  8
0
 10
-8.6718269766543017
 20
3.7291716441106919
 30
0.0
  0
VERTEX
  5
19A
  8
0
 10
-8.6692009975768087
 20
3.7329230427919811
 30
0.0
  0
VERTEX
  5
19B
  8
0
 10
-8.6666688034674735
 20
3.737424721209663
 30
0.0
  0
VERTEX
  5
19C
  8
0
 10
-8.6631987596865656
 20
3.7419263996271179
 30
0.0
  0
VERTEX
  5
19D
  8
0
 10
-8.6599162858410637
 20
3.7473659277150091
 30
0.0
  0
VERTEX
  5
19E
  8
0
 10
-8.6562586721265689
 20
3.7528054558028989
 30
0.0
  0
SEQEND
  5
19F
  8
0
  0
POLYLINE
  5
1A0
  8
0
 66
     1
 10
0.0
 20
0.0
 30
0.0
  0
VERTEX
  5
1A1
  8
0
 10
0.4433215391618433
 20
-7.9907605460639379
 30
0.0
  0
VERTEX
  5
1A2
  8
0
 10
0.4431339692282564
 20
-7.9948870846135369
 30
0.0
  0
VERTEX
  5
1A3
  8
0
 10
0.4422899045248414
 20
-7.9995763329650336
 30
0.0
  0
VERTEX
  5
1A4
  8
0
 10
0.4413520548541783
 20
-8.0040780113827168
 30
0.0
  0
VERTEX
  5
1A5
  8
0
 10
0.4400390653163413
 20
-8.0089548296682551
 30
0.0
  0
VERTEX
  5
1A6
  8
0
 10
0.4382571509422633
 20
-8.0136440780199791
 30
0.0
  0
VERTEX
  5
1A7
  8
0
 10
0.4360063117337632
 20
-8.0181457564376615
 30
0.0
  0
VERTEX
  5
1A8
  8
0
 10
0.4332865476899315
 20
-8.0228350047891581
 30
0.0
  0
VERTEX
  5
1A9
  8
0
 10
0.4303792137116034
 20
-8.0273366832066131
 30
0.0
  0
VERTEX
  5
1AA
  8
0
 10
0.4265340300635217
 20
-8.0320259315583371
 30
0.0
  0
VERTEX
  5
1AB
  8
0
 10
0.4227826313817787
 20
-8.0365276099760194
 30
0.0
  0
VERTEX
  5
1AC
  8
0
 10
0.4184685228983654
 20
-8.0412168583275161
 30
0.0
  0
VERTEX
  5
1AD
  8
0
 10
0.4136854895796205
 20
-8.0459061066790127
 30
0.0
  0
VERTEX
  5
1AE
  8
0
 10
0.4089024562608757
 20
-8.0502202151626534
 30
0.0
  0
VERTEX
  5
1AF
  8
0
 10
0.4033691432059641
 20
-8.0547218935801084
 30
0.0
  0
VERTEX
  5
1B0
  8
0
 10
0.3975544752502174
 20
-8.0592235719977907
 30
0.0
  0
VERTEX
  5
1B1
  8
0
 10
0.3910833125246427
 20
-8.0637252504152457
 30
0.0
  0
VERTEX
  5
1B2
  8
0
 10
0.3847059347672257
 20
-8.0676642190305756
 30
0.0
  0
VERTEX
  5
1B3
  8
0
 10
0.3773907073382361
 20
-8.0719783275142163
 30
0.0
  0
VERTEX
  5
1B4
  8
0
 10
0.370075479910156
 20
-8.0762924359976296
 30
0.0
  0
VERTEX
  5
1B5
  8
0
 10
0.362385112613083
 20
-8.0802314046129595
 30
0.0
  0
VERTEX
  5
1B6
  8
0
 10
0.3543196054479267
 20
-8.0843579431625585
 30
0.0
  0
VERTEX
  5
1B7
  8
0
 10
0.3460665283491835
 20
-8.0881093418438468
 30
0.0
  0
VERTEX
  5
1B8
  8
0
 10
0.33725074144877
 20
-8.0920483104591767
 30
0.0
  0
VERTEX
  5
1B9
  8
0
 10
0.3282473846129505
 20
-8.0957997091404632
 30
0.0
  0
VERTEX
  5
1BA
  8
0
 10
0.3188688879099573
 20
-8.0993635378877116
 30
0.0
  0
VERTEX
  5
1BB
  8
0
 10
0.3093966062397158
 20
-8.1029273666349582
 30
0.0
  0
VERTEX
  5
1BC
  8
0
 10
0.2994553997341427
 20
-8.1063036254479357
 30
0.0
  0
VERTEX
  5
1BD
  8
0
 10
0.2784475671187465
 20
-8.1130561430743455
 30
0.0
  0
VERTEX
  5
1BE
  8
0
 10
0.2679436508115032
 20
-8.1160572620194671
 30
0.0
  0
VERTEX
  5
1BF
  8
0
 10
0.2567832397344318
 20
-8.1190583809643613
 30
0.0
  0
VERTEX
  5
1C0
  8
0
 10
0.2456228286573605
 20
-8.1220594999094828
 30
0.0
  0
VERTEX
  5
1C1
  8
0
 10
0.2338997077786189
 20
-8.1244979090522502
 30
0.0
  0
VERTEX
  5
1C2
  8
0
 10
0.2223641568334642
 20
-8.1271238881292902
 30
0.0
  0
VERTEX
  5
1C3
  8
0
 10
0.2102658960866393
 20
-8.129749867206101
 30
0.0
  0
VERTEX
  5
1C4
  8
0
 10
0.1983552052734012
 20
-8.1320007064148285
 30
0.0
  0
VERTEX
  5
1C5
  8
0
 10
0.1856942347239965
 20
-8.1344391155578251
 30
0.0
  0
VERTEX
  5
1C6
  8
0
 10
0.1732208341090882
 20
-8.1363148148984692
 30
0.0
  0
VERTEX
  5
1C7
  8
0
 10
0.1478988930102787
 20
-8.1400662135797575
 30
0.0
  0
VERTEX
  5
1C8
  8
0
 10
0.1348627825927906
 20
-8.1417543429863581
 30
0.0
  0
VERTEX
  5
1C9
  8
0
 10
0.1217328872080543
 20
-8.1430673325246516
 30
0.0
  0
VERTEX
  5
1CA
  8
0
 10
0.1085092068560698
 20
-8.1445678919972124
 30
0.0
  0
VERTEX
  5
1CB
  8
0
 10
0.0952855265049948
 20
-8.1456933116016899
 30
0.0
  0
VERTEX
  5
1CC
  8
0
 10
0.0817804912521751
 20
-8.1464435913378566
 30
0.0
  0
VERTEX
  5
1CD
  8
0
 10
0.0549579906810323
 20
-8.1483192906785007
 30
0.0
  0
VERTEX
  5
1CE
  8
0
 10
0.0410778155601293
 20
-8.1485068606125424
 30
0.0
  0
VERTEX
  5
1CF
  8
0
 10
0.0274789953400614
 20
-8.1490695704148948
 30
0.0
  0
VERTEX
  5
1D0
  8
0
 10
0.0137863901536548
 20
-8.1496322802170198
 30
0.0
  0
VERTEX
  5
1D1
  8
0
 10
0.0003751398680834
 20
-8.1496322802170198
 30
0.0
  0
SEQEND
  5
1D2
  8
0
  0
POLYLINE
  5
1D3
  8
0
 66
     1
 10
0.0
 20
0.0
 30
0.0
  0
VERTEX
  5
1D4
  8
0
 10
8.6716394067198053
 20
3.6627718874517541
 30
0.0
  0
VERTEX
  5
1D5
  8
0
 10
8.6739840308955536
 20
3.6638973070562311
 30
0.0
  0
VERTEX
  5
1D6
  8
0
 10
8.6760473001695573
 20
3.6644600168583561
 30
0.0
  0
VERTEX
  5
1D7
  8
0
 10
8.6780167844772222
 20
3.665397866528564
 30
0.0
  0
VERTEX
  5
1D8
  8
0
 10
8.6795173439504651
 20
3.6665232861330419
 30
0.0
  0
VERTEX
  5
1D9
  8
0
 10
8.6813930432908801
 20
3.6676487057375189
 30
0.0
  0
VERTEX
  5
1DA
  8
0
 10
8.6827998177959671
 20
3.6687741253417689
 30
0.0
  0
VERTEX
  5
1DB
  8
0
 10
8.6841128073347136
 20
3.6702746848143302
 30
0.0
  0
VERTEX
  5
1DC
  8
0
 10
8.6850506570053767
 20
3.6717752442868909
 30
0.0
  0
VERTEX
  5
1DD
  8
0
 10
8.6860822916423786
 20
3.6730882338254101
 30
0.0
  0
VERTEX
  5
1DE
  8
0
 10
8.6870201413130417
 20
3.6745887932979708
 30
0.0
  0
VERTEX
  5
1DF
  8
0
 10
8.687395281181125
 20
3.676464492638388
 30
0.0
  0
VERTEX
  5
1E0
  8
0
 10
8.6881455609172917
 20
3.6779650521109479
 30
0.0
  0
VERTEX
  5
1E1
  8
0
 10
8.6885207007853751
 20
3.6800283213856342
 30
0.0
  0
VERTEX
  5
1E2
  8
0
 10
8.6885207007853751
 20
3.6820915906605469
 30
0.0
  0
VERTEX
  5
1E3
  8
0
 10
8.688708270718962
 20
3.6841548599352332
 30
0.0
  0
VERTEX
  5
1E4
  8
0
 10
8.688708270718962
 20
3.6860305592758769
 30
0.0
  0
VERTEX
  5
1E5
  8
0
 10
8.6885207007853751
 20
3.6882813984846048
 30
0.0
  0
VERTEX
  5
1E6
  8
0
 10
8.6883331308508787
 20
3.6907198076273739
 30
0.0
  0
VERTEX
  5
1E7
  8
0
 10
8.6877704210492084
 20
3.69315821677037
 30
0.0
  0
VERTEX
  5
1E8
  8
0
 10
8.687395281181125
 20
3.6957841958471809
 30
0.0
  0
VERTEX
  5
1E9
  8
0
 10
8.6864574315104601
 20
3.69822260498995
 30
0.0
  0
VERTEX
  5
1EA
  8
0
 10
8.6856133668070452
 20
3.700661014132947
 30
0.0
  0
VERTEX
  5
1EB
  8
0
 10
8.6848630870708803
 20
3.7036621330778412
 30
0.0
  0
VERTEX
  5
1EC
  8
0
 10
8.6826122478623802
 20
3.7089140912316898
 30
0.0
  0
VERTEX
  5
1ED
  8
0
 10
8.6810179034227986
 20
3.712102780110853
 30
0.0
  0
VERTEX
  5
1EE
  8
0
 10
8.6797049138840521
 20
3.715103899055975
 30
0.0
  0
VERTEX
  5
1EF
  8
0
 10
8.6782043544117187
 20
3.7182925879349109
 30
0.0
  0
VERTEX
  5
1F0
  8
0
 10
8.6762348701040537
 20
3.7218564166821571
 30
0.0
  0
VERTEX
  5
1F1
  8
0
 10
8.6741716008291405
 20
3.725232675495362
 30
0.0
  0
VERTEX
  5
1F2
  8
0
 10
8.6722021165214755
 20
3.7291716441106919
 30
0.0
  0
VERTEX
  5
1F3
  8
0
 10
8.6694823524776439
 20
3.7329230427919811
 30
0.0
  0
VERTEX
  5
1F4
  8
0
 10
8.6668563734010604
 20
3.737424721209663
 30
0.0
  0
VERTEX
  5
1F5
  8
0
 10
8.6637614694891454
 20
3.7419263996271179
 30
0.0
  0
VERTEX
  5
1F6
  8
0
 10
8.6602914257082375
 20
3.7473659277150091
 30
0.0
  0
VERTEX
  5
1F7
  8
0
 10
8.6566338119946522
 20
3.7528054558028989
 30
0.0
  0
SEQEND
  5
1F8
  8
0
  0
POLYLINE
  5
1F9
  8
0
 66
     1
 10
0.0
 20
0.0
 30
0.0
  0
VERTEX
  5
1FA
  8
0
 10
-0.4429463992946694
 20
-7.9907605460639379
 30
0.0
  0
VERTEX
  5
1FB
  8
0
 10
-0.4429463992946694
 20
-7.9900102663277721
 30
0.0
  0
VERTEX
  5
1FC
  8
0
 10
-0.4425712594265861
 20
-7.9853210179762746
 30
0.0
  0
VERTEX
  5
1FD
  8
0
 10
-0.4418209796904194
 20
-7.9806317696245506
 30
0.0
  0
VERTEX
  5
1FE
  8
0
 10
-0.440789345052508
 20
-7.9761300912070956
 30
0.0
  0
VERTEX
  5
1FF
  8
0
 10
-0.4391012156456782
 20
-7.9714408428553716
 30
0.0
  0
VERTEX
  5
200
  8
0
 10
-0.4371317313380132
 20
-7.9669391644379166
 30
0.0
  0
VERTEX
  5
201
  8
0
 10
-0.4346933221959262
 20
-7.9622499160861926
 30
0.0
  0
VERTEX
  5
202
  8
0
 10
-0.4321611280856815
 20
-7.9579358076027802
 30
0.0
  0
VERTEX
  5
203
  8
0
 10
-0.4286910843056831
 20
-7.9536216991191386
 30
0.0
  0
VERTEX
  5
204
  8
0
 10
-0.4252210405256847
 20
-7.9493075906357262
 30
0.0
  0
VERTEX
  5
205
  8
0
 10
-0.4213758568766935
 20
-7.944993482152312
 30
0.0
  0
VERTEX
  5
206
  8
0
 10
-0.416780393492445
 20
-7.940304233800588
 30
0.0
  0
VERTEX
  5
207
  8
0
 10
-0.4121849301081966
 20
-7.9365528351192998
 30
0.0
  0
VERTEX
  5
208
  8
0
 10
-0.4070267569213684
 20
-7.9322387266358874
 30
0.0
  0
VERTEX
  5
209
  8
0
 10
-0.4012120889647122
 20
-7.9281121880862884
 30
0.0
  0
VERTEX
  5
20A
  8
0
 10
-0.3954912059762137
 20
-7.9241732194709584
 30
0.0
  0
VERTEX
  5
20B
  8
0
 10
-0.3893013981514741
 20
-7.9202342508556276
 30
0.0
  0
VERTEX
  5
20C
  8
0
 10
-0.3824550955587256
 20
-7.9162952822402977
 30
0.0
  0
VERTEX
  5
20D
  8
0
 10
-0.3757025779323158
 20
-7.9127314534930511
 30
0.0
  0
VERTEX
  5
20E
  8
0
 10
-0.3681997805697392
 20
-7.9086049149436803
 30
0.0
  0
VERTEX
  5
20F
  8
0
 10
-0.3603218433390793
 20
-7.9052286561304754
 30
0.0
  0
VERTEX
  5
210
  8
0
 10
-0.352256336173923
 20
-7.901664827383228
 30
0.0
  0
VERTEX
  5
211
  8
0
 10
-0.3441908290096762
 20
-7.898288568570023
 30
0.0
  0
VERTEX
  5
212
  8
0
 10
-0.3351874721738568
 20
-7.894912309756819
 30
0.0
  0
VERTEX
  5
213
  8
0
 10
-0.3265592552070302
 20
-7.8915360509438406
 30
0.0
  0
VERTEX
  5
214
  8
0
 10
-0.3170869735367887
 20
-7.8887225019327607
 30
0.0
  0
VERTEX
  5
215
  8
0
 10
-0.307520906899299
 20
-7.8855338130535984
 30
0.0
  0
VERTEX
  5
216
  8
0
 10
-0.2977672703282224
 20
-7.882720264042745
 30
0.0
  0
VERTEX
  5
217
  8
0
 10
-0.2875447089218141
 20
-7.8797191450976243
 30
0.0
  0
VERTEX
  5
218
  8
0
 10
-0.2767594377128262
 20
-7.8767180261525018
 30
0.0
  0
VERTEX
  5
219
  8
0
 10
-0.2660679514710864
 20
-7.8742796170097327
 30
0.0
  0
VERTEX
  5
21A
  8
0
 10
-0.2550951103285115
 20
-7.8718412078669644
 30
0.0
  0
VERTEX
  5
21B
  8
0
 10
-0.2441222691859366
 20
-7.869590368658236
 30
0.0
  0
VERTEX
  5
21C
  8
0
 10
-0.2210511672956272
 20
-7.864901120306512
 30
0.0
  0
VERTEX
  5
21D
  8
0
 10
-0.2091404764823892
 20
-7.8628378510318271
 30
0.0
  0
VERTEX
  5
21E
  8
0
 10
-0.1970422157355642
 20
-7.8609621516911821
 30
0.0
  0
VERTEX
  5
21F
  8
0
 10
-0.1845688151197464
 20
-7.8590864523505379
 30
0.0
  0
VERTEX
  5
220
  8
0
 10
-0.172282984438425
 20
-7.8572107530098938
 30
0.0
  0
VERTEX
  5
221
  8
0
 10
-0.1596220138890203
 20
-7.855710193537333
 30
0.0
  0
VERTEX
  5
222
  8
0
 10
-0.1469610433396156
 20
-7.8543972039988139
 30
0.0
  0
VERTEX
  5
223
  8
0
 10
-0.1339249329221275
 20
-7.8527090745924388
 30
0.0
  0
VERTEX
  5
224
  8
0
 10
-0.1207950375383007
 20
-7.8515836549879623
 30
0.0
  0
VERTEX
  5
225
  8
0
 10
-0.1079464970543995
 20
-7.850458235383484
 30
0.0
  0
VERTEX
  5
226
  8
0
 10
-0.0945352467688281
 20
-7.8497079556473182
 30
0.0
  0
VERTEX
  5
227
  8
0
 10
-0.0812177814505049
 20
-7.8489576759111506
 30
0.0
  0
VERTEX
  5
228
  8
0
 10
-0.067618961230437
 20
-7.8480198262407148
 30
0.0
  0
VERTEX
  5
229
  8
0
 10
-0.054395280879362
 20
-7.8476446863726323
 30
0.0
  0
VERTEX
  5
22A
  8
0
 10
-0.040515105758459
 20
-7.8470819765702791
 30
0.0
  0
VERTEX
  5
22B
  8
0
 10
-0.0269162855383911
 20
-7.8467068367021957
 30
0.0
  0
VERTEX
  5
22C
  8
0
 10
0.0003751398680834
 20
-7.8467068367021957
 30
0.0
  0
SEQEND
  5
22D
  8
0
  0
POLYLINE
  5
22E
  8
0
 66
     1
 10
0.0
 20
0.0
 30
0.0
  0
VERTEX
  5
22F
  8
0
 10
-8.0028588068116733
 20
3.2512434521133851
 30
0.0
  0
VERTEX
  5
230
  8
0
 10
-8.6712642668517201
 20
3.6627718874517541
 30
0.0
  0
SEQEND
  5
231
  8
0
  0
POLYLINE
  5
232
  8
0
 66
     1
 10
0.0
 20
0.0
 30
0.0
  0
VERTEX
  5
233
  8
0
 10
-7.6909300064617119
 20
3.059546979499145
 30
0.0
  0
VERTEX
  5
234
  8
0
 10
-8.0030463767452602
 20
3.2512434521133851
 30
0.0
  0
SEQEND
  5
235
  8
0
  0
POLYLINE
  5
236
  8
0
 66
     1
 10
0.0
 20
0.0
 30
0.0
  0
VERTEX
  5
237
  8
0
 10
0.0003751398680834
 20
-6.190089179041478
 30
0.0
  0
VERTEX
  5
238
  8
0
 10
-0.1496808073843567
 20
-6.1889637594370006
 30
0.0
  0
VERTEX
  5
239
  8
0
 10
-0.2990802598669688
 20
-6.1857750705578383
 30
0.0
  0
VERTEX
  5
23A
  8
0
 10
-0.4486672822831679
 20
-6.1808982522722991
 30
0.0
  0
VERTEX
  5
23B
  8
0
 10
-0.5979729497994413
 20
-6.1739581647118484
 30
0.0
  0
VERTEX
  5
23C
  8
0
 10
-0.7468096924794736
 20
-6.1649548078767111
 30
0.0
  0
VERTEX
  5
23D
  8
0
 10
-0.8956464351595059
 20
-6.1535130418988038
 30
0.0
  0
VERTEX
  5
23E
  8
0
 10
-1.043732898104281
 20
-6.1407582863823791
 30
0.0
  0
VERTEX
  5
23F
  8
0
 10
-1.191256651246476
 20
-6.1253775517889153
 30
0.0
  0
VERTEX
  5
240
  8
0
 10
-1.3382176945860911
 20
-6.1084962577231181
 30
0.0
  0
VERTEX
  5
241
  8
0
 10
-1.484522243156789
 20
-6.0893641244485934
 30
0.0
  0
VERTEX
  5
242
  8
0
 10
-1.629982727024071
 20
-6.0689190016355488
 30
0.0
  0
VERTEX
  5
243
  8
0
 10
-1.7749742860560209
 20
-6.0460354696795093
 30
0.0
  0
VERTEX
  5
244
  8
0
 10
-1.9190279954182179
 20
-6.0210886684490097
 30
0.0
  0
VERTEX
  5
245
  8
0
 10
-2.0625189949778351
 20
-5.994453737811682
 30
0.0
  0
VERTEX
  5
246
  8
0
 10
-2.2049783598995409
 20
-5.9661306777679783
 30
0.0
  0
VERTEX
  5
247
  8
0
 10
-2.3465936601187418
 20
-5.9361194883176722
 30
0.0
  0
VERTEX
  5
248
  8
0
 10
-2.4871773257000309
 20
-5.904045029592452
 30
0.0
  0
VERTEX
  5
249
  8
0
 10
-2.626635571677979
 20
-5.8702824414608576
 30
0.0
  0
VERTEX
  5
24A
  8
0
 10
-2.7644994732154369
 20
-5.8346441539883918
 30
0.0
  0
VERTEX
  5
24B
  8
0
 10
-2.9012379551486438
 20
-5.7978804469116758
 30
0.0
  0
VERTEX
  5
24C
  8
0
 10
-3.037038587411188
 20
-5.7590534705602741
 30
0.0
  0
VERTEX
  5
24D
  8
0
 10
-3.1711510902678119
 20
-5.7187259347363124
 30
0.0
  0
VERTEX
  5
24E
  8
0
 10
-3.304044388552938
 20
-5.6767102695057474
 30
0.0
  0
VERTEX
  5
24F
  8
0
 10
-3.4356246972993172
 20
-5.6330064748688073
 30
0.0
  0
VERTEX
  5
250
  8
0
 10
-3.5657982315406112
 20
-5.5876145508250374
 30
0.0
  0
VERTEX
  5
251
  8
0
 10
-3.6944712063086622
 20
-5.5410972071770166
 30
0.0
  0
VERTEX
  5
252
  8
0
 10
-3.8214560516707929
 20
-5.4930793040564359
 30
0.0
  0
VERTEX
  5
253
  8
0
 10
-3.9471279074941772
 20
-5.4435608414632952
 30
0.0
  0
VERTEX
  5
254
  8
0
 10
-4.0707364940426478
 20
-5.3929169592656763
 30
0.0
  0
VERTEX
  5
255
  8
0
 10
-4.1929383060860337
 20
-5.340772517595723
 30
0.0
  0
VERTEX
  5
256
  8
0
 10
-4.3131706338217546
 20
-5.2876902262553349
 30
0.0
  0
VERTEX
  5
257
  8
0
 10
-4.4315272622170587
 20
-5.233107375442386
 30
0.0
  0
VERTEX
  5
258
  8
0
 10
-4.5484771161063691
 20
-5.1772115350911463
 30
0.0
  0
VERTEX
  5
259
  8
0
 10
-4.6633637007207653
 20
-5.1207529849375533
 30
0.0
  0
VERTEX
  5
25A
  8
0
 10
-4.7762808010274957
 20
-5.0627938753116259
 30
0.0
  0
VERTEX
  5
25B
  8
0
 10
-4.887697341862804
 20
-5.003521776146953
 30
0.0
  0
VERTEX
  5
25C
  8
0
 10
-4.9969568284550396
 20
-4.943874537114425
 30
0.0
  0
VERTEX
  5
25D
  8
0
 10
-5.10490332550944
 20
-4.8827267386093354
 30
0.0
  0
VERTEX
  5
25E
  8
0
 10
-5.2105051983880912
 20
-4.8208286603678507
 30
0.0
  0
VERTEX
  5
25F
  8
0
 10
-5.3144189418599117
 20
-4.7579927324561586
 30
0.0
  0
VERTEX
  5
260
  8
0
 10
-5.4162694160568199
 20
-4.6945940947421141
 30
0.0
  0
VERTEX
  5
261
  8
0
 10
-5.5159628360124771
 20
-4.6302576073580886
 30
0.0
  0
VERTEX
  5
262
  8
0
 10
-5.6140619115285508
 20
-4.5651708402374416
 30
0.0
  0
VERTEX
  5
263
  8
0
 10
-5.7100977177697132
 20
-4.4989586535125454
 30
0.0
  0
VERTEX
  5
264
  8
0
 10
-5.8040702547359606
 20
-4.4325588968536058
 30
0.0
  0
VERTEX
  5
265
  8
0
 10
-5.8964484472635368
 20
-4.3654088604585013
 30
0.0
  0
VERTEX
  5
266
  8
0
 10
-5.9866695855480421
 20
-4.2976961142610426
 30
0.0
  0
VERTEX
  5
267
  8
0
 10
-6.0748274545585437
 20
-4.2294206582614597
 30
0.0
  0
VERTEX
  5
268
  8
0
 10
-6.1612971941631249
 20
-4.1603949225254828
 30
0.0
  0
VERTEX
  5
269
  8
0
 10
-6.2457974494591317
 20
-4.0908064769873809
 30
0.0
  0
VERTEX
  5
26A
  8
0
 10
-6.3282344354802262
 20
-4.0210304615152381
 30
0.0
  0
VERTEX
  5
26B
  8
0
 10
-6.4088895071281513
 20
-3.9503165963728861
 30
0.0
  0
VERTEX
  5
26C
  8
0
 10
-6.4875750944684114
 20
-3.8794151612962651
 30
0.0
  0
VERTEX
  5
26D
  8
0
 10
-6.564666337369089
 20
-3.8085137262198709
 30
0.0
  0
VERTEX
  5
26E
  8
0
 10
-6.6395067410612683
 20
-3.7366744414730411
 30
0.0
  0
VERTEX
  5
26F
  8
0
 10
-6.712752800313865
 20
-3.6648351567262121
 30
0.0
  0
VERTEX
  5
270
  8
0
 10
-6.7837480203570522
 20
-3.592808302045341
 30
0.0
  0
VERTEX
  5
271
  8
0
 10
-6.8529613260270699
 20
-3.5204063074961591
 30
0.0
  0
VERTEX
  5
272
  8
0
 10
-6.9207678571910938
 20
-3.4476291730791209
 30
0.0
  0
VERTEX
  5
273
  8
0
 10
-6.9862297641802789
 20
-3.3750396085958978
 30
0.0
  0
VERTEX
  5
274
  8
0
 10
-7.050191111696221
 20
-3.3018873343105488
 30
0.0
  0
VERTEX
  5
275
  8
0
 10
-7.1124643298053343
 20
-3.228547490091386
 30
0.0
  0
VERTEX
  5
276
  8
0
 10
-7.1729556335412781
 20
-3.1546449360696438
 30
0.0
  0
VERTEX
  5
277
  8
0
 10
-7.2318525928376403
 20
-3.0811175219162119
 30
0.0
  0
VERTEX
  5
278
  8
0
 10
-7.2891552076944199
 20
-3.007027397960655
 30
0.0
  0
VERTEX
  5
279
  8
0
 10
-7.3444883382435364
 20
-2.9329372740050981
 30
0.0
  0
VERTEX
  5
27A
  8
0
 10
-7.398227124353979
 20
-2.8586595801152721
 30
0.0
  0
VERTEX
  5
27B
  8
0
 10
-7.450277781056684
 20
-2.7843818862256731
 30
0.0
  0
VERTEX
  5
27C
  8
0
 10
-7.5006403083525583
 20
-2.7101041923360749
 30
0.0
  0
VERTEX
  5
27D
  8
0
 10
-7.5495960611442561
 20
-2.6358264984462489
 30
0.0
  0
VERTEX
  5
27E
  8
0
 10
-7.5966761145946293
 20
-2.5613612346226091
 30
0.0
  0
VERTEX
  5
27F
  8
0
 10
-7.6421618236045097
 20
-2.486895970798741
 30
0.0
  0
VERTEX
  5
280
  8
0
 10
-7.6859594032093801
 20
-2.412618276909142
 30
0.0
  0
VERTEX
  5
281
  8
0
 10
-7.7286315632090909
 20
-2.3381530130855022
 30
0.0
  0
VERTEX
  5
282
  8
0
 10
-7.7693342389011368
 20
-2.2636877492616341
 30
0.0
  0
VERTEX
  5
283
  8
0
 10
-7.8087239250544371
 20
-2.1888473455696831
 30
0.0
  0
VERTEX
  5
284
  8
0
 10
-7.846519266768154
 20
-2.114194511812002
 30
0.0
  0
VERTEX
  5
285
  8
0
 10
-7.8830016189440348
 20
-2.0397292479881339
 30
0.0
  0
VERTEX
  5
286
  8
0
 10
-7.9179834116475831
 20
-1.9648888442961829
 30
0.0
  0
VERTEX
  5
287
  8
0
 10
-7.9515584298451349
 20
-1.8900484406044591
 30
0.0
  0
VERTEX
  5
288
  8
0
 10
-7.9840080284384376
 20
-1.8155831767805919
 30
0.0
  0
VERTEX
  5
289
  8
0
 10
-8.0143943577568262
 20
-1.740742773088868
 30
0.0
  0
VERTEX
  5
28A
  8
0
 10
-8.0437490524382156
 20
-1.665902369396917
 30
0.0
  0
VERTEX
  5
28B
  8
0
 10
-8.0716031876463603
 20
-1.591437105573277
 30
0.0
  0
VERTEX
  5
28C
  8
0
 10
-8.0983319032502532
 20
-1.516784271815367
 30
0.0
  0
VERTEX
  5
28D
  8
0
 10
-8.1234662744154775
 20
-1.441943868123416
 30
0.0
  0
VERTEX
  5
28E
  8
0
 10
-8.1471000861074572
 20
-1.3676661742338181
 30
0.0
  0
VERTEX
  5
28F
  8
0
 10
-8.1697960481296832
 20
-1.29320091040995
 30
0.0
  0
VERTEX
  5
290
  8
0
 10
-8.1907100957778312
 20
-1.2185480766522681
 30
0.0
  0
VERTEX
  5
291
  8
0
 10
-8.2104987238217291
 20
-1.143895242894359
 30
0.0
  0
VERTEX
  5
292
  8
0
 10
-8.2293495021949639
 20
-1.069242409136677
 30
0.0
  0
VERTEX
  5
293
  8
0
 10
-8.2464183661950301
 20
-0.9949647152468514
 30
0.0
  0
VERTEX
  5
294
  8
0
 10
-8.2621742406563499
 20
-0.9204994514232112
 30
0.0
  0
VERTEX
  5
295
  8
0
 10
-8.2768046955134196
 20
-0.8458466176653018
 30
0.0
  0
VERTEX
  5
296
  8
0
 10
-8.2900283758644946
 20
-0.77119378390762
 30
0.0
  0
VERTEX
  5
297
  8
0
 10
-8.302126636612229
 20
-0.6965409501497107
 30
0.0
  0
VERTEX
  5
298
  8
0
 10
-8.312911907821217
 20
-0.6222632562601121
 30
0.0
  0
VERTEX
  5
299
  8
0
 10
-8.3226655443922937
 20
-0.5479855623702861
 30
0.0
  0
VERTEX
  5
29A
  8
0
 10
-8.3307310515574482
 20
-0.4731451586785625
 30
0.0
  0
VERTEX
  5
29B
  8
0
 10
-8.3380462789855301
 20
-0.3981171850525698
 30
0.0
  0
VERTEX
  5
29C
  8
0
 10
-8.3437671619749381
 20
-0.3227140715584937
 30
0.0
  0
VERTEX
  5
29D
  8
0
 10
-8.3481750554246901
 20
-0.2467482482620653
 30
0.0
  0
VERTEX
  5
29E
  8
0
 10
-8.3516450992055962
 20
-0.1705948550318226
 30
0.0
  0
VERTEX
  5
29F
  8
0
 10
-8.3534270135787665
 20
-0.0940663219334965
 30
0.0
  0
VERTEX
  5
2A0
  8
0
 10
-8.3541772933149332
 20
-0.0171626489668597
 30
0.0
  0
SEQEND
  5
2A1
  8
0
  0
POLYLINE
  5
2A2
  8
0
 66
     1
 10
0.0
 20
0.0
 30
0.0
  0
VERTEX
  5
2A3
  8
0
 10
0.0003751398680834
 20
-6.190089179041478
 30
0.0
  0
VERTEX
  5
2A4
  8
0
 10
0.1497745923506955
 20
-6.1889637594370006
 30
0.0
  0
VERTEX
  5
2A5
  8
0
 10
0.2994553997341427
 20
-6.1857750705578383
 30
0.0
  0
VERTEX
  5
2A6
  8
0
 10
0.4490424221512513
 20
-6.1808982522722991
 30
0.0
  0
VERTEX
  5
2A7
  8
0
 10
0.598254304699367
 20
-6.1739581647118484
 30
0.0
  0
VERTEX
  5
2A8
  8
0
 10
0.7473724022811439
 20
-6.1649548078767111
 30
0.0
  0
VERTEX
  5
2A9
  8
0
 10
0.8960215750275892
 20
-6.1535130418988038
 30
0.0
  0
VERTEX
  5
2AA
  8
0
 10
1.0439204680378671
 20
-6.1407582863823791
 30
0.0
  0
VERTEX
  5
2AB
  8
0
 10
1.1914442211800631
 20
-6.1253775517889153
 30
0.0
  0
VERTEX
  5
2AC
  8
0
 10
1.3384990494869271
 20
-6.1084962577231181
 30
0.0
  0
VERTEX
  5
2AD
  8
0
 10
1.4847098130903751
 20
-6.0893641244485934
 30
0.0
  0
VERTEX
  5
2AE
  8
0
 10
1.6302640819249059
 20
-6.0689190016355488
 30
0.0
  0
VERTEX
  5
2AF
  8
0
 10
1.7753494259241049
 20
-6.0460354696795093
 30
0.0
  0
VERTEX
  5
2B0
  8
0
 10
1.9195907052198891
 20
-6.0210886684490097
 30
0.0
  0
VERTEX
  5
2B1
  8
0
 10
2.062987919812258
 20
-5.994453737811682
 30
0.0
  0
VERTEX
  5
2B2
  8
0
 10
2.2053534997676252
 20
-5.9661306777679783
 30
0.0
  0
VERTEX
  5
2B3
  8
0
 10
2.346875015019577
 20
-5.9361194883176722
 30
0.0
  0
VERTEX
  5
2B4
  8
0
 10
2.4875524655681138
 20
-5.904045029592452
 30
0.0
  0
VERTEX
  5
2B5
  8
0
 10
2.6269169265779051
 20
-5.8702824414608576
 30
0.0
  0
VERTEX
  5
2B6
  8
0
 10
2.7650621830171072
 20
-5.8346441539883918
 30
0.0
  0
VERTEX
  5
2B7
  8
0
 10
2.9016130950158181
 20
-5.7978804469116758
 30
0.0
  0
VERTEX
  5
2B8
  8
0
 10
3.0374137272792718
 20
-5.7590534705602741
 30
0.0
  0
VERTEX
  5
2B9
  8
0
 10
3.1714324451686471
 20
-5.7187259347363124
 30
0.0
  0
VERTEX
  5
2BA
  8
0
 10
3.304231958486525
 20
-5.6767102695057474
 30
0.0
  0
VERTEX
  5
2BB
  8
0
 10
3.4359060522001519
 20
-5.6330064748688073
 30
0.0
  0
VERTEX
  5
2BC
  8
0
 10
3.5659858014741981
 20
-5.5876145508250374
 30
0.0
  0
VERTEX
  5
2BD
  8
0
 10
3.6946587762422491
 20
-5.5410972071770166
 30
0.0
  0
VERTEX
  5
2BE
  8
0
 10
3.8216436216043799
 20
-5.4930793040564359
 30
0.0
  0
VERTEX
  5
2BF
  8
0
 10
3.9474092623950119
 20
-5.4435608414632952
 30
0.0
  0
VERTEX
  5
2C0
  8
0
 10
4.0711116339107321
 20
-5.3929169592656763
 30
0.0
  0
VERTEX
  5
2C1
  8
0
 10
4.193313445954117
 20
-5.340772517595723
 30
0.0
  0
VERTEX
  5
2C2
  8
0
 10
4.3135457736898379
 20
-5.2876902262553349
 30
0.0
  0
VERTEX
  5
2C3
  8
0
 10
4.4319961870514808
 20
-5.233107375442386
 30
0.0
  0
VERTEX
  5
2C4
  8
0
 10
4.548852255973542
 20
-5.1772115350911463
 30
0.0
  0
VERTEX
  5
2C5
  8
0
 10
4.6634574856871041
 20
-5.1207529849375533
 30
0.0
  0
VERTEX
  5
2C6
  8
0
 10
4.7766559408955791
 20
-5.0627938753116259
 30
0.0
  0
VERTEX
  5
2C7
  8
0
 10
4.8879786967627288
 20
-5.003521776146953
 30
0.0
  0
VERTEX
  5
2C8
  8
0
 10
4.9977071081912072
 20
-4.943874537114425
 30
0.0
  0
VERTEX
  5
2C9
  8
0
 10
5.1052784653775234
 20
-4.8827267386093354
 30
0.0
  0
VERTEX
  5
2CA
  8
0
 10
5.2106927683216782
 20
-4.8208286603678507
 30
0.0
  0
VERTEX
  5
2CB
  8
0
 10
5.3147940817279951
 20
-4.7579927324561586
 30
0.0
  0
VERTEX
  5
2CC
  8
0
 10
5.4166445559249041
 20
-4.6945940947421141
 30
0.0
  0
VERTEX
  5
2CD
  8
0
 10
5.5164317608468991
 20
-4.6302576073580886
 30
0.0
  0
VERTEX
  5
2CE
  8
0
 10
5.6144370513966351
 20
-4.5651708402374416
 30
0.0
  0
VERTEX
  5
2CF
  8
0
 10
5.7104728576377957
 20
-4.4989586535125454
 30
0.0
  0
VERTEX
  5
2D0
  8
0
 10
5.8043516096367958
 20
-4.4325588968536058
 30
0.0
  0
VERTEX
  5
2D1
  8
0
 10
5.8968235871307106
 20
-4.3654088604585013
 30
0.0
  0
VERTEX
  5
2D2
  8
0
 10
5.9870447254161263
 20
-4.2976961142610426
 30
0.0
  0
VERTEX
  5
2D3
  8
0
 10
6.0750150244921306
 20
-4.2294206582614597
 30
0.0
  0
VERTEX
  5
2D4
  8
0
 10
6.1616723340302988
 20
-4.1603949225254828
 30
0.0
  0
VERTEX
  5
2D5
  8
0
 10
6.2461725893263056
 20
-4.0908064769873809
 30
0.0
  0
VERTEX
  5
2D6
  8
0
 10
6.3287033603155569
 20
-4.0210304615152381
 30
0.0
  0
VERTEX
  5
2D7
  8
0
 10
6.4092646469962338
 20
-3.9503165963728861
 30
0.0
  0
VERTEX
  5
2D8
  8
0
 10
6.4879502343364939
 20
-3.8794151612962651
 30
0.0
  0
VERTEX
  5
2D9
  8
0
 10
6.5647601223354277
 20
-3.8085137262198709
 30
0.0
  0
VERTEX
  5
2DA
  8
0
 10
6.6398818809284421
 20
-3.7366744414730411
 30
0.0
  0
VERTEX
  5
2DB
  8
0
 10
6.713127940181038
 20
-3.6648351567262121
 30
0.0
  0
VERTEX
  5
2DC
  8
0
 10
6.7841231602251346
 20
-3.592808302045341
 30
0.0
  0
VERTEX
  5
2DD
  8
0
 10
6.8537116057632366
 20
-3.5204063074961591
 30
0.0
  0
VERTEX
  5
2DE
  8
0
 10
6.9210492120919289
 20
-3.4476291730791209
 30
0.0
  0
VERTEX
  5
2DF
  8
0
 10
6.9869800439155361
 20
-3.3750396085958978
 30
0.0
  0
VERTEX
  5
2E0
  8
0
 10
7.0507538214978922
 20
-3.3018873343105488
 30
0.0
  0
VERTEX
  5
2E1
  8
0
 10
7.1131208245742519
 20
-3.228547490091386
 30
0.0
  0
VERTEX
  5
2E2
  8
0
 10
7.1737059132774439
 20
-3.1546449360696438
 30
0.0
  0
VERTEX
  5
2E3
  8
0
 10
7.2322277327057227
 20
-3.0811175219162119
 30
0.0
  0
VERTEX
  5
2E4
  8
0
 10
7.2893427776280069
 20
-3.007027397960655
 30
0.0
  0
VERTEX
  5
2E5
  8
0
 10
7.3449572630788671
 20
-2.9329372740050981
 30
0.0
  0
VERTEX
  5
2E6
  8
0
 10
7.3987898341556502
 20
-2.8586595801152721
 30
0.0
  0
VERTEX
  5
2E7
  8
0
 10
7.450652920923857
 20
-2.7843818862256731
 30
0.0
  0
VERTEX
  5
2E8
  8
0
 10
7.5009216632533926
 20
-2.7101041923360749
 30
0.0
  0
VERTEX
  5
2E9
  8
0
 10
7.5499712010114299
 20
-2.6358264984462489
 30
0.0
  0
VERTEX
  5
2EA
  8
0
 10
7.596769899560968
 20
-2.5613612346226091
 30
0.0
  0
VERTEX
  5
2EB
  8
0
 10
7.642536963472593
 20
-2.486895970798741
 30
0.0
  0
VERTEX
  5
2EC
  8
0
 10
7.6863345430765539
 20
-2.412618276909142
 30
0.0
  0
VERTEX
  5
2ED
  8
0
 10
7.7289129181090166
 20
-2.3381530130855022
 30
0.0
  0
VERTEX
  5
2EE
  8
0
 10
7.7697093787683107
 20
-2.2636877492616341
 30
0.0
  0
VERTEX
  5
2EF
  8
0
 10
7.8091928498888592
 20
-2.1888473455696831
 30
0.0
  0
VERTEX
  5
2F0
  8
0
 10
7.8470819765707338
 20
-2.114194511812002
 30
0.0
  0
VERTEX
  5
2F1
  8
0
 10
7.883564328745706
 20
-2.0397292479881339
 30
0.0
  0
VERTEX
  5
2F2
  8
0
 10
7.9187336913828403
 20
-1.9648888442961829
 30
0.0
  0
VERTEX
  5
2F3
  8
0
 10
7.9521211396468061
 20
-1.8900484406044591
 30
0.0
  0
VERTEX
  5
2F4
  8
0
 10
7.9843831683056123
 20
-1.8155831767805919
 30
0.0
  0
VERTEX
  5
2F5
  8
0
 10
8.0151446374920852
 20
-1.740742773088868
 30
0.0
  0
VERTEX
  5
2F6
  8
0
 10
8.0441241923053894
 20
-1.665902369396917
 30
0.0
  0
VERTEX
  5
2F7
  8
0
 10
8.0721658974480306
 20
-1.591437105573277
 30
0.0
  0
VERTEX
  5
2F8
  8
0
 10
8.0987070431183383
 20
-1.516784271815367
 30
0.0
  0
VERTEX
  5
2F9
  8
0
 10
8.1238414142826514
 20
-1.441943868123416
 30
0.0
  0
VERTEX
  5
2FA
  8
0
 10
8.1476627959091275
 20
-1.3676661742338181
 30
0.0
  0
VERTEX
  5
2FB
  8
0
 10
8.1699836180632701
 20
-1.29320091040995
 30
0.0
  0
VERTEX
  5
2FC
  8
0
 10
8.1912728055795014
 20
-1.2185480766522681
 30
0.0
  0
VERTEX
  5
2FD
  8
0
 10
8.2108738636889012
 20
-1.143895242894359
 30
0.0
  0
VERTEX
  5
2FE
  8
0
 10
8.2294432871613026
 20
-1.069242409136677
 30
0.0
  0
VERTEX
  5
2FF
  8
0
 10
8.246605936128617
 20
-0.9949647152468514
 30
0.0
  0
VERTEX
  5
300
  8
0
 10
8.2625493805244332
 20
-0.9204994514232112
 30
0.0
  0
VERTEX
  5
301
  8
0
 10
8.2770860504142547
 20
-0.8458466176653018
 30
0.0
  0
VERTEX
  5
302
  8
0
 10
8.2907786556006613
 20
-0.77119378390762
 30
0.0
  0
VERTEX
  5
303
  8
0
 10
8.3025017764794011
 20
-0.6965409501497107
 30
0.0
  0
VERTEX
  5
304
  8
0
 10
8.3133808326556391
 20
-0.6222632562601121
 30
0.0
  0
VERTEX
  5
305
  8
0
 10
8.3228531143258806
 20
-0.5479855623702861
 30
0.0
  0
VERTEX
  5
306
  8
0
 10
8.3314813312927072
 20
-0.4731451586785625
 30
0.0
  0
VERTEX
  5
307
  8
0
 10
8.3384214188536134
 20
-0.3981171850525698
 30
0.0
  0
VERTEX
  5
308
  8
0
 10
8.3441423018421101
 20
-0.3227140715584937
 30
0.0
  0
VERTEX
  5
309
  8
0
 10
8.3487377652263604
 20
-0.2467482482620653
 30
0.0
  0
VERTEX
  5
30A
  8
0
 10
8.3520202390727718
 20
-0.1705948550318226
 30
0.0
  0
VERTEX
  5
30B
  8
0
 10
8.3539897233804368
 20
-0.0940663219334965
 30
0.0
  0
VERTEX
  5
30C
  8
0
 10
8.3547400031166035
 20
-0.0171626489668597
 30
0.0
  0
SEQEND
  5
30D
  8
0
  0
POLYLINE
  5
30E
  8
0
 66
     1
 10
0.0
 20
0.0
 30
0.0
  0
VERTEX
  5
30F
  8
0
 10
0.0003751398680834
 20
-7.8467068367021957
 30
0.0
  0
VERTEX
  5
310
  8
0
 10
0.0274789953400614
 20
-7.8467068367021957
 30
0.0
  0
VERTEX
  5
311
  8
0
 10
0.0410778155601293
 20
-7.8470819765702791
 30
0.0
  0
VERTEX
  5
312
  8
0
 10
0.0547704207465358
 20
-7.8476446863726323
 30
0.0
  0
VERTEX
  5
313
  8
0
 10
0.0679941010985203
 20
-7.8480198262407148
 30
0.0
  0
VERTEX
  5
314
  8
0
 10
0.0815929213176787
 20
-7.8489576759111506
 30
0.0
  0
VERTEX
  5
315
  8
0
 10
0.1081340669879864
 20
-7.850458235383484
 30
0.0
  0
VERTEX
  5
316
  8
0
 10
0.1342062878229626
 20
-7.8527090745924388
 30
0.0
  0
VERTEX
  5
317
  8
0
 10
0.1475237531421953
 20
-7.8543972039988139
 30
0.0
  0
VERTEX
  5
318
  8
0
 10
0.1599971537571037
 20
-7.855710193537333
 30
0.0
  0
VERTEX
  5
319
  8
0
 10
0.1726581243065084
 20
-7.8572107530098938
 30
0.0
  0
VERTEX
  5
31A
  8
0
 10
0.1851315249214167
 20
-7.8590864523505379
 30
0.0
  0
VERTEX
  5
31B
  8
0
 10
0.1972297856691512
 20
-7.8609621516911821
 30
0.0
  0
VERTEX
  5
31C
  8
0
 10
0.2093280464159761
 20
-7.8628378510318271
 30
0.0
  0
VERTEX
  5
31D
  8
0
 10
0.2212387372292142
 20
-7.864901120306512
 30
0.0
  0
VERTEX
  5
31E
  8
0
 10
0.2331494280424522
 20
-7.8671519595152404
 30
0.0
  0
VERTEX
  5
31F
  8
0
 10
0.2444974090531105
 20
-7.869590368658236
 30
0.0
  0
VERTEX
  5
320
  8
0
 10
0.2556578201301818
 20
-7.8718412078669644
 30
0.0
  0
VERTEX
  5
321
  8
0
 10
0.2667244462400049
 20
-7.8742796170097327
 30
0.0
  0
VERTEX
  5
322
  8
0
 10
0.2773221475144965
 20
-7.8767180261525018
 30
0.0
  0
VERTEX
  5
323
  8
0
 10
0.287919848788988
 20
-7.8797191450976243
 30
0.0
  0
VERTEX
  5
324
  8
0
 10
0.2978610552945611
 20
-7.8823451241746616
 30
0.0
  0
VERTEX
  5
325
  8
0
 10
0.3080836167009693
 20
-7.8855338130535984
 30
0.0
  0
VERTEX
  5
326
  8
0
 10
0.3174621134048721
 20
-7.8887225019327607
 30
0.0
  0
VERTEX
  5
327
  8
0
 10
0.3267468251406171
 20
-7.8915360509438406
 30
0.0
  0
VERTEX
  5
328
  8
0
 10
0.3357501819755271
 20
-7.894912309756819
 30
0.0
  0
VERTEX
  5
329
  8
0
 10
0.3445659688768501
 20
-7.898288568570023
 30
0.0
  0
VERTEX
  5
32A
  8
0
 10
0.3530066159100897
 20
-7.901664827383228
 30
0.0
  0
VERTEX
  5
32B
  8
0
 10
0.3608845531407496
 20
-7.9052286561304754
 30
0.0
  0
VERTEX
  5
32C
  8
0
 10
0.3685749204369131
 20
-7.9086049149436803
 30
0.0
  0
VERTEX
  5
32D
  8
0
 10
0.3758901478659027
 20
-7.9127314534930511
 30
0.0
  0
VERTEX
  5
32E
  8
0
 10
0.3828302354258994
 20
-7.9162952822402977
 30
0.0
  0
VERTEX
  5
32F
  8
0
 10
0.389488968085061
 20
-7.9202342508556276
 30
0.0
  0
VERTEX
  5
330
  8
0
 10
0.3960539157778839
 20
-7.9241732194709584
 30
0.0
  0
VERTEX
  5
331
  8
0
 10
0.4017747987663825
 20
-7.9281121880862884
 30
0.0
  0
VERTEX
  5
332
  8
0
 10
0.4074018967885423
 20
-7.9322387266358874
 30
0.0
  0
VERTEX
  5
333
  8
0
 10
0.4123725000417835
 20
-7.9361776952512173
 30
0.0
  0
VERTEX
  5
334
  8
0
 10
0.4171555333596189
 20
-7.940304233800588
 30
0.0
  0
VERTEX
  5
335
  8
0
 10
0.4215634268102804
 20
-7.944993482152312
 30
0.0
  0
VERTEX
  5
336
  8
0
 10
0.425783750327355
 20
-7.9493075906357262
 30
0.0
  0
VERTEX
  5
337
  8
0
 10
0.4292537941073534
 20
-7.9536216991191386
 30
0.0
  0
VERTEX
  5
338
  8
0
 10
0.4325362679537648
 20
-7.9579358076027802
 30
0.0
  0
VERTEX
  5
339
  8
0
 10
0.4352560319975965
 20
-7.9622499160861926
 30
0.0
  0
VERTEX
  5
33A
  8
0
 10
0.4375068712060966
 20
-7.9669391644379166
 30
0.0
  0
VERTEX
  5
33B
  8
0
 10
0.439663925448258
 20
-7.9714408428553716
 30
0.0
  0
VERTEX
  5
33C
  8
0
 10
0.440976914986095
 20
-7.9761300912070956
 30
0.0
  0
VERTEX
  5
33D
  8
0
 10
0.442102334590345
 20
-7.9806317696245506
 30
0.0
  0
VERTEX
  5
33E
  8
0
 10
0.4429463992937599
 20
-7.9853210179762746
 30
0.0
  0
VERTEX
  5
33F
  8
0
 10
0.4433215391618433
 20
-7.9900102663277721
 30
0.0
  0
VERTEX
  5
340
  8
0
 10
0.4433215391618433
 20
-7.9907605460639379
 30
0.0
  0
SEQEND
  5
341
  8
0
  0
POLYLINE
  5
342
  8
0
 66
     1
 10
0.0
 20
0.0
 30
0.0
  0
VERTEX
  5
343
  8
0
 10
0.0003751398680834
 20
-8.1496322802170198
 30
0.0
  0
VERTEX
  5
344
  8
0
 10
-0.0136926051873161
 20
-8.1496322802170198
 30
0.0
  0
VERTEX
  5
345
  8
0
 10
-0.0271038554728875
 20
-8.1490695704148948
 30
0.0
  0
VERTEX
  5
346
  8
0
 10
-0.0407026756920459
 20
-8.1485068606125424
 30
0.0
  0
VERTEX
  5
347
  8
0
 10
-0.054395280879362
 20
-8.148131720744459
 30
0.0
  0
VERTEX
  5
348
  8
0
 10
-0.0679941010985203
 20
-8.1473814410082923
 30
0.0
  0
VERTEX
  5
349
  8
0
 10
-0.0812177814505049
 20
-8.1464435913378566
 30
0.0
  0
VERTEX
  5
34A
  8
0
 10
-0.0949103866369114
 20
-8.1456933116016899
 30
0.0
  0
VERTEX
  5
34B
  8
0
 10
-0.1081340669888959
 20
-8.1445678919972124
 30
0.0
  0
VERTEX
  5
34C
  8
0
 10
-0.121357747339971
 20
-8.1430673325246516
 30
0.0
  0
VERTEX
  5
34D
  8
0
 10
-0.1344876427247073
 20
-8.1417543429863581
 30
0.0
  0
VERTEX
  5
34E
  8
0
 10
-0.1475237531421953
 20
-8.1400662135797575
 30
0.0
  0
VERTEX
  5
34F
  8
0
 10
-0.1601847236916001
 20
-8.1381905142391133
 30
0.0
  0
VERTEX
  5
350
  8
0
 10
-0.1730332641755012
 20
-8.1363148148984692
 30
0.0
  0
VERTEX
  5
351
  8
0
 10
-0.1853190948559131
 20
-8.1344391155578251
 30
0.0
  0
VERTEX
  5
352
  8
0
 10
-0.1978862804389791
 20
-8.1320007064148285
 30
0.0
  0
VERTEX
  5
353
  8
0
 10
-0.2099845411858041
 20
-8.129749867206101
 30
0.0
  0
VERTEX
  5
354
  8
0
 10
-0.2218952319990421
 20
-8.1271238881292902
 30
0.0
  0
VERTEX
  5
355
  8
0
 10
-0.2338059228122802
 20
-8.1244979090522502
 30
0.0
  0
VERTEX
  5
356
  8
0
 10
-0.2452476887901867
 20
-8.1220594999094828
 30
0.0
  0
VERTEX
  5
357
  8
0
 10
-0.2565956698008449
 20
-8.1190583809643613
 30
0.0
  0
VERTEX
  5
358
  8
0
 10
-0.2675685109434198
 20
-8.1160572620194671
 30
0.0
  0
VERTEX
  5
359
  8
0
 10
-0.2783537821524078
 20
-8.1130561430743455
 30
0.0
  0
VERTEX
  5
35A
  8
0
 10
-0.2886701285260642
 20
-8.1096798842611406
 30
0.0
  0
VERTEX
  5
35B
  8
0
 10
-0.2990802598669688
 20
-8.1063036254479357
 30
0.0
  0
VERTEX
  5
35C
  8
0
 10
-0.3088338964380455
 20
-8.1029273666349582
 30
0.0
  0
VERTEX
  5
35D
  8
0
 10
-0.3184937480427834
 20
-8.0993635378877116
 30
0.0
  0
VERTEX
  5
35E
  8
0
 10
-0.3280598146793636
 20
-8.0957997091404632
 30
0.0
  0
VERTEX
  5
35F
  8
0
 10
-0.3368756015806866
 20
-8.0920483104591767
 30
0.0
  0
VERTEX
  5
360
  8
0
 10
-0.3457851734492578
 20
-8.0881093418438468
 30
0.0
  0
VERTEX
  5
361
  8
0
 10
-0.3540382505480011
 20
-8.0843579431625585
 30
0.0
  0
VERTEX
  5
362
  8
0
 10
-0.3621037577122479
 20
-8.0802314046129595
 30
0.0
  0
VERTEX
  5
363
  8
0
 10
-0.3699816949429078
 20
-8.0762924359976296
 30
0.0
  0
VERTEX
  5
364
  8
0
 10
-0.3772031374046492
 20
-8.0719783275142163
 30
0.0
  0
VERTEX
  5
365
  8
0
 10
-0.3841432249646459
 20
-8.0676642190305756
 30
0.0
  0
VERTEX
  5
366
  8
0
 10
-0.3908957425910557
 20
-8.0637252504152457
 30
0.0
  0
VERTEX
  5
367
  8
0
 10
-0.3971793353830435
 20
-8.0592235719977907
 30
0.0
  0
VERTEX
  5
368
  8
0
 10
-0.4029940033387902
 20
-8.0547218935801084
 30
0.0
  0
VERTEX
  5
369
  8
0
 10
-0.4083397464592054
 20
-8.0502202151626534
 30
0.0
  0
VERTEX
  5
36A
  8
0
 10
-0.4133103497124467
 20
-8.0459061066790127
 30
0.0
  0
VERTEX
  5
36B
  8
0
 10
-0.4183747379320267
 20
-8.0412168583275161
 30
0.0
  0
VERTEX
  5
36C
  8
0
 10
-0.4225950614481917
 20
-8.0365276099760194
 30
0.0
  0
VERTEX
  5
36D
  8
0
 10
-0.4264402450962735
 20
-8.0320259315583371
 30
0.0
  0
VERTEX
  5
36E
  8
0
 10
-0.4299102888771813
 20
-8.0273366832066131
 30
0.0
  0
VERTEX
  5
36F
  8
0
 10
-0.4327238378882612
 20
-8.0228350047891581
 30
0.0
  0
VERTEX
  5
370
  8
0
 10
-0.4356311718656798
 20
-8.0181457564376615
 30
0.0
  0
VERTEX
  5
371
  8
0
 10
-0.4379757960414282
 20
-8.0136440780199791
 30
0.0
  0
VERTEX
  5
372
  8
0
 10
-0.439663925448258
 20
-8.0089548296682551
 30
0.0
  0
VERTEX
  5
373
  8
0
 10
-0.4411644849205914
 20
-8.0040780113827168
 30
0.0
  0
VERTEX
  5
374
  8
0
 10
-0.4420085496240063
 20
-7.9995763329650336
 30
0.0
  0
VERTEX
  5
375
  8
0
 10
-0.4425712594265861
 20
-7.9945119447454536
 30
0.0
  0
VERTEX
  5
376
  8
0
 10
-0.4429463992946694
 20
-7.9907605460639379
 30
0.0
  0
SEQEND
  5
377
  8
0
  0
POLYLINE
  5
378
  8
0
 66
     1
 10
0.0
 20
0.0
 30
0.0
  0
VERTEX
  5
379
  8
0
 10
-8.0048282911193382
 20
1.874855275945492
 30
0.0
  0
VERTEX
  5
37A
  8
0
 10
-7.9938554499767633
 20
1.9033659059232371
 30
0.0
  0
VERTEX
  5
37B
  8
0
 10
-7.9825074689651947
 20
1.9326268156373769
 30
0.0
  0
VERTEX
  5
37C
  8
0
 10
-7.9700340683502873
 20
1.9624504351538681
 30
0.0
  0
VERTEX
  5
37D
  8
0
 10
-7.9573730978008816
 20
1.992836764472258
 30
0.0
  0
VERTEX
  5
37E
  8
0
 10
-7.9436804926144751
 20
2.0243485133951249
 30
0.0
  0
VERTEX
  5
37F
  8
0
 10
-7.9297065325263238
 20
2.0558602623179918
 30
0.0
  0
SEQEND
  5
380
  8
0
  0
POLYLINE
  5
381
  8
0
 66
     1
 10
0.0
 20
0.0
 30
0.0
  0
VERTEX
  5
382
  8
0
 10
-7.9293313926582414
 20
2.0558602623179918
 30
0.0
  0
VERTEX
  5
383
  8
0
 10
-7.8593678072520561
 20
2.2646255989322981
 30
0.0
  0
SEQEND
  5
384
  8
0
  0
POLYLINE
  5
385
  8
0
 66
     1
 10
0.0
 20
0.0
 30
0.0
  0
VERTEX
  5
386
  8
0
 10
-7.8593678072520561
 20
2.2646255989322981
 30
0.0
  0
VERTEX
  5
387
  8
0
 10
-7.8259803589880903
 20
2.3644128038547469
 30
0.0
  0
SEQEND
  5
388
  8
0
  0
POLYLINE
  5
389
  8
0
 66
     1
 10
0.0
 20
0.0
 30
0.0
  0
VERTEX
  5
38A
  8
0
 10
-7.8259803589880903
 20
2.364037663986664
 30
0.0
  0
VERTEX
  5
38B
  8
0
 10
-7.8025341172306071
 20
2.4360645186675352
 30
0.0
  0
SEQEND
  5
38C
  8
0
  0
POLYLINE
  5
38D
  8
0
 66
     1
 10
0.0
 20
0.0
 30
0.0
  0
VERTEX
  5
38E
  8
0
 10
-7.8025341172306071
 20
2.4360645186675352
 30
0.0
  0
VERTEX
  5
38F
  8
0
 10
-7.787528522505454
 20
2.4825818623155551
 30
0.0
  0
SEQEND
  5
390
  8
0
  0
POLYLINE
  5
391
  8
0
 66
     1
 10
0.0
 20
0.0
 30
0.0
  0
VERTEX
  5
392
  8
0
 10
-7.7880912323071243
 20
2.4825818623155551
 30
0.0
  0
VERTEX
  5
393
  8
0
 10
-7.7739297022853862
 20
2.5274110765572
 30
0.0
  0
SEQEND
  5
394
  8
0
  0
POLYLINE
  5
395
  8
0
 66
     1
 10
0.0
 20
0.0
 30
0.0
  0
VERTEX
  5
396
  8
0
 10
-7.7737421323517992
 20
2.5275986464912421
 30
0.0
  0
VERTEX
  5
397
  8
0
 10
-7.7607060219343111
 20
2.5709273012600979
 30
0.0
  0
SEQEND
  5
398
  8
0
  0
POLYLINE
  5
399
  8
0
 66
     1
 10
0.0
 20
0.0
 30
0.0
  0
VERTEX
  5
39A
  8
0
 10
-7.7607060219343111
 20
2.5709273012600979
 30
0.0
  0
VERTEX
  5
39B
  8
0
 10
-7.7479512664176582
 20
2.6123802566885379
 30
0.0
  0
SEQEND
  5
39C
  8
0
  0
POLYLINE
  5
39D
  8
0
 66
     1
 10
0.0
 20
0.0
 30
0.0
  0
VERTEX
  5
39E
  8
0
 10
-7.7475761265495739
 20
2.6123802566885379
 30
0.0
  0
VERTEX
  5
39F
  8
0
 10
-7.741855243560166
 20
2.6328253795015821
 30
0.0
  0
VERTEX
  5
3A0
  8
0
 10
-7.7360405756044202
 20
2.6525202225784592
 30
0.0
  0
VERTEX
  5
3A1
  8
0
 10
-7.7305072625495077
 20
2.6720274957210668
 30
0.0
  0
VERTEX
  5
3A2
  8
0
 10
-7.7251615194281831
 20
2.6909720590617781
 30
0.0
  0
VERTEX
  5
3A3
  8
0
 10
-7.7200971312086031
 20
2.7095414825341768
 30
0.0
  0
VERTEX
  5
3A4
  8
0
 10
-7.7155016678243546
 20
2.727735766138494
 30
0.0
  0
VERTEX
  5
3A5
  8
0
 10
-7.7109062044401071
 20
2.7455549098744991
 30
0.0
  0
VERTEX
  5
3A6
  8
0
 10
-7.7063107410549492
 20
2.762811343808607
 30
0.0
  0
VERTEX
  5
3A7
  8
0
 10
-7.702277987472371
 20
2.7793174980063209
 30
0.0
  0
VERTEX
  5
3A8
  8
0
 10
-7.6984328038242893
 20
2.7958236522040352
 30
0.0
  0
VERTEX
  5
3A9
  8
0
 10
-7.69496276004429
 20
2.8113919567313128
 30
0.0
  0
VERTEX
  5
3AA
  8
0
 10
-7.6914927162642917
 20
2.8269602612588178
 30
0.0
  0
VERTEX
  5
3AB
  8
0
 10
-7.6886791672532118
 20
2.8419658559839709
 30
0.0
  0
VERTEX
  5
3AC
  8
0
 10
-7.6857718332748837
 20
2.8564087409069989
 30
0.0
  0
VERTEX
  5
3AD
  8
0
 10
-7.683052069231052
 20
2.8701013460936329
 30
0.0
  0
VERTEX
  5
3AE
  8
0
 10
-7.6808012300225519
 20
2.8837939512804951
 30
0.0
  0
VERTEX
  5
3AF
  8
0
 10
-7.6784566058468036
 20
2.896923846665004
 30
0.0
  0
VERTEX
  5
3B0
  8
0
 10
-7.6767684764399737
 20
2.909303462313118
 30
0.0
  0
VERTEX
  5
3B1
  8
0
 10
-7.675361701933979
 20
2.9213079380933769
 30
0.0
  0
VERTEX
  5
3B2
  8
0
 10
-7.6738611424616456
 20
2.9331248439393671
 30
0.0
  0
VERTEX
  5
3B3
  8
0
 10
-7.6727357228573956
 20
2.9441914700491898
 30
0.0
  0
VERTEX
  5
3B4
  8
0
 10
-7.6720792280884771
 20
2.9550705262249721
 30
0.0
  0
VERTEX
  5
3B5
  8
0
 10
-7.6715165182858982
 20
2.9653868725986281
 30
0.0
  0
VERTEX
  5
3B6
  8
0
 10
-7.670953808484227
 20
2.9753280791039738
 30
0.0
  0
VERTEX
  5
3B7
  8
0
 10
-7.670953808484227
 20
2.984706575807194
 30
0.0
  0
VERTEX
  5
3B8
  8
0
 10
-7.6713289483523113
 20
2.9937099326423322
 30
0.0
  0
VERTEX
  5
3B9
  8
0
 10
-7.6715165182858982
 20
3.0019630097413019
 30
0.0
  0
VERTEX
  5
3BA
  8
0
 10
-7.6725481529238087
 20
3.0100285169060039
 30
0.0
  0
VERTEX
  5
3BB
  8
0
 10
-7.6732984326599762
 20
3.0177188842026221
 30
0.0
  0
VERTEX
  5
3BC
  8
0
 10
-7.6747989921323088
 20
3.0248465416971149
 30
0.0
  0
VERTEX
  5
3BD
  8
0
 10
-7.6761119816710561
 20
3.0310363495214001
 30
0.0
  0
VERTEX
  5
3BE
  8
0
 10
-7.6778938960442238
 20
3.0372261573454571
 30
0.0
  0
VERTEX
  5
3BF
  8
0
 10
-7.679957165319137
 20
3.0428532553673899
 30
0.0
  0
VERTEX
  5
3C0
  8
0
 10
-7.6823017894948862
 20
3.0477300736531561
 30
0.0
  0
VERTEX
  5
3C1
  8
0
 10
-7.6852091234732143
 20
3.052231752070611
 30
0.0
  0
VERTEX
  5
3C2
  8
0
 10
-7.6880226724833838
 20
3.0559831507518989
 30
0.0
  0
VERTEX
  5
3C3
  8
0
 10
-7.6909300064617119
 20
3.0593594095651042
 30
0.0
  0
SEQEND
  5
3C4
  8
0
  0
POLYLINE
  5
3C5
  8
0
 66
     1
 10
0.0
 20
0.0
 30
0.0
  0
VERTEX
  5
3C6
  8
0
 10
-8.3545524331830165
 20
-0.0171626489668597
 30
0.0
  0
VERTEX
  5
3C7
  8
0
 10
-8.3539897233813463
 20
0.0614291534063796
 30
0.0
  0
VERTEX
  5
3C8
  8
0
 10
-8.3522078090072682
 20
0.1402085257136605
 30
0.0
  0
VERTEX
  5
3C9
  8
0
 10
-8.3490191201281032
 20
0.2188003280868997
 30
0.0
  0
VERTEX
  5
3CA
  8
0
 10
-8.3449863665455268
 20
0.2973921304599116
 30
0.0
  0
VERTEX
  5
3CB
  8
0
 10
-8.3395468384578635
 20
0.3761715027671926
 30
0.0
  0
VERTEX
  5
3CC
  8
0
 10
-8.3328881057987019
 20
0.4547633051404319
 30
0.0
  0
VERTEX
  5
3CD
  8
0
 10
-8.3253853084361253
 20
0.5335426774477128
 30
0.0
  0
VERTEX
  5
3CE
  8
0
 10
-8.3162881666339672
 20
0.6123220497549938
 30
0.0
  0
VERTEX
  5
3CF
  8
0
 10
-8.3059718202603108
 20
0.6911014220620473
 30
0.0
  0
VERTEX
  5
3D0
  8
0
 10
-8.2946238392496525
 20
0.7700683643033699
 30
0.0
  0
VERTEX
  5
3D1
  8
0
 10
-8.2819628687002478
 20
0.8488477366106508
 30
0.0
  0
VERTEX
  5
3D2
  8
0
 10
-8.2682702635138412
 20
0.92743953898389
 30
0.0
  0
VERTEX
  5
3D3
  8
0
 10
-8.2533584537550269
 20
1.0065940511592539
 30
0.0
  0
VERTEX
  5
3D4
  8
0
 10
-8.2370398694920368
 20
1.0849982835984511
 30
0.0
  0
VERTEX
  5
3D5
  8
0
 10
-8.2196896505902242
 20
1.163965225839547
 30
0.0
  0
VERTEX
  5
3D6
  8
0
 10
-8.2009326571842394
 20
1.242932168081097
 30
0.0
  0
VERTEX
  5
3D7
  8
0
 10
-8.1807688892722581
 20
1.3220866802562341
 30
0.0
  0
VERTEX
  5
3D8
  8
0
 10
-8.1595734867232732
 20
1.4010536224975561
 30
0.0
  0
VERTEX
  5
3D9
  8
0
 10
-8.1367837397338008
 20
1.4800205647388791
 30
0.0
  0
VERTEX
  5
3DA
  8
0
 10
-8.1129623581073247
 20
1.5589875069802011
 30
0.0
  0
VERTEX
  5
3DB
  8
0
 10
-8.0881093418438468
 20
1.637766879287482
 30
0.0
  0
VERTEX
  5
3DC
  8
0
 10
-8.0614744112072003
 20
1.7169213914628469
 30
0.0
  0
VERTEX
  5
3DD
  8
0
 10
-8.0338078459326425
 20
1.7958883337041689
 30
0.0
  0
VERTEX
  5
3DE
  8
0
 10
-8.0048282911193382
 20
1.8746677060114501
 30
0.0
  0
SEQEND
  5
3DF
  8
0
  0
POLYLINE
  5
3E0
  8
0
 66
     1
 10
0.0
 20
0.0
 30
0.0
  0
VERTEX
  5
3E1
  8
0
 10
-8.6564462420610653
 20
3.7528054558028989
 30
0.0
  0
VERTEX
  5
3E2
  8
0
 10
-8.6530699832474056
 20
3.7576822740886651
 30
0.0
  0
VERTEX
  5
3E3
  8
0
 10
-8.6494123695329108
 20
3.7625590923742029
 30
0.0
  0
VERTEX
  5
3E4
  8
0
 10
-8.6451920460167457
 20
3.7679986204620941
 30
0.0
  0
VERTEX
  5
3E5
  8
0
 10
-8.6409717225005807
 20
3.7732505786159432
 30
0.0
  0
VERTEX
  5
3E6
  8
0
 10
-8.6364700440826692
 20
3.7785025367697922
 30
0.0
  0
VERTEX
  5
3E7
  8
0
 10
-8.6318745806984225
 20
3.784129634791725
 30
0.0
  0
VERTEX
  5
3E8
  8
0
 10
-8.6270915473796776
 20
3.789756732813657
 30
0.0
  0
VERTEX
  5
3E9
  8
0
 10
-8.621745804258353
 20
3.7955714007696311
 30
0.0
  0
VERTEX
  5
3EA
  8
0
 10
-8.6163062761706897
 20
3.8015736386596468
 30
0.0
  0
VERTEX
  5
3EB
  8
0
 10
-8.6107729631157781
 20
3.8077634464839321
 30
0.0
  0
VERTEX
  5
3EC
  8
0
 10
-8.6048645101927832
 20
3.8135781144399061
 30
0.0
  0
VERTEX
  5
3ED
  8
0
 10
-8.5919221847425433
 20
3.8265204398903729
 30
0.0
  0
VERTEX
  5
3EE
  8
0
 10
-8.5854510220169686
 20
3.8332729575167832
 30
0.0
  0
VERTEX
  5
3EF
  8
0
 10
-8.5708205671598972
 20
3.8465904228353329
 30
0.0
  0
VERTEX
  5
3F0
  8
0
 10
-8.5633177697973224
 20
3.8535305103957849
 30
0.0
  0
VERTEX
  5
3F1
  8
0
 10
-8.5556274025011572
 20
3.860470597956009
 30
0.0
  0
VERTEX
  5
3F2
  8
0
 10
-8.5473743254015062
 20
3.8674106855164601
 30
0.0
  0
VERTEX
  5
3F3
  8
0
 10
-8.5391212483027612
 20
3.8747259129449949
 30
0.0
  0
VERTEX
  5
3F4
  8
0
 10
-8.5304930313359364
 20
3.8822287103075719
 30
0.0
  0
VERTEX
  5
3F5
  8
0
 10
-8.5214896745010265
 20
3.8895439377361072
 30
0.0
  0
VERTEX
  5
3F6
  8
0
 10
-8.5022637562597083
 20
3.9049246723295701
 30
0.0
  0
VERTEX
  5
3F7
  8
0
 10
-8.4924163347204722
 20
3.9124274696921471
 30
0.0
  0
VERTEX
  5
3F8
  8
0
 10
-8.4824751282158104
 20
3.9203054069228069
 30
0.0
  0
VERTEX
  5
3F9
  8
0
 10
-8.4716898570068224
 20
3.9281833441534668
 30
0.0
  0
VERTEX
  5
3FA
  8
0
 10
-8.4697778820259657
 20
3.9296257112443049
 30
0.0
  0
SEQEND
  5
3FB
  8
0
  0
POLYLINE
  5
3FC
  8
0
 66
     1
 10
0.0
 20
0.0
 30
0.0
  0
VERTEX
  5
3FD
  8
0
 10
-0.50306256316253
 20
3.6239449111003519
 30
0.0
  0
VERTEX
  5
3FE
  8
0
 10
0.5036252729642002
 20
3.6239449111003519
 30
0.0
  0
SEQEND
  5
3FF
  8
0
  0
POLYLINE
  5
400
  8
0
 66
     1
 10
0.0
 20
0.0
 30
0.0
  0
VERTEX
  5
401
  8
0
 10
0.5036252729642002
 20
3.6046252078915582
 30
0.0
  0
VERTEX
  5
402
  8
0
 10
-0.50306256316253
 20
3.6046252078915582
 30
0.0
  0
SEQEND
  5
403
  8
0
  0
POLYLINE
  5
404
  8
0
 66
     1
 10
0.0
 20
0.0
 30
0.0
  0
VERTEX
  5
405
  8
0
 10
0.5036252729642002
 20
3.6239449111003519
 30
0.0
  0
VERTEX
  5
406
  8
0
 10
0.5036252729642002
 20
3.605187917693911
 30
0.0
  0
SEQEND
  5
407
  8
0
  0
POLYLINE
  5
408
  8
0
 66
     1
 10
0.0
 20
0.0
 30
0.0
  0
VERTEX
  5
409
  8
0
 10
-0.50306256316253
 20
3.6046252078915582
 30
0.0
  0
VERTEX
  5
40A
  8
0
 10
-0.50306256316253
 20
3.6235697712322681
 30
0.0
  0
SEQEND
  5
40B
  8
0
  0
POLYLINE
  5
40C
  8
0
 10
11.40625
 20
0.0
 30
0.0
 66
     1
 70
     8
  0
VERTEX
  8
0
  5
4D7
 10
11.4063
 20
0.000000
 30
0.000000
  70
    32
  0
VERTEX
  8
0
  5
4D8
 10
11.3925
 20
0.472276
 30
0.000000
  70
    32
  0
VERTEX
  8
0
  5
4D9
 10
11.3513
 20
0.943415
 30
0.000000
  70
    32
  0
VERTEX
  8
0
  5
4DA
 10
11.2828
 20
1.41228
 30
0.000000
  70
    32
  0
VERTEX
  8
0
  5
4DB
 10
11.1871
 20
1.87774
 30
0.000000
  70
    32
  0
VERTEX
  8
0
  5
4DC
 10
11.0644
 20
2.33868
 30
0.000000
  70
    32
  0
VERTEX
  8
0
  5
4DD
 10
10.9151
 20
2.79399
 30
0.000000
  70
    32
  0
VERTEX
  8
0
  5
4DE
 10
10.7395
 20
3.24256
 30
0.000000
  70
    32
  0
VERTEX
  8
0
  5
4DF
 10
10.5380
 20
3.68333
 30
0.000000
  70
    32
  0
VERTEX
  8
0
  5
4E0
 10
10.3111
 20
4.11522
 30
0.000000
  70
    32
  0
VERTEX
  8
0
  5
4E1
 10
10.0594
 20
4.53719
 30
0.000000
  70
    32
  0
VERTEX
  8
0
  5
4E2
 10
9.78347
 20
4.94824
 30
0.000000
  70
    32
  0
VERTEX
  8
0
  5
4E3
 10
9.48395
 20
5.34736
 30
0.000000
  70
    32
  0
VERTEX
  8
0
  5
4E4
 10
9.16159
 20
5.73361
 30
0.000000
  70
    32
  0
VERTEX
  8
0
  5
4E5
 10
8.81715
 20
6.10604
 30
0.000000
  70
    32
  0
VERTEX
  8
0
  5
4E6
 10
8.45147
 20
6.46375
 30
0.000000
  70
    32
  0
VERTEX
  8
0
  5
4E7
 10
8.06544
 20
6.80590
 30
0.000000
  70
    32
  0
VERTEX
  8
0
  5
4E8
 10
7.65997
 20
7.13165
 30
0.000000
  70
    32
  0
VERTEX
  8
0
  5
4E9
 10
7.23605
 20
7.44023
 30
0.000000
  70
    32
  0
VERTEX
  8
0
  5
4EA
 10
6.79470
 20
7.73087
 30
0.000000
  70
    32
  0
VERTEX
  8
0
  5
4EB
 10
6.33697
 20
8.00290
 30
0.000000
  70
    32
  0
VERTEX
  8
0
  5
4EC
 10
5.86398
 20
8.25564
 30
0.000000
  70
    32
  0
VERTEX
  8
0
  5
4ED
 10
5.37687
 20
8.48849
 30
0.000000
  70
    32
  0
VERTEX
  8
0
  5
4EE
 10
4.87680
 20
8.70090
 30
0.000000
  70
    32
  0
VERTEX
  8
0
  5
4EF
 10
4.36498
 20
8.89234
 30
0.000000
  70
    32
  0
VERTEX
  8
0
  5
4F0
 10
3.84265
 20
9.06236
 30
0.000000
  70
    32
  0
VERTEX
  8
0
  5
4F1
 10
3.31106
 20
9.21055
 30
0.000000
  70
    32
  0
VERTEX
  8
0
  5
4F2
 10
2.77149
 20
9.33655
 30
0.000000
  70
    32
  0
VERTEX
  8
0
  5
4F3
 10
2.22525
 20
9.44006
 30
0.000000
  70
    32
  0
VERTEX
  8
0
  5
4F4
 10
1.67364
 20
9.52082
 30
0.000000
  70
    32
  0
VERTEX
  8
0
  5
4F5
 10
1.11801
 20
9.57865
 30
0.000000
  70
    32
  0
VERTEX
  8
0
  5
4F6
 10
0.559678
 20
9.61341
 30
0.000000
  70
    32
  0
VERTEX
  8
0
  5
4F7
 10
6.98431e-016
 20
9.62500
 30
0.000000
  70
    32
  0
VERTEX
  8
0
  5
4F8
 10
-0.559678
 20
9.61341
 30
0.000000
  70
    32
  0
VERTEX
  8
0
  5
4F9
 10
-1.11801
 20
9.57865
 30
0.000000
  70
    32
  0
VERTEX
  8
0
  5
4FA
 10
-1.67364
 20
9.52082
 30
0.000000
  70
    32
  0
VERTEX
  8
0
  5
4FB
 10
-2.22525
 20
9.44006
 30
0.000000
  70
    32
  0
VERTEX
  8
0
  5
4FC
 10
-2.77149
 20
9.33655
 30
0.000000
  70
    32
  0
VERTEX
  8
0
  5
4FD
 10
-3.31106
 20
9.21055
 30
0.000000
  70
    32
  0
VERTEX
  8
0
  5
4FE
 10
-3.84265
 20
9.06236
 30
0.000000
  70
    32
  0
VERTEX
  8
0
  5
4FF
 10
-4.36498
 20
8.89234
 30
0.000000
  70
    32
  0
VERTEX
  8
0
  5
500
 10
-4.87680
 20
8.70090
 30
0.000000
  70
    32
  0
VERTEX
  8
0
  5
501
 10
-5.37687
 20
8.48849
 30
0.000000
  70
    32
  0
VERTEX
  8
0
  5
502
 10
-5.86398
 20
8.25564
 30
0.000000
  70
    32
  0
VERTEX
  8
0
  5
503
 10
-6.33697
 20
8.00290
 30
0.000000
  70
    32
  0
VERTEX
  8
0
  5
504
 10
-6.79470
 20
7.73087
 30
0.000000
  70
    32
  0
VERTEX
  8
0
  5
505
 10
-7.23605
 20
7.44023
 30
0.000000
  70
    32
  0
VERTEX
  8
0
  5
506
 10
-7.65997
 20
7.13165
 30
0.000000
  70
    32
  0
VERTEX
  8
0
  5
507
 10
-8.06544
 20
6.80590
 30
0.000000
  70
    32
  0
VERTEX
  8
0
  5
508
 10
-8.45147
 20
6.46375
 30
0.000000
  70
    32
  0
VERTEX
  8
0
  5
509
 10
-8.81715
 20
6.10604
 30
0.000000
  70
    32
  0
VERTEX
  8
0
  5
50A
 10
-9.16159
 20
5.73361
 30
0.000000
  70
    32
  0
VERTEX
  8
0
  5
50B
 10
-9.48395
 20
5.34736
 30
0.000000
  70
    32
  0
VERTEX
  8
0
  5
50C
 10
-9.78347
 20
4.94824
 30
0.000000
  70
    32
  0
VERTEX
  8
0
  5
50D
 10
-10.0594
 20
4.53719
 30
0.000000
  70
    32
  0
VERTEX
  8
0
  5
50E
 10
-10.3111
 20
4.11522
 30
0.000000
  70
    32
  0
VERTEX
  8
0
  5
50F
 10
-10.5380
 20
3.68333
 30
0.000000
  70
    32
  0
VERTEX
  8
0
  5
510
 10
-10.7395
 20
3.24256
 30
0.000000
  70
    32
  0
VERTEX
  8
0
  5
511
 10
-10.9151
 20
2.79399
 30
0.000000
  70
    32
  0
VERTEX
  8
0
  5
512
 10
-11.0644
 20
2.33868
 30
0.000000
  70
    32
  0
VERTEX
  8
0
  5
513
 10
-11.1871
 20
1.87774
 30
0.000000
  70
    32
  0
VERTEX
  8
0
  5
514
 10
-11.2828
 20
1.41228
 30
0.000000
  70
    32
  0
VERTEX
  8
0
  5
515
 10
-11.3513
 20
0.943415
 30
0.000000
  70
    32
  0
VERTEX
  8
0
  5
516
 10
-11.3925
 20
0.472276
 30
0.000000
  70
    32
  0
VERTEX
  8
0
  5
517
 10
-11.4063
 20
1.17872e-015
 30
0.000000
  70
    32
  0
VERTEX
  8
0
  5
518
 10
-11.3925
 20
-0.472276
 30
0.000000
  70
    32
  0
VERTEX
  8
0
  5
519
 10
-11.3513
 20
-0.943415
 30
0.000000
  70
    32
  0
VERTEX
  8
0
  5
51A
 10
-11.2828
 20
-1.41228
 30
0.000000
  70
    32
  0
VERTEX
  8
0
  5
51B
 10
-11.1871
 20
-1.87774
 30
0.000000
  70
    32
  0
VERTEX
  8
0
  5
51C
 10
-11.0644
 20
-2.33868
 30
0.000000
  70
    32
  0
VERTEX
  8
0
  5
51D
 10
-10.9151
 20
-2.79399
 30
0.000000
  70
    32
  0
VERTEX
  8
0
  5
51E
 10
-10.7395
 20
-3.24256
 30
0.000000
  70
    32
  0
VERTEX
  8
0
  5
51F
 10
-10.5380
 20
-3.68333
 30
0.000000
  70
    32
  0
VERTEX
  8
0
  5
520
 10
-10.3111
 20
-4.11522
 30
0.000000
  70
    32
  0
VERTEX
  8
0
  5
521
 10
-10.0594
 20
-4.53719
 30
0.000000
  70
    32
  0
VERTEX
  8
0
  5
522
 10
-9.78347
 20
-4.94824
 30
0.000000
  70
    32
  0
VERTEX
  8
0
  5
523
 10
-9.48395
 20
-5.34736
 30
0.000000
  70
    32
  0
VERTEX
  8
0
  5
524
 10
-9.16159
 20
-5.73361
 30
0.000000
  70
    32
  0
VERTEX
  8
0
  5
525
 10
-8.81715
 20
-6.10604
 30
0.000000
  70
    32
  0
VERTEX
  8
0
  5
526
 10
-8.45147
 20
-6.46375
 30
0.000000
  70
    32
  0
VERTEX
  8
0
  5
527
 10
-8.06544
 20
-6.80590
 30
0.000000
  70
    32
  0
VERTEX
  8
0
  5
528
 10
-7.65997
 20
-7.13165
 30
0.000000
  70
    32
  0
VERTEX
  8
0
  5
529
 10
-7.23605
 20
-7.44023
 30
0.000000
  70
    32
  0
VERTEX
  8
0
  5
52A
 10
-6.79470
 20
-7.73087
 30
0.000000
  70
    32
  0
VERTEX
  8
0
  5
52B
 10
-6.33697
 20
-8.00290
 30
0.000000
  70
    32
  0
VERTEX
  8
0
  5
52C
 10
-5.86398
 20
-8.25564
 30
0.000000
  70
    32
  0
VERTEX
  8
0
  5
52D
 10
-5.37687
 20
-8.48849
 30
0.000000
  70
    32
  0
VERTEX
  8
0
  5
52E
 10
-4.87680
 20
-8.70090
 30
0.000000
  70
    32
  0
VERTEX
  8
0
  5
52F
 10
-4.36498
 20
-8.89234
 30
0.000000
  70
    32
  0
VERTEX
  8
0
  5
530
 10
-3.84265
 20
-9.06236
 30
0.000000
  70
    32
  0
VERTEX
  8
0
  5
531
 10
-3.31106
 20
-9.21055
 30
0.000000
  70
    32
  0
VERTEX
  8
0
  5
532
 10
-2.77149
 20
-9.33655
 30
0.000000
  70
    32
  0
VERTEX
  8
0
  5
533
 10
-2.22525
 20
-9.44006
 30
0.000000
  70
    32
  0
VERTEX
  8
0
  5
534
 10
-1.67364
 20
-9.52082
 30
0.000000
  70
    32
  0
VERTEX
  8
0
  5
535
 10
-1.11801
 20
-9.57865
 30
0.000000
  70
    32
  0
VERTEX
  8
0
  5
536
 10
-0.559678
 20
-9.61341
 30
0.000000
  70
    32
  0
VERTEX
  8
0
  5
537
 10
-2.09529e-015
 20
-9.62500
 30
0.000000
  70
    32
  0
VERTEX
  8
0
  5
538
 10
0.559678
 20
-9.61341
 30
0.000000
  70
    32
  0
VERTEX
  8
0
  5
539
 10
1.11801
 20
-9.57865
 30
0.000000
  70
    32
  0
VERTEX
  8
0
  5
53A
 10
1.67364
 20
-9.52082
 30
0.000000
  70
    32
  0
VERTEX
  8
0
  5
53B
 10
2.22525
 20
-9.44006
 30
0.000000
  70
    32
  0
VERTEX
  8
0
  5
53C
 10
2.77149
 20
-9.33655
 30
0.000000
  70
    32
  0
VERTEX
  8
0
  5
53D
 10
3.31106
 20
-9.21055
 30
0.000000
  70
    32
  0
VERTEX
  8
0
  5
53E
 10
3.84265
 20
-9.06236
 30
0.000000
  70
    32
  0
VERTEX
  8
0
  5
53F
 10
4.36498
 20
-8.89234
 30
0.000000
  70
    32
  0
VERTEX
  8
0
  5
540
 10
4.87680
 20
-8.70090
 30
0.000000
  70
    32
  0
VERTEX
  8
0
  5
541
 10
5.37687
 20
-8.48849
 30
0.000000
  70
    32
  0
VERTEX
  8
0
  5
542
 10
5.86398
 20
-8.25564
 30
0.000000
  70
    32
  0
VERTEX
  8
0
  5
543
 10
6.33697
 20
-8.00290
 30
0.000000
  70
    32
  0
VERTEX
  8
0
  5
544
 10
6.79470
 20
-7.73087
 30
0.000000
  70
    32
  0
VERTEX
  8
0
  5
545
 10
7.23605
 20
-7.44023
 30
0.000000
  70
    32
  0
VERTEX
  8
0
  5
546
 10
7.65997
 20
-7.13165
 30
0.000000
  70
    32
  0
VERTEX
  8
0
  5
547
 10
8.06544
 20
-6.80590
 30
0.000000
  70
    32
  0
VERTEX
  8
0
  5
548
 10
8.45147
 20
-6.46375
 30
0.000000
  70
    32
  0
VERTEX
  8
0
  5
549
 10
8.81715
 20
-6.10604
 30
0.000000
  70
    32
  0
VERTEX
  8
0
  5
54A
 10
9.16159
 20
-5.73361
 30
0.000000
  70
    32
  0
VERTEX
  8
0
  5
54B
 10
9.48395
 20
-5.34736
 30
0.000000
  70
    32
  0
VERTEX
  8
0
  5
54C
 10
9.78347
 20
-4.94824
 30
0.000000
  70
    32
  0
VERTEX
  8
0
  5
54D
 10
10.0594
 20
-4.53719
 30
0.000000
  70
    32
  0
VERTEX
  8
0
  5
54E
 10
10.3111
 20
-4.11522
 30
0.000000
  70
    32
  0
VERTEX
  8
0
  5
54F
 10
10.5380
 20
-3.68333
 30
0.000000
  70
    32
  0
VERTEX
  8
0
  5
550
 10
10.7395
 20
-3.24256
 30
0.000000
  70
    32
  0
VERTEX
  8
0
  5
551
 10
10.9151
 20
-2.79399
 30
0.000000
  70
    32
  0
VERTEX
  8
0
  5
552
 10
11.0644
 20
-2.33868
 30
0.000000
  70
    32
  0
VERTEX
  8
0
  5
553
 10
11.1871
 20
-1.87774
 30
0.000000
  70
    32
  0
VERTEX
  8
0
  5
554
 10
11.2828
 20
-1.41228
 30
0.000000
  70
    32
  0
VERTEX
  8
0
  5
555
 10
11.3513
 20
-0.943415
 30
0.000000
  70
    32
  0
VERTEX
  8
0
  5
556
 10
11.3925
 20
-0.472276
 30
0.000000
  70
    32
  0
VERTEX
  8
0
  5
557
 10
11.4063
 20
0.000000
 30
0.000000
  70
    32
  0
SEQEND
  8
0
  5
558
  0
POLYLINE
  8
0
  5
559
  66
     1
 10
0.000000
 20
0.000000
 30
0.000000
  70
     8
  0
VERTEX
  8
0
  5
55A
 10
10.7307
 20
0.000000
 30
0.000000
  70
    32
  0
VERTEX
  8
0
  5
55B
 10
10.7305
 20
0.0457029
 30
0.000000
  70
    32
  0
VERTEX
  8
0
  5
55C
 10
10.7301
 20
0.0914064
 30
0.000000
  70
    32
  0
VERTEX
  8
0
  5
55D
 10
10.7294
 20
0.137109
 30
0.000000
  70
    32
  0
VERTEX
  8
0
  5
55E
 10
10.7284
 20
0.182811
 30
0.000000
  70
    32
  0
VERTEX
  8
0
  5
55F
 10
10.7272
 20
0.228509
 30
0.000000
  70
    32
  0
VERTEX
  8
0
  5
560
 10
10.7256
 20
0.274204
 30
0.000000
  70
    32
  0
VERTEX
  8
0
  5
561
 10
10.7238
 20
0.319893
 30
0.000000
  70
    32
  0
VERTEX
  8
0
  5
562
 10
10.7217
 20
0.365576
 30
0.000000
  70
    32
  0
VERTEX
  8
0
  5
563
 10
10.7193
 20
0.411251
 30
0.000000
  70
    32
  0
VERTEX
  8
0
  5
564
 10
10.7167
 20
0.456918
 30
0.000000
  70
    32
  0
VERTEX
  8
0
  5
565
 10
10.7137
 20
0.502574
 30
0.000000
  70
    32
  0
VERTEX
  8
0
  5
566
 10
10.7105
 20
0.548220
 30
0.000000
  70
    32
  0
VERTEX
  8
0
  5
567
 10
10.7070
 20
0.593853
 30
0.000000
  70
    32
  0
VERTEX
  8
0
  5
568
 10
10.7033
 20
0.639472
 30
0.000000
  70
    32
  0
VERTEX
  8
0
  5
569
 10
10.6992
 20
0.685077
 30
0.000000
  70
    32
  0
VERTEX
  8
0
  5
56A
 10
10.6949
 20
0.730666
 30
0.000000
  70
    32
  0
VERTEX
  8
0
  5
56B
 10
10.6903
 20
0.776238
 30
0.000000
  70
    32
  0
VERTEX
  8
0
  5
56C
 10
10.6854
 20
0.821792
 30
0.000000
  70
    32
  0
VERTEX
  8
0
  5
56D
 10
10.6802
 20
0.867327
 30
0.000000
  70
    32
  0
VERTEX
  8
0
  5
56E
 10
10.6748
 20
0.912841
 30
0.000000
  70
    32
  0
VERTEX
  8
0
  5
56F
 10
10.6691
 20
0.958333
 30
0.000000
  70
    32
  0
VERTEX
  8
0
  5
570
 10
10.6631
 20
1.00380
 30
0.000000
  70
    32
  0
VERTEX
  8
0
  5
571
 10
10.6568
 20
1.04925
 30
0.000000
  70
    32
  0
VERTEX
  8
0
  5
572
 10
10.6502
 20
1.09467
 30
0.000000
  70
    32
  0
VERTEX
  8
0
  5
573
 10
10.6434
 20
1.14006
 30
0.000000
  70
    32
  0
VERTEX
  8
0
  5
574
 10
10.6363
 20
1.18543
 30
0.000000
  70
    32
  0
VERTEX
  8
0
  5
575
 10
10.6289
 20
1.23076
 30
0.000000
  70
    32
  0
VERTEX
  8
0
  5
576
 10
10.6213
 20
1.27607
 30
0.000000
  70
    32
  0
VERTEX
  8
0
  5
577
 10
10.6133
 20
1.32135
 30
0.000000
  70
    32
  0
VERTEX
  8
0
  5
578
 10
10.6051
 20
1.36659
 30
0.000000
  70
    32
  0
VERTEX
  8
0
  5
579
 10
10.5966
 20
1.41180
 30
0.000000
  70
    32
  0
VERTEX
  8
0
  5
57A
 10
10.5879
 20
1.45697
 30
0.000000
  70
    32
  0
VERTEX
  8
0
  5
57B
 10
10.5788
 20
1.50211
 30
0.000000
  70
    32
  0
VERTEX
  8
0
  5
57C
 10
10.5695
 20
1.54721
 30
0.000000
  70
    32
  0
VERTEX
  8
0
  5
57D
 10
10.5599
 20
1.59228
 30
0.000000
  70
    32
  0
VERTEX
  8
0
  5
57E
 10
10.5501
 20
1.63730
 30
0.000000
  70
    32
  0
VERTEX
  8
0
  5
57F
 10
10.5399
 20
1.68229
 30
0.000000
  70
    32
  0
VERTEX
  8
0
  5
580
 10
10.5295
 20
1.72723
 30
0.000000
  70
    32
  0
VERTEX
  8
0
  5
581
 10
10.5188
 20
1.77213
 30
0.000000
  70
    32
  0
VERTEX
  8
0
  5
582
 10
10.5078
 20
1.81698
 30
0.000000
  70
    32
  0
VERTEX
  8
0
  5
583
 10
10.4966
 20
1.86179
 30
0.000000
  70
    32
  0
VERTEX
  8
0
  5
584
 10
10.4851
 20
1.90655
 30
0.000000
  70
    32
  0
VERTEX
  8
0
  5
585
 10
10.4733
 20
1.95127
 30
0.000000
  70
    32
  0
VERTEX
  8
0
  5
586
 10
10.4612
 20
1.99593
 30
0.000000
  70
    32
  0
VERTEX
  8
0
  5
587
 10
10.4488
 20
2.04055
 30
0.000000
  70
    32
  0
VERTEX
  8
0
  5
588
 10
10.4362
 20
2.08512
 30
0.000000
  70
    32
  0
VERTEX
  8
0
  5
589
 10
10.4233
 20
2.12964
 30
0.000000
  70
    32
  0
VERTEX
  8
0
  5
58A
 10
10.4102
 20
2.17410
 30
0.000000
  70
    32
  0
VERTEX
  8
0
  5
58B
 10
10.3967
 20
2.21852
 30
0.000000
  70
    32
  0
VERTEX
  8
0
  5
58C
 10
10.3830
 20
2.26289
 30
0.000000
  70
    32
  0
VERTEX
  8
0
  5
58D
 10
10.3690
 20
2.30720
 30
0.000000
  70
    32
  0
VERTEX
  8
0
  5
58E
 10
10.3547
 20
2.35146
 30
0.000000
  70
    32
  0
VERTEX
  8
0
  5
58F
 10
10.3401
 20
2.39567
 30
0.000000
  70
    32
  0
VERTEX
  8
0
  5
590
 10
10.3253
 20
2.43982
 30
0.000000
  70
    32
  0
VERTEX
  8
0
  5
591
 10
10.3102
 20
2.48391
 30
0.000000
  70
    32
  0
VERTEX
  8
0
  5
592
 10
10.2949
 20
2.52794
 30
0.000000
  70
    32
  0
VERTEX
  8
0
  5
593
 10
10.2792
 20
2.57191
 30
0.000000
  70
    32
  0
VERTEX
  8
0
  5
594
 10
10.2633
 20
2.61582
 30
0.000000
  70
    32
  0
VERTEX
  8
0
  5
595
 10
10.2471
 20
2.65967
 30
0.000000
  70
    32
  0
VERTEX
  8
0
  5
596
 10
10.2307
 20
2.70345
 30
0.000000
  70
    32
  0
VERTEX
  8
0
  5
597
 10
10.2139
 20
2.74717
 30
0.000000
  70
    32
  0
VERTEX
  8
0
  5
598
 10
10.1969
 20
2.79083
 30
0.000000
  70
    32
  0
VERTEX
  8
0
  5
599
 10
10.1797
 20
2.83441
 30
0.000000
  70
    32
  0
VERTEX
  8
0
  5
59A
 10
10.1621
 20
2.87793
 30
0.000000
  70
    32
  0
VERTEX
  8
0
  5
59B
 10
10.1443
 20
2.92138
 30
0.000000
  70
    32
  0
VERTEX
  8
0
  5
59C
 10
10.1263
 20
2.96476
 30
0.000000
  70
    32
  0
VERTEX
  8
0
  5
59D
 10
10.1079
 20
3.00807
 30
0.000000
  70
    32
  0
VERTEX
  8
0
  5
59E
 10
10.0893
 20
3.05131
 30
0.000000
  70
    32
  0
VERTEX
  8
0
  5
59F
 10
10.0705
 20
3.09447
 30
0.000000
  70
    32
  0
VERTEX
  8
0
  5
5A0
 10
10.0513
 20
3.13756
 30
0.000000
  70
    32
  0
VERTEX
  8
0
  5
5A1
 10
10.0319
 20
3.18057
 30
0.000000
  70
    32
  0
VERTEX
  8
0
  5
5A2
 10
10.0123
 20
3.22350
 30
0.000000
  70
    32
  0
VERTEX
  8
0
  5
5A3
 10
9.99235
 20
3.26636
 30
0.000000
  70
    32
  0
VERTEX
  8
0
  5
5A4
 10
9.97215
 20
3.30913
 30
0.000000
  70
    32
  0
VERTEX
  8
0
  5
5A5
 10
9.95170
 20
3.35183
 30
0.000000
  70
    32
  0
VERTEX
  8
0
  5
5A6
 10
9.93098
 20
3.39444
 30
0.000000
  70
    32
  0
VERTEX
  8
0
  5
5A7
 10
9.91000
 20
3.43697
 30
0.000000
  70
    32
  0
VERTEX
  8
0
  5
5A8
 10
9.88875
 20
3.47941
 30
0.000000
  70
    32
  0
VERTEX
  8
0
  5
5A9
 10
9.86725
 20
3.52177
 30
0.000000
  70
    32
  0
VERTEX
  8
0
  5
5AA
 10
9.84549
 20
3.56405
 30
0.000000
  70
    32
  0
VERTEX
  8
0
  5
5AB
 10
9.82346
 20
3.60623
 30
0.000000
  70
    32
  0
VERTEX
  8
0
  5
5AC
 10
9.80117
 20
3.64833
 30
0.000000
  70
    32
  0
VERTEX
  8
0
  5
5AD
 10
9.77863
 20
3.69034
 30
0.000000
  70
    32
  0
VERTEX
  8
0
  5
5AE
 10
9.75582
 20
3.73225
 30
0.000000
  70
    32
  0
VERTEX
  8
0
  5
5AF
 10
9.73276
 20
3.77408
 30
0.000000
  70
    32
  0
VERTEX
  8
0
  5
5B0
 10
9.70944
 20
3.81581
 30
0.000000
  70
    32
  0
VERTEX
  8
0
  5
5B1
 10
9.68586
 20
3.85744
 30
0.000000
  70
    32
  0
VERTEX
  8
0
  5
5B2
 10
9.66203
 20
3.89898
 30
0.000000
  70
    32
  0
VERTEX
  8
0
  5
5B3
 10
9.63794
 20
3.94042
 30
0.000000
  70
    32
  0
VERTEX
  8
0
  5
5B4
 10
9.61359
 20
3.98177
 30
0.000000
  70
    32
  0
VERTEX
  8
0
  5
5B5
 10
9.58899
 20
4.02301
 30
0.000000
  70
    32
  0
VERTEX
  8
0
  5
5B6
 10
9.56413
 20
4.06416
 30
0.000000
  70
    32
  0
VERTEX
  8
0
  5
5B7
 10
9.53902
 20
4.10520
 30
0.000000
  70
    32
  0
VERTEX
  8
0
  5
5B8
 10
9.51365
 20
4.14614
 30
0.000000
  70
    32
  0
VERTEX
  8
0
  5
5B9
 10
9.48803
 20
4.18698
 30
0.000000
  70
    32
  0
VERTEX
  8
0
  5
5BA
 10
9.46216
 20
4.22771
 30
0.000000
  70
    32
  0
VERTEX
  8
0
  5
5BB
 10
9.43603
 20
4.26834
 30
0.000000
  70
    32
  0
VERTEX
  8
0
  5
5BC
 10
9.40965
 20
4.30885
 30
0.000000
  70
    32
  0
VERTEX
  8
0
  5
5BD
 10
9.38302
 20
4.34926
 30
0.000000
  70
    32
  0
VERTEX
  8
0
  5
5BE
 10
9.35614
 20
4.38956
 30
0.000000
  70
    32
  0
VERTEX
  8
0
  5
5BF
 10
9.32901
 20
4.42975
 30
0.000000
  70
    32
  0
VERTEX
  8
0
  5
5C0
 10
9.30163
 20
4.46983
 30
0.000000
  70
    32
  0
VERTEX
  8
0
  5
5C1
 10
9.27399
 20
4.50979
 30
0.000000
  70
    32
  0
VERTEX
  8
0
  5
5C2
 10
9.24611
 20
4.54964
 30
0.000000
  70
    32
  0
VERTEX
  8
0
  5
5C3
 10
9.21798
 20
4.58938
 30
0.000000
  70
    32
  0
VERTEX
  8
0
  5
5C4
 10
9.18961
 20
4.62899
 30
0.000000
  70
    32
  0
VERTEX
  8
0
  5
5C5
 10
9.16098
 20
4.66849
 30
0.000000
  70
    32
  0
VERTEX
  8
0
  5
5C6
 10
9.13211
 20
4.70787
 30
0.000000
  70
    32
  0
VERTEX
  8
0
  5
5C7
 10
9.10299
 20
4.74714
 30
0.000000
  70
    32
  0
VERTEX
  8
0
  5
5C8
 10
9.07362
 20
4.78627
 30
0.000000
  70
    32
  0
VERTEX
  8
0
  5
5C9
 10
9.04401
 20
4.82529
 30
0.000000
  70
    32
  0
VERTEX
  8
0
  5
5CA
 10
9.01415
 20
4.86419
 30
0.000000
  70
    32
  0
VERTEX
  8
0
  5
5CB
 10
8.98405
 20
4.90295
 30
0.000000
  70
    32
  0
VERTEX
  8
0
  5
5CC
 10
8.95371
 20
4.94160
 30
0.000000
  70
    32
  0
VERTEX
  8
0
  5
5CD
 10
8.92311
 20
4.98011
 30
0.000000
  70
    32
  0
VERTEX
  8
0
  5
5CE
 10
8.89228
 20
5.01850
 30
0.000000
  70
    32
  0
VERTEX
  8
0
  5
5CF
 10
8.86121
 20
5.05676
 30
0.000000
  70
    32
  0
VERTEX
  8
0
  5
5D0
 10
8.82989
 20
5.09489
 30
0.000000
  70
    32
  0
VERTEX
  8
0
  5
5D1
 10
8.79833
 20
5.13288
 30
0.000000
  70
    32
  0
VERTEX
  8
0
  5
5D2
 10
8.76652
 20
5.17075
 30
0.000000
  70
    32
  0
VERTEX
  8
0
  5
5D3
 10
8.73448
 20
5.20848
 30
0.000000
  70
    32
  0
VERTEX
  8
0
  5
5D4
 10
8.70220
 20
5.24608
 30
0.000000
  70
    32
  0
VERTEX
  8
0
  5
5D5
 10
8.66968
 20
5.28355
 30
0.000000
  70
    32
  0
VERTEX
  8
0
  5
5D6
 10
8.63692
 20
5.32088
 30
0.000000
  70
    32
  0
VERTEX
  8
0
  5
5D7
 10
8.60392
 20
5.35808
 30
0.000000
  70
    32
  0
VERTEX
  8
0
  5
5D8
 10
8.57069
 20
5.39514
 30
0.000000
  70
    32
  0
VERTEX
  8
0
  5
5D9
 10
8.53723
 20
5.43206
 30
0.000000
  70
    32
  0
VERTEX
  8
0
  5
5DA
 10
8.50353
 20
5.46884
 30
0.000000
  70
    32
  0
VERTEX
  8
0
  5
5DB
 10
8.46960
 20
5.50548
 30
0.000000
  70
    32
  0
VERTEX
  8
0
  5
5DC
 10
8.43544
 20
5.54198
 30
0.000000
  70
    32
  0
VERTEX
  8
0
  5
5DD
 10
8.40105
 20
5.57834
 30
0.000000
  70
    32
  0
VERTEX
  8
0
  5
5DE
 10
8.36642
 20
5.61456
 30
0.000000
  70
    32
  0
VERTEX
  8
0
  5
5DF
 10
8.33157
 20
5.65063
 30
0.000000
  70
    32
  0
VERTEX
  8
0
  5
5E0
 10
8.29650
 20
5.68656
 30
0.000000
  70
    32
  0
VERTEX
  8
0
  5
5E1
 10
8.26119
 20
5.72234
 30
0.000000
  70
    32
  0
VERTEX
  8
0
  5
5E2
 10
8.22567
 20
5.75797
 30
0.000000
  70
    32
  0
VERTEX
  8
0
  5
5E3
 10
8.18991
 20
5.79346
 30
0.000000
  70
    32
  0
VERTEX
  8
0
  5
5E4
 10
8.15394
 20
5.82880
 30
0.000000
  70
    32
  0
VERTEX
  8
0
  5
5E5
 10
8.11774
 20
5.86398
 30
0.000000
  70
    32
  0
VERTEX
  8
0
  5
5E6
 10
8.08132
 20
5.89902
 30
0.000000
  70
    32
  0
VERTEX
  8
0
  5
5E7
 10
8.04468
 20
5.93391
 30
0.000000
  70
    32
  0
VERTEX
  8
0
  5
5E8
 10
8.00782
 20
5.96864
 30
0.000000
  70
    32
  0
VERTEX
  8
0
  5
5E9
 10
7.97075
 20
6.00322
 30
0.000000
  70
    32
  0
VERTEX
  8
0
  5
5EA
 10
7.93345
 20
6.03764
 30
0.000000
  70
    32
  0
VERTEX
  8
0
  5
5EB
 10
7.89595
 20
6.07191
 30
0.000000
  70
    32
  0
VERTEX
  8
0
  5
5EC
 10
7.85822
 20
6.10601
 30
0.000000
  70
    32
  0
VERTEX
  8
0
  5
5ED
 10
7.82028
 20
6.13997
 30
0.000000
  70
    32
  0
VERTEX
  8
0
  5
5EE
 10
7.78213
 20
6.17376
 30
0.000000
  70
    32
  0
VERTEX
  8
0
  5
5EF
 10
7.74377
 20
6.20739
 30
0.000000
  70
    32
  0
VERTEX
  8
0
  5
5F0
 10
7.70520
 20
6.24086
 30
0.000000
  70
    32
  0
VERTEX
  8
0
  5
5F1
 10
7.66641
 20
6.27417
 30
0.000000
  70
    32
  0
VERTEX
  8
0
  5
5F2
 10
7.62742
 20
6.30732
 30
0.000000
  70
    32
  0
VERTEX
  8
0
  5
5F3
 10
7.58822
 20
6.34030
 30
0.000000
  70
    32
  0
VERTEX
  8
0
  5
5F4
 10
7.54882
 20
6.37312
 30
0.000000
  70
    32
  0
VERTEX
  8
0
  5
5F5
 10
7.50920
 20
6.40577
 30
0.000000
  70
    32
  0
VERTEX
  8
0
  5
5F6
 10
7.46939
 20
6.43826
 30
0.000000
  70
    32
  0
VERTEX
  8
0
  5
5F7
 10
7.42937
 20
6.47058
 30
0.000000
  70
    32
  0
VERTEX
  8
0
  5
5F8
 10
7.38915
 20
6.50272
 30
0.000000
  70
    32
  0
VERTEX
  8
0
  5
5F9
 10
7.34872
 20
6.53470
 30
0.000000
  70
    32
  0
VERTEX
  8
0
  5
5FA
 10
7.30810
 20
6.56651
 30
0.000000
  70
    32
  0
VERTEX
  8
0
  5
5FB
 10
7.26727
 20
6.59814
 30
0.000000
  70
    32
  0
VERTEX
  8
0
  5
5FC
 10
7.22625
 20
6.62961
 30
0.000000
  70
    32
  0
VERTEX
  8
0
  5
5FD
 10
7.18503
 20
6.66089
 30
0.000000
  70
    32
  0
VERTEX
  8
0
  5
5FE
 10
7.14361
 20
6.69201
 30
0.000000
  70
    32
  0
VERTEX
  8
0
  5
5FF
 10
7.10200
 20
6.72294
 30
0.000000
  70
    32
  0
VERTEX
  8
0
  5
600
 10
7.06019
 20
6.75370
 30
0.000000
  70
    32
  0
VERTEX
  8
0
  5
601
 10
7.01819
 20
6.78428
 30
0.000000
  70
    32
  0
VERTEX
  8
0
  5
602
 10
6.97600
 20
6.81469
 30
0.000000
  70
    32
  0
VERTEX
  8
0
  5
603
 10
6.93361
 20
6.84491
 30
0.000000
  70
    32
  0
VERTEX
  8
0
  5
604
 10
6.89104
 20
6.87495
 30
0.000000
  70
    32
  0
VERTEX
  8
0
  5
605
 10
6.84828
 20
6.90481
 30
0.000000
  70
    32
  0
VERTEX
  8
0
  5
606
 10
6.80532
 20
6.93449
 30
0.000000
  70
    32
  0
VERTEX
  8
0
  5
607
 10
6.76219
 20
6.96398
 30
0.000000
  70
    32
  0
VERTEX
  8
0
  5
608
 10
6.71886
 20
6.99329
 30
0.000000
  70
    32
  0
VERTEX
  8
0
  5
609
 10
6.67535
 20
7.02241
 30
0.000000
  70
    32
  0
VERTEX
  8
0
  5
60A
 10
6.63166
 20
7.05134
 30
0.000000
  70
    32
  0
VERTEX
  8
0
  5
60B
 10
6.58778
 20
7.08009
 30
0.000000
  70
    32
  0
VERTEX
  8
0
  5
60C
 10
6.54372
 20
7.10864
 30
0.000000
  70
    32
  0
VERTEX
  8
0
  5
60D
 10
6.49948
 20
7.13701
 30
0.000000
  70
    32
  0
VERTEX
  8
0
  5
60E
 10
6.45506
 20
7.16519
 30
0.000000
  70
    32
  0
VERTEX
  8
0
  5
60F
 10
6.41046
 20
7.19317
 30
0.000000
  70
    32
  0
VERTEX
  8
0
  5
610
 10
6.36568
 20
7.22096
 30
0.000000
  70
    32
  0
VERTEX
  8
0
  5
611
 10
6.32072
 20
7.24856
 30
0.000000
  70
    32
  0
VERTEX
  8
0
  5
612
 10
6.27559
 20
7.27596
 30
0.000000
  70
    32
  0
VERTEX
  8
0
  5
613
 10
6.23029
 20
7.30317
 30
0.000000
  70
    32
  0
VERTEX
  8
0
  5
614
 10
6.18481
 20
7.33017
 30
0.000000
  70
    32
  0
VERTEX
  8
0
  5
615
 10
6.13916
 20
7.35698
 30
0.000000
  70
    32
  0
VERTEX
  8
0
  5
616
 10
6.09333
 20
7.38359
 30
0.000000
  70
    32
  0
VERTEX
  8
0
  5
617
 10
6.04734
 20
7.41001
 30
0.000000
  70
    32
  0
VERTEX
  8
0
  5
618
 10
6.00117
 20
7.43622
 30
0.000000
  70
    32
  0
VERTEX
  8
0
  5
619
 10
5.95484
 20
7.46223
 30
0.000000
  70
    32
  0
VERTEX
  8
0
  5
61A
 10
5.90834
 20
7.48804
 30
0.000000
  70
    32
  0
VERTEX
  8
0
  5
61B
 10
5.86167
 20
7.51364
 30
0.000000
  70
    32
  0
VERTEX
  8
0
  5
61C
 10
5.81484
 20
7.53905
 30
0.000000
  70
    32
  0
VERTEX
  8
0
  5
61D
 10
5.76784
 20
7.56425
 30
0.000000
  70
    32
  0
VERTEX
  8
0
  5
61E
 10
5.72068
 20
7.58926
 30
0.000000
  70
    32
  0
VERTEX
  8
0
  5
61F
 10
5.67336
 20
7.61405
 30
0.000000
  70
    32
  0
VERTEX
  8
0
  5
620
 10
5.62589
 20
7.63865
 30
0.000000
  70
    32
  0
VERTEX
  8
0
  5
621
 10
5.57825
 20
7.66303
 30
0.000000
  70
    32
  0
VERTEX
  8
0
  5
622
 10
5.53046
 20
7.68722
 30
0.000000
  70
    32
  0
VERTEX
  8
0
  5
623
 10
5.48252
 20
7.71119
 30
0.000000
  70
    32
  0
VERTEX
  8
0
  5
624
 10
5.43442
 20
7.73496
 30
0.000000
  70
    32
  0
VERTEX
  8
0
  5
625
 10
5.38617
 20
7.75852
 30
0.000000
  70
    32
  0
VERTEX
  8
0
  5
626
 10
5.33777
 20
7.78188
 30
0.000000
  70
    32
  0
VERTEX
  8
0
  5
627
 10
5.28922
 20
7.80503
 30
0.000000
  70
    32
  0
VERTEX
  8
0
  5
628
 10
5.24052
 20
7.82796
 30
0.000000
  70
    32
  0
VERTEX
  8
0
  5
629
 10
5.19168
 20
7.85069
 30
0.000000
  70
    32
  0
VERTEX
  8
0
  5
62A
 10
5.14269
 20
7.87321
 30
0.000000
  70
    32
  0
VERTEX
  8
0
  5
62B
 10
5.09356
 20
7.89551
 30
0.000000
  70
    32
  0
VERTEX
  8
0
  5
62C
 10
5.04428
 20
7.91761
 30
0.000000
  70
    32
  0
VERTEX
  8
0
  5
62D
 10
4.99487
 20
7.93949
 30
0.000000
  70
    32
  0
VERTEX
  8
0
  5
62E
 10
4.94532
 20
7.96116
 30
0.000000
  70
    32
  0
VERTEX
  8
0
  5
62F
 10
4.89563
 20
7.98261
 30
0.000000
  70
    32
  0
VERTEX
  8
0
  5
630
 10
4.84580
 20
8.00386
 30
0.000000
  70
    32
  0
VERTEX
  8
0
  5
631
 10
4.79584
 20
8.02488
 30
0.000000
  70
    32
  0
VERTEX
  8
0
  5
632
 10
4.74575
 20
8.04570
 30
0.000000
  70
    32
  0
VERTEX
  8
0
  5
633
 10
4.69552
 20
8.06629
 30
0.000000
  70
    32
  0
VERTEX
  8
0
  5
634
 10
4.64517
 20
8.08667
 30
0.000000
  70
    32
  0
VERTEX
  8
0
  5
635
 10
4.59468
 20
8.10684
 30
0.000000
  70
    32
  0
VERTEX
  8
0
  5
636
 10
4.54407
 20
8.12678
 30
0.000000
  70
    32
  0
VERTEX
  8
0
  5
637
 10
4.49333
 20
8.14651
 30
0.000000
  70
    32
  0
VERTEX
  8
0
  5
638
 10
4.44247
 20
8.16602
 30
0.000000
  70
    32
  0
VERTEX
  8
0
  5
639
 10
4.39149
 20
8.18531
 30
0.000000
  70
    32
  0
VERTEX
  8
0
  5
63A
 10
4.34038
 20
8.20438
 30
0.000000
  70
    32
  0
VERTEX
  8
0
  5
63B
 10
4.28915
 20
8.22323
 30
0.000000
  70
    32
  0
VERTEX
  8
0
  5
63C
 10
4.23781
 20
8.24186
 30
0.000000
  70
    32
  0
VERTEX
  8
0
  5
63D
 10
4.18634
 20
8.26027
 30
0.000000
  70
    32
  0
VERTEX
  8
0
  5
63E
 10
4.13476
 20
8.27845
 30
0.000000
  70
    32
  0
VERTEX
  8
0
  5
63F
 10
4.08307
 20
8.29641
 30
0.000000
  70
    32
  0
VERTEX
  8
0
  5
640
 10
4.03126
 20
8.31415
 30
0.000000
  70
    32
  0
VERTEX
  8
0
  5
641
 10
3.97934
 20
8.33166
 30
0.000000
  70
    32
  0
VERTEX
  8
0
  5
642
 10
3.92731
 20
8.34895
 30
0.000000
  70
    32
  0
VERTEX
  8
0
  5
643
 10
3.87518
 20
8.36601
 30
0.000000
  70
    32
  0
VERTEX
  8
0
  5
644
 10
3.82293
 20
8.38285
 30
0.000000
  70
    32
  0
VERTEX
  8
0
  5
645
 10
3.77058
 20
8.39946
 30
0.000000
  70
    32
  0
VERTEX
  8
0
  5
646
 10
3.71813
 20
8.41584
 30
0.000000
  70
    32
  0
VERTEX
  8
0
  5
647
 10
3.66557
 20
8.43200
 30
0.000000
  70
    32
  0
VERTEX
  8
0
  5
648
 10
3.61291
 20
8.44793
 30
0.000000
  70
    32
  0
VERTEX
  8
0
  5
649
 10
3.56015
 20
8.46362
 30
0.000000
  70
    32
  0
VERTEX
  8
0
  5
64A
 10
3.50729
 20
8.47909
 30
0.000000
  70
    32
  0
VERTEX
  8
0
  5
64B
 10
3.45433
 20
8.49433
 30
0.000000
  70
    32
  0
VERTEX
  8
0
  5
64C
 10
3.40128
 20
8.50934
 30
0.000000
  70
    32
  0
VERTEX
  8
0
  5
64D
 10
3.34813
 20
8.52412
 30
0.000000
  70
    32
  0
VERTEX
  8
0
  5
64E
 10
3.29489
 20
8.53866
 30
0.000000
  70
    32
  0
VERTEX
  8
0
  5
64F
 10
3.24156
 20
8.55297
 30
0.000000
  70
    32
  0
VERTEX
  8
0
  5
650
 10
3.18814
 20
8.56705
 30
0.000000
  70
    32
  0
VERTEX
  8
0
  5
651
 10
3.13463
 20
8.58089
 30
0.000000
  70
    32
  0
VERTEX
  8
0
  5
652
 10
3.08103
 20
8.59450
 30
0.000000
  70
    32
  0
VERTEX
  8
0
  5
653
 10
3.02735
 20
8.60788
 30
0.000000
  70
    32
  0
VERTEX
  8
0
  5
654
 10
2.97358
 20
8.62102
 30
0.000000
  70
    32
  0
VERTEX
  8
0
  5
655
 10
2.91973
 20
8.63392
 30
0.000000
  70
    32
  0
VERTEX
  8
0
  5
656
 10
2.86580
 20
8.64659
 30
0.000000
  70
    32
  0
VERTEX
  8
0
  5
657
 10
2.81179
 20
8.65902
 30
0.000000
  70
    32
  0
VERTEX
  8
0
  5
658
 10
2.75770
 20
8.67121
 30
0.000000
  70
    32
  0
VERTEX
  8
0
  5
659
 10
2.70353
 20
8.68316
 30
0.000000
  70
    32
  0
VERTEX
  8
0
  5
65A
 10
2.64929
 20
8.69487
 30
0.000000
  70
    32
  0
VERTEX
  8
0
  5
65B
 10
2.59497
 20
8.70635
 30
0.000000
  70
    32
  0
VERTEX
  8
0
  5
65C
 10
2.54058
 20
8.71758
 30
0.000000
  70
    32
  0
VERTEX
  8
0
  5
65D
 10
2.48612
 20
8.72857
 30
0.000000
  70
    32
  0
VERTEX
  8
0
  5
65E
 10
2.43159
 20
8.73932
 30
0.000000
  70
    32
  0
VERTEX
  8
0
  5
65F
 10
2.37699
 20
8.74983
 30
0.000000
  70
    32
  0
VERTEX
  8
0
  5
660
 10
2.32232
 20
8.76010
 30
0.000000
  70
    32
  0
VERTEX
  8
0
  5
661
 10
2.26758
 20
8.77012
 30
0.000000
  70
    32
  0
VERTEX
  8
0
  5
662
 10
2.21278
 20
8.77991
 30
0.000000
  70
    32
  0
VERTEX
  8
0
  5
663
 10
2.15792
 20
8.78945
 30
0.000000
  70
    32
  0
VERTEX
  8
0
  5
664
 10
2.10299
 20
8.79875
 30
0.000000
  70
    32
  0
VERTEX
  8
0
  5
665
 10
2.04801
 20
8.80781
 30
0.000000
  70
    32
  0
VERTEX
  8
0
  5
666
 10
1.99297
 20
8.81663
 30
0.000000
  70
    32
  0
VERTEX
  8
0
  5
667
 10
1.93786
 20
8.82521
 30
0.000000
  70
    32
  0
VERTEX
  8
0
  5
668
 10
1.88271
 20
8.83355
 30
0.000000
  70
    32
  0
VERTEX
  8
0
  5
669
 10
1.82750
 20
8.84165
 30
0.000000
  70
    32
  0
VERTEX
  8
0
  5
66A
 10
1.77224
 20
8.84950
 30
0.000000
  70
    32
  0
VERTEX
  8
0
  5
66B
 10
1.71692
 20
8.85711
 30
0.000000
  70
    32
  0
VERTEX
  8
0
  5
66C
 10
1.66156
 20
8.86448
 30
0.000000
  70
    32
  0
VERTEX
  8
0
  5
66D
 10
1.60616
 20
8.87161
 30
0.000000
  70
    32
  0
VERTEX
  8
0
  5
66E
 10
1.55070
 20
8.87850
 30
0.000000
  70
    32
  0
VERTEX
  8
0
  5
66F
 10
1.49520
 20
8.88514
 30
0.000000
  70
    32
  0
VERTEX
  8
0
  5
670
 10
1.43966
 20
8.89154
 30
0.000000
  70
    32
  0
VERTEX
  8
0
  5
671
 10
1.38408
 20
8.89770
 30
0.000000
  70
    32
  0
VERTEX
  8
0
  5
672
 10
1.32846
 20
8.90362
 30
0.000000
  70
    32
  0
VERTEX
  8
0
  5
673
 10
1.27280
 20
8.90930
 30
0.000000
  70
    32
  0
VERTEX
  8
0
  5
674
 10
1.21711
 20
8.91473
 30
0.000000
  70
    32
  0
VERTEX
  8
0
  5
675
 10
1.16138
 20
8.91992
 30
0.000000
  70
    32
  0
VERTEX
  8
0
  5
676
 10
1.10561
 20
8.92487
 30
0.000000
  70
    32
  0
VERTEX
  8
0
  5
677
 10
1.04982
 20
8.92957
 30
0.000000
  70
    32
  0
VERTEX
  8
0
  5
678
 10
0.993998
 20
8.93403
 30
0.000000
  70
    32
  0
VERTEX
  8
0
  5
679
 10
0.938147
 20
8.93825
 30
0.000000
  70
    32
  0
VERTEX
  8
0
  5
67A
 10
0.882269
 20
8.94223
 30
0.000000
  70
    32
  0
VERTEX
  8
0
  5
67B
 10
0.826367
 20
8.94596
 30
0.000000
  70
    32
  0
VERTEX
  8
0
  5
67C
 10
0.770441
 20
8.94945
 30
0.000000
  70
    32
  0
VERTEX
  8
0
  5
67D
 10
0.714494
 20
8.95270
 30
0.000000
  70
    32
  0
VERTEX
  8
0
  5
67E
 10
0.658526
 20
8.95570
 30
0.000000
  70
    32
  0
VERTEX
  8
0
  5
67F
 10
0.602540
 20
8.95846
 30
0.000000
  70
    32
  0
VERTEX
  8
0
  5
680
 10
0.546538
 20
8.96098
 30
0.000000
  70
    32
  0
VERTEX
  8
0
  5
681
 10
0.490520
 20
8.96325
 30
0.000000
  70
    32
  0
VERTEX
  8
0
  5
682
 10
0.434488
 20
8.96528
 30
0.000000
  70
    32
  0
VERTEX
  8
0
  5
683
 10
0.378444
 20
8.96707
 30
0.000000
  70
    32
  0
VERTEX
  8
0
  5
684
 10
0.322390
 20
8.96861
 30
0.000000
  70
    32
  0
VERTEX
  8
0
  5
685
 10
0.266327
 20
8.96991
 30
0.000000
  70
    32
  0
VERTEX
  8
0
  5
686
 10
0.210257
 20
8.97096
 30
0.000000
  70
    32
  0
VERTEX
  8
0
  5
687
 10
0.154181
 20
8.97177
 30
0.000000
  70
    32
  0
VERTEX
  8
0
  5
688
 10
0.0981010
 20
8.97234
 30
0.000000
  70
    32
  0
VERTEX
  8
0
  5
689
 10
0.0420186
 20
8.97266
 30
0.000000
  70
    32
  0
VERTEX
  8
0
  5
68A
 10
-0.0140646
 20
8.97274
 30
0.000000
  70
    32
  0
VERTEX
  8
0
  5
68B
 10
-0.0701470
 20
8.97257
 30
0.000000
  70
    32
  0
VERTEX
  8
0
  5
68C
 10
-0.126227
 20
8.97216
 30
0.000000
  70
    32
  0
VERTEX
  8
0
  5
68D
 10
-0.182303
 20
8.97150
 30
0.000000
  70
    32
  0
VERTEX
  8
0
  5
68E
 10
-0.238374
 20
8.97060
 30
0.000000
  70
    32
  0
VERTEX
  8
0
  5
68F
 10
-0.294437
 20
8.96946
 30
0.000000
  70
    32
  0
VERTEX
  8
0
  5
690
 10
-0.350491
 20
8.96807
 30
0.000000
  70
    32
  0
VERTEX
  8
0
  5
691
 10
-0.406536
 20
8.96643
 30
0.000000
  70
    32
  0
VERTEX
  8
0
  5
692
 10
-0.462568
 20
8.96455
 30
0.000000
  70
    32
  0
VERTEX
  8
0
  5
693
 10
-0.518586
 20
8.96243
 30
0.000000
  70
    32
  0
VERTEX
  8
0
  5
694
 10
-0.574590
 20
8.96006
 30
0.000000
  70
    32
  0
VERTEX
  8
0
  5
695
 10
-0.630576
 20
8.95745
 30
0.000000
  70
    32
  0
VERTEX
  8
0
  5
696
 10
-0.686544
 20
8.95459
 30
0.000000
  70
    32
  0
VERTEX
  8
0
  5
697
 10
-0.742493
 20
8.95148
 30
0.000000
  70
    32
  0
VERTEX
  8
0
  5
698
 10
-0.798419
 20
8.94813
 30
0.000000
  70
    32
  0
VERTEX
  8
0
  5
699
 10
-0.854323
 20
8.94453
 30
0.000000
  70
    32
  0
VERTEX
  8
0
  5
69A
 10
-0.910201
 20
8.94069
 30
0.000000
  70
    32
  0
VERTEX
  8
0
  5
69B
 10
-0.966053
 20
8.93661
 30
0.000000
  70
    32
  0
VERTEX
  8
0
  5
69C
 10
-1.02188
 20
8.93227
 30
0.000000
  70
    32
  0
VERTEX
  8
0
  5
69D
 10
-1.07767
 20
8.92769
 30
0.000000
  70
    32
  0
VERTEX
  8
0
  5
69E
 10
-1.13344
 20
8.92287
 30
0.000000
  70
    32
  0
VERTEX
  8
0
  5
69F
 10
-1.18917
 20
8.91780
 30
0.000000
  70
    32
  0
VERTEX
  8
0
  5
6A0
 10
-1.24486
 20
8.91248
 30
0.000000
  70
    32
  0
VERTEX
  8
0
  5
6A1
 10
-1.30052
 20
8.90692
 30
0.000000
  70
    32
  0
VERTEX
  8
0
  5
6A2
 10
-1.35614
 20
8.90111
 30
0.000000
  70
    32
  0
VERTEX
  8
0
  5
6A3
 10
-1.41173
 20
8.89506
 30
0.000000
  70
    32
  0
VERTEX
  8
0
  5
6A4
 10
-1.46727
 20
8.88875
 30
0.000000
  70
    32
  0
VERTEX
  8
0
  5
6A5
 10
-1.52277
 20
8.88221
 30
0.000000
  70
    32
  0
VERTEX
  8
0
  5
6A6
 10
-1.57823
 20
8.87541
 30
0.000000
  70
    32
  0
VERTEX
  8
0
  5
6A7
 10
-1.63364
 20
8.86837
 30
0.000000
  70
    32
  0
VERTEX
  8
0
  5
6A8
 10
-1.68901
 20
8.86109
 30
0.000000
  70
    32
  0
VERTEX
  8
0
  5
6A9
 10
-1.74433
 20
8.85356
 30
0.000000
  70
    32
  0
VERTEX
  8
0
  5
6AA
 10
-1.79960
 20
8.84579
 30
0.000000
  70
    32
  0
VERTEX
  8
0
  5
6AB
 10
-1.85482
 20
8.83777
 30
0.000000
  70
    32
  0
VERTEX
  8
0
  5
6AC
 10
-1.90999
 20
8.82951
 30
0.000000
  70
    32
  0
VERTEX
  8
0
  5
6AD
 10
-1.96511
 20
8.82101
 30
0.000000
  70
    32
  0
VERTEX
  8
0
  5
6AE
 10
-2.02017
 20
8.81227
 30
0.000000
  70
    32
  0
VERTEX
  8
0
  5
6AF
 10
-2.07518
 20
8.80329
 30
0.000000
  70
    32
  0
VERTEX
  8
0
  5
6B0
 10
-2.13013
 20
8.79407
 30
0.000000
  70
    32
  0
VERTEX
  8
0
  5
6B1
 10
-2.18502
 20
8.78460
 30
0.000000
  70
    32
  0
VERTEX
  8
0
  5
6B2
 10
-2.23985
 20
8.77490
 30
0.000000
  70
    32
  0
VERTEX
  8
0
  5
6B3
 10
-2.29462
 20
8.76495
 30
0.000000
  70
    32
  0
VERTEX
  8
0
  5
6B4
 10
-2.34932
 20
8.75477
 30
0.000000
  70
    32
  0
VERTEX
  8
0
  5
6B5
 10
-2.40396
 20
8.74435
 30
0.000000
  70
    32
  0
VERTEX
  8
0
  5
6B6
 10
-2.45854
 20
8.73369
 30
0.000000
  70
    32
  0
VERTEX
  8
0
  5
6B7
 10
-2.51304
 20
8.72279
 30
0.000000
  70
    32
  0
VERTEX
  8
0
  5
6B8
 10
-2.56748
 20
8.71166
 30
0.000000
  70
    32
  0
VERTEX
  8
0
  5
6B9
 10
-2.62184
 20
8.70028
 30
0.000000
  70
    32
  0
VERTEX
  8
0
  5
6BA
 10
-2.67614
 20
8.68868
 30
0.000000
  70
    32
  0
VERTEX
  8
0
  5
6BB
 10
-2.73036
 20
8.67683
 30
0.000000
  70
    32
  0
VERTEX
  8
0
  5
6BC
 10
-2.78450
 20
8.66475
 30
0.000000
  70
    32
  0
VERTEX
  8
0
  5
6BD
 10
-2.83856
 20
8.65244
 30
0.000000
  70
    32
  0
VERTEX
  8
0
  5
6BE
 10
-2.89255
 20
8.63989
 30
0.000000
  70
    32
  0
VERTEX
  8
0
  5
6BF
 10
-2.94646
 20
8.62711
 30
0.000000
  70
    32
  0
VERTEX
  8
0
  5
6C0
 10
-3.00029
 20
8.61409
 30
0.000000
  70
    32
  0
VERTEX
  8
0
  5
6C1
 10
-3.05403
 20
8.60084
 30
0.000000
  70
    32
  0
VERTEX
  8
0
  5
6C2
 10
-3.10769
 20
8.58736
 30
0.000000
  70
    32
  0
VERTEX
  8
0
  5
6C3
 10
-3.16126
 20
8.57364
 30
0.000000
  70
    32
  0
VERTEX
  8
0
  5
6C4
 10
-3.21474
 20
8.55969
 30
0.000000
  70
    32
  0
VERTEX
  8
0
  5
6C5
 10
-3.26814
 20
8.54552
 30
0.000000
  70
    32
  0
VERTEX
  8
0
  5
6C6
 10
-3.32144
 20
8.53111
 30
0.000000
  70
    32
  0
VERTEX
  8
0
  5
6C7
 10
-3.37465
 20
8.51647
 30
0.000000
  70
    32
  0
VERTEX
  8
0
  5
6C8
 10
-3.42777
 20
8.50160
 30
0.000000
  70
    32
  0
VERTEX
  8
0
  5
6C9
 10
-3.48079
 20
8.48650
 30
0.000000
  70
    32
  0
VERTEX
  8
0
  5
6CA
 10
-3.53372
 20
8.47117
 30
0.000000
  70
    32
  0
VERTEX
  8
0
  5
6CB
 10
-3.58655
 20
8.45561
 30
0.000000
  70
    32
  0
VERTEX
  8
0
  5
6CC
 10
-3.63928
 20
8.43983
 30
0.000000
  70
    32
  0
VERTEX
  8
0
  5
6CD
 10
-3.69190
 20
8.42381
 30
0.000000
  70
    32
  0
VERTEX
  8
0
  5
6CE
 10
-3.74443
 20
8.40757
 30
0.000000
  70
    32
  0
VERTEX
  8
0
  5
6CF
 10
-3.79685
 20
8.39111
 30
0.000000
  70
    32
  0
VERTEX
  8
0
  5
6D0
 10
-3.84916
 20
8.37441
 30
0.000000
  70
    32
  0
VERTEX
  8
0
  5
6D1
 10
-3.90137
 20
8.35749
 30
0.000000
  70
    32
  0
VERTEX
  8
0
  5
6D2
 10
-3.95347
 20
8.34035
 30
0.000000
  70
    32
  0
VERTEX
  8
0
  5
6D3
 10
-4.00546
 20
8.32298
 30
0.000000
  70
    32
  0
VERTEX
  8
0
  5
6D4
 10
-4.05733
 20
8.30538
 30
0.000000
  70
    32
  0
VERTEX
  8
0
  5
6D5
 10
-4.10909
 20
8.28756
 30
0.000000
  70
    32
  0
VERTEX
  8
0
  5
6D6
 10
-4.16074
 20
8.26952
 30
0.000000
  70
    32
  0
VERTEX
  8
0
  5
6D7
 10
-4.21227
 20
8.25126
 30
0.000000
  70
    32
  0
VERTEX
  8
0
  5
6D8
 10
-4.26369
 20
8.23277
 30
0.000000
  70
    32
  0
VERTEX
  8
0
  5
6D9
 10
-4.31498
 20
8.21406
 30
0.000000
  70
    32
  0
VERTEX
  8
0
  5
6DA
 10
-4.36615
 20
8.19512
 30
0.000000
  70
    32
  0
VERTEX
  8
0
  5
6DB
 10
-4.41720
 20
8.17597
 30
0.000000
  70
    32
  0
VERTEX
  8
0
  5
6DC
 10
-4.46813
 20
8.15660
 30
0.000000
  70
    32
  0
VERTEX
  8
0
  5
6DD
 10
-4.51893
 20
8.13700
 30
0.000000
  70
    32
  0
VERTEX
  8
0
  5
6DE
 10
-4.56960
 20
8.11718
 30
0.000000
  70
    32
  0
VERTEX
  8
0
  5
6DF
 10
-4.62015
 20
8.09715
 30
0.000000
  70
    32
  0
VERTEX
  8
0
  5
6E0
 10
-4.67056
 20
8.07689
 30
0.000000
  70
    32
  0
VERTEX
  8
0
  5
6E1
 10
-4.72085
 20
8.05642
 30
0.000000
  70
    32
  0
VERTEX
  8
0
  5
6E2
 10
-4.77100
 20
8.03573
 30
0.000000
  70
    32
  0
VERTEX
  8
0
  5
6E3
 10
-4.82101
 20
8.01482
 30
0.000000
  70
    32
  0
VERTEX
  8
0
  5
6E4
 10
-4.87089
 20
7.99369
 30
0.000000
  70
    32
  0
VERTEX
  8
0
  5
6E5
 10
-4.92064
 20
7.97235
 30
0.000000
  70
    32
  0
VERTEX
  8
0
  5
6E6
 10
-4.97024
 20
7.95079
 30
0.000000
  70
    32
  0
VERTEX
  8
0
  5
6E7
 10
-5.01970
 20
7.92902
 30
0.000000
  70
    32
  0
VERTEX
  8
0
  5
6E8
 10
-5.06902
 20
7.90702
 30
0.000000
  70
    32
  0
VERTEX
  8
0
  5
6E9
 10
-5.11820
 20
7.88482
 30
0.000000
  70
    32
  0
VERTEX
  8
0
  5
6EA
 10
-5.16723
 20
7.86240
 30
0.000000
  70
    32
  0
VERTEX
  8
0
  5
6EB
 10
-5.21612
 20
7.83976
 30
0.000000
  70
    32
  0
VERTEX
  8
0
  5
6EC
 10
-5.26485
 20
7.81691
 30
0.000000
  70
    32
  0
VERTEX
  8
0
  5
6ED
 10
-5.31344
 20
7.79385
 30
0.000000
  70
    32
  0
VERTEX
  8
0
  5
6EE
 10
-5.36188
 20
7.77058
 30
0.000000
  70
    32
  0
VERTEX
  8
0
  5
6EF
 10
-5.41018
 20
7.74709
 30
0.000000
  70
    32
  0
VERTEX
  8
0
  5
6F0
 10
-5.45832
 20
7.72340
 30
0.000000
  70
    32
  0
VERTEX
  8
0
  5
6F1
 10
-5.50631
 20
7.69950
 30
0.000000
  70
    32
  0
VERTEX
  8
0
  5
6F2
 10
-5.55414
 20
7.67539
 30
0.000000
  70
    32
  0
VERTEX
  8
0
  5
6F3
 10
-5.60182
 20
7.65107
 30
0.000000
  70
    32
  0
VERTEX
  8
0
  5
6F4
 10
-5.64935
 20
7.62654
 30
0.000000
  70
    32
  0
VERTEX
  8
0
  5
6F5
 10
-5.69672
 20
7.60181
 30
0.000000
  70
    32
  0
VERTEX
  8
0
  5
6F6
 10
-5.74393
 20
7.57688
 30
0.000000
  70
    32
  0
VERTEX
  8
0
  5
6F7
 10
-5.79098
 20
7.55174
 30
0.000000
  70
    32
  0
VERTEX
  8
0
  5
6F8
 10
-5.83788
 20
7.52640
 30
0.000000
  70
    32
  0
VERTEX
  8
0
  5
6F9
 10
-5.88461
 20
7.50085
 30
0.000000
  70
    32
  0
VERTEX
  8
0
  5
6FA
 10
-5.93118
 20
7.47511
 30
0.000000
  70
    32
  0
VERTEX
  8
0
  5
6FB
 10
-5.97758
 20
7.44917
 30
0.000000
  70
    32
  0
VERTEX
  8
0
  5
6FC
 10
-6.02382
 20
7.42302
 30
0.000000
  70
    32
  0
VERTEX
  8
0
  5
6FD
 10
-6.06990
 20
7.39668
 30
0.000000
  70
    32
  0
VERTEX
  8
0
  5
6FE
 10
-6.11581
 20
7.37014
 30
0.000000
  70
    32
  0
VERTEX
  8
0
  5
6FF
 10
-6.16154
 20
7.34341
 30
0.000000
  70
    32
  0
VERTEX
  8
0
  5
700
 10
-6.20711
 20
7.31648
 30
0.000000
  70
    32
  0
VERTEX
  8
0
  5
701
 10
-6.25251
 20
7.28935
 30
0.000000
  70
    32
  0
VERTEX
  8
0
  5
702
 10
-6.29774
 20
7.26203
 30
0.000000
  70
    32
  0
VERTEX
  8
0
  5
703
 10
-6.34280
 20
7.23452
 30
0.000000
  70
    32
  0
VERTEX
  8
0
  5
704
 10
-6.38768
 20
7.20681
 30
0.000000
  70
    32
  0
VERTEX
  8
0
  5
705
 10
-6.43238
 20
7.17892
 30
0.000000
  70
    32
  0
VERTEX
  8
0
  5
706
 10
-6.47691
 20
7.15083
 30
0.000000
  70
    32
  0
VERTEX
  8
0
  5
707
 10
-6.52126
 20
7.12256
 30
0.000000
  70
    32
  0
VERTEX
  8
0
  5
708
 10
-6.56543
 20
7.09410
 30
0.000000
  70
    32
  0
VERTEX
  8
0
  5
709
 10
-6.60942
 20
7.06545
 30
0.000000
  70
    32
  0
VERTEX
  8
0
  5
70A
 10
-6.65323
 20
7.03661
 30
0.000000
  70
    32
  0
VERTEX
  8
0
  5
70B
 10
-6.69686
 20
7.00759
 30
0.000000
  70
    32
  0
VERTEX
  8
0
  5
70C
 10
-6.74031
 20
6.97838
 30
0.000000
  70
    32
  0
VERTEX
  8
0
  5
70D
 10
-6.78357
 20
6.94899
 30
0.000000
  70
    32
  0
VERTEX
  8
0
  5
70E
 10
-6.82664
 20
6.91942
 30
0.000000
  70
    32
  0
VERTEX
  8
0
  5
70F
 10
-6.86953
 20
6.88966
 30
0.000000
  70
    32
  0
VERTEX
  8
0
  5
710
 10
-6.91223
 20
6.85972
 30
0.000000
  70
    32
  0
VERTEX
  8
0
  5
711
 10
-6.95474
 20
6.82961
 30
0.000000
  70
    32
  0
VERTEX
  8
0
  5
712
 10
-6.99706
 20
6.79931
 30
0.000000
  70
    32
  0
VERTEX
  8
0
  5
713
 10
-7.03918
 20
6.76884
 30
0.000000
  70
    32
  0
VERTEX
  8
0
  5
714
 10
-7.08112
 20
6.73818
 30
0.000000
  70
    32
  0
VERTEX
  8
0
  5
715
 10
-7.12286
 20
6.70735
 30
0.000000
  70
    32
  0
VERTEX
  8
0
  5
716
 10
-7.16440
 20
6.67635
 30
0.000000
  70
    32
  0
VERTEX
  8
0
  5
717
 10
-7.20575
 20
6.64517
 30
0.000000
  70
    32
  0
VERTEX
  8
0
  5
718
 10
-7.24690
 20
6.61382
 30
0.000000
  70
    32
  0
VERTEX
  8
0
  5
719
 10
-7.28785
 20
6.58229
 30
0.000000
  70
    32
  0
VERTEX
  8
0
  5
71A
 10
-7.32861
 20
6.55059
 30
0.000000
  70
    32
  0
VERTEX
  8
0
  5
71B
 10
-7.36916
 20
6.51872
 30
0.000000
  70
    32
  0
VERTEX
  8
0
  5
71C
 10
-7.40951
 20
6.48668
 30
0.000000
  70
    32
  0
VERTEX
  8
0
  5
71D
 10
-7.44965
 20
6.45447
 30
0.000000
  70
    32
  0
VERTEX
  8
0
  5
71E
 10
-7.48959
 20
6.42209
 30
0.000000
  70
    32
  0
VERTEX
  8
0
  5
71F
 10
-7.52933
 20
6.38955
 30
0.000000
  70
    32
  0
VERTEX
  8
0
  5
720
 10
-7.56885
 20
6.35684
 30
0.000000
  70
    32
  0
VERTEX
  8
0
  5
721
 10
-7.60817
 20
6.32396
 30
0.000000
  70
    32
  0
VERTEX
  8
0
  5
722
 10
-7.64728
 20
6.29092
 30
0.000000
  70
    32
  0
VERTEX
  8
0
  5
723
 10
-7.68618
 20
6.25771
 30
0.000000
  70
    32
  0
VERTEX
  8
0
  5
724
 10
-7.72487
 20
6.22434
 30
0.000000
  70
    32
  0
VERTEX
  8
0
  5
725
 10
-7.76335
 20
6.19081
 30
0.000000
  70
    32
  0
VERTEX
  8
0
  5
726
 10
-7.80161
 20
6.15711
 30
0.000000
  70
    32
  0
VERTEX
  8
0
  5
727
 10
-7.83965
 20
6.12326
 30
0.000000
  70
    32
  0
VERTEX
  8
0
  5
728
 10
-7.87748
 20
6.08925
 30
0.000000
  70
    32
  0
VERTEX
  8
0
  5
729
 10
-7.91510
 20
6.05507
 30
0.000000
  70
    32
  0
VERTEX
  8
0
  5
72A
 10
-7.95249
 20
6.02074
 30
0.000000
  70
    32
  0
VERTEX
  8
0
  5
72B
 10
-7.98966
 20
5.98626
 30
0.000000
  70
    32
  0
VERTEX
  8
0
  5
72C
 10
-8.02662
 20
5.95161
 30
0.000000
  70
    32
  0
VERTEX
  8
0
  5
72D
 10
-8.06335
 20
5.91682
 30
0.000000
  70
    32
  0
VERTEX
  8
0
  5
72E
 10
-8.09985
 20
5.88187
 30
0.000000
  70
    32
  0
VERTEX
  8
0
  5
72F
 10
-8.13614
 20
5.84676
 30
0.000000
  70
    32
  0
VERTEX
  8
0
  5
730
 10
-8.17219
 20
5.81150
 30
0.000000
  70
    32
  0
VERTEX
  8
0
  5
731
 10
-8.20802
 20
5.77610
 30
0.000000
  70
    32
  0
VERTEX
  8
0
  5
732
 10
-8.24362
 20
5.74054
 30
0.000000
  70
    32
  0
VERTEX
  8
0
  5
733
 10
-8.27900
 20
5.70483
 30
0.000000
  70
    32
  0
VERTEX
  8
0
  5
734
 10
-8.31414
 20
5.66897
 30
0.000000
  70
    32
  0
VERTEX
  8
0
  5
735
 10
-8.34906
 20
5.63297
 30
0.000000
  70
    32
  0
VERTEX
  8
0
  5
736
 10
-8.38375
 20
5.59682
 30
0.000000
  70
    32
  0
VERTEX
  8
0
  5
737
 10
-8.41821
 20
5.56052
 30
0.000000
  70
    32
  0
VERTEX
  8
0
  5
738
 10
-8.45245
 20
5.52408
 30
0.000000
  70
    32
  0
VERTEX
  8
0
  5
739
 10
-8.48645
 20
5.48749
 30
0.000000
  70
    32
  0
VERTEX
  8
0
  5
73A
 10
-8.52022
 20
5.45077
 30
0.000000
  70
    32
  0
VERTEX
  8
0
  5
73B
 10
-8.55375
 20
5.41390
 30
0.000000
  70
    32
  0
VERTEX
  8
0
  5
73C
 10
-8.58706
 20
5.37689
 30
0.000000
  70
    32
  0
VERTEX
  8
0
  5
73D
 10
-8.62013
 20
5.33975
 30
0.000000
  70
    32
  0
VERTEX
  8
0
  5
73E
 10
-8.65297
 20
5.30246
 30
0.000000
  70
    32
  0
VERTEX
  8
0
  5
73F
 10
-8.68558
 20
5.26504
 30
0.000000
  70
    32
  0
VERTEX
  8
0
  5
740
 10
-8.71794
 20
5.22749
 30
0.000000
  70
    32
  0
VERTEX
  8
0
  5
741
 10
-8.75008
 20
5.18980
 30
0.000000
  70
    32
  0
VERTEX
  8
0
  5
742
 10
-8.78198
 20
5.15198
 30
0.000000
  70
    32
  0
VERTEX
  8
0
  5
743
 10
-8.81364
 20
5.11402
 30
0.000000
  70
    32
  0
VERTEX
  8
0
  5
744
 10
-8.84506
 20
5.07594
 30
0.000000
  70
    32
  0
VERTEX
  8
0
  5
745
 10
-8.87624
 20
5.03772
 30
0.000000
  70
    32
  0
VERTEX
  8
0
  5
746
 10
-8.90719
 20
4.99938
 30
0.000000
  70
    32
  0
VERTEX
  8
0
  5
747
 10
-8.93790
 20
4.96091
 30
0.000000
  70
    32
  0
VERTEX
  8
0
  5
748
 10
-8.96836
 20
4.92231
 30
0.000000
  70
    32
  0
VERTEX
  8
0
  5
749
 10
-8.99859
 20
4.88359
 30
0.000000
  70
    32
  0
VERTEX
  8
0
  5
74A
 10
-9.02857
 20
4.84475
 30
0.000000
  70
    32
  0
VERTEX
  8
0
  5
74B
 10
-9.05831
 20
4.80578
 30
0.000000
  70
    32
  0
VERTEX
  8
0
  5
74C
 10
-9.08781
 20
4.76669
 30
0.000000
  70
    32
  0
VERTEX
  8
0
  5
74D
 10
-9.11707
 20
4.72748
 30
0.000000
  70
    32
  0
VERTEX
  8
0
  5
74E
 10
-9.14608
 20
4.68815
 30
0.000000
  70
    32
  0
VERTEX
  8
0
  5
74F
 10
-9.17484
 20
4.64870
 30
0.000000
  70
    32
  0
VERTEX
  8
0
  5
750
 10
-9.20337
 20
4.60913
 30
0.000000
  70
    32
  0
VERTEX
  8
0
  5
751
 10
-9.23164
 20
4.56945
 30
0.000000
  70
    32
  0
VERTEX
  8
0
  5
752
 10
-9.25967
 20
4.52965
 30
0.000000
  70
    32
  0
VERTEX
  8
0
  5
753
 10
-9.28745
 20
4.48974
 30
0.000000
  70
    32
  0
VERTEX
  8
0
  5
754
 10
-9.31498
 20
4.44972
 30
0.000000
  70
    32
  0
VERTEX
  8
0
  5
755
 10
-9.34227
 20
4.40958
 30
0.000000
  70
    32
  0
VERTEX
  8
0
  5
756
 10
-9.36931
 20
4.36934
 30
0.000000
  70
    32
  0
VERTEX
  8
0
  5
757
 10
-9.39609
 20
4.32898
 30
0.000000
  70
    32
  0
VERTEX
  8
0
  5
758
 10
-9.42263
 20
4.28852
 30
0.000000
  70
    32
  0
VERTEX
  8
0
  5
759
 10
-9.44891
 20
4.24795
 30
0.000000
  70
    32
  0
VERTEX
  8
0
  5
75A
 10
-9.47494
 20
4.20727
 30
0.000000
  70
    32
  0
VERTEX
  8
0
  5
75B
 10
-9.50072
 20
4.16649
 30
0.000000
  70
    32
  0
VERTEX
  8
0
  5
75C
 10
-9.52625
 20
4.12561
 30
0.000000
  70
    32
  0
VERTEX
  8
0
  5
75D
 10
-9.55152
 20
4.08462
 30
0.000000
  70
    32
  0
VERTEX
  8
0
  5
75E
 10
-9.57654
 20
4.04353
 30
0.000000
  70
    32
  0
VERTEX
  8
0
  5
75F
 10
-9.60131
 20
4.00234
 30
0.000000
  70
    32
  0
VERTEX
  8
0
  5
760
 10
-9.62581
 20
3.96106
 30
0.000000
  70
    32
  0
VERTEX
  8
0
  5
761
 10
-9.65007
 20
3.91967
 30
0.000000
  70
    32
  0
VERTEX
  8
0
  5
762
 10
-9.67406
 20
3.87819
 30
0.000000
  70
    32
  0
VERTEX
  8
0
  5
763
 10
-9.69780
 20
3.83661
 30
0.000000
  70
    32
  0
VERTEX
  8
0
  5
764
 10
-9.72128
 20
3.79493
 30
0.000000
  70
    32
  0
VERTEX
  8
0
  5
765
 10
-9.74450
 20
3.75317
 30
0.000000
  70
    32
  0
VERTEX
  8
0
  5
766
 10
-9.76746
 20
3.71131
 30
0.000000
  70
    32
  0
VERTEX
  8
0
  5
767
 10
-9.79016
 20
3.66936
 30
0.000000
  70
    32
  0
VERTEX
  8
0
  5
768
 10
-9.81260
 20
3.62732
 30
0.000000
  70
    32
  0
VERTEX
  8
0
  5
769
 10
-9.83478
 20
3.58519
 30
0.000000
  70
    32
  0
VERTEX
  8
0
  5
76A
 10
-9.85669
 20
3.54297
 30
0.000000
  70
    32
  0
VERTEX
  8
0
  5
76B
 10
-9.87835
 20
3.50066
 30
0.000000
  70
    32
  0
VERTEX
  8
0
  5
76C
 10
-9.89974
 20
3.45827
 30
0.000000
  70
    32
  0
VERTEX
  8
0
  5
76D
 10
-9.92086
 20
3.41580
 30
0.000000
  70
    32
  0
VERTEX
  8
0
  5
76E
 10
-9.94172
 20
3.37324
 30
0.000000
  70
    32
  0
VERTEX
  8
0
  5
76F
 10
-9.96232
 20
3.33060
 30
0.000000
  70
    32
  0
VERTEX
  8
0
  5
770
 10
-9.98265
 20
3.28788
 30
0.000000
  70
    32
  0
VERTEX
  8
0
  5
771
 10
-10.0027
 20
3.24508
 30
0.000000
  70
    32
  0
VERTEX
  8
0
  5
772
 10
-10.0225
 20
3.20219
 30
0.000000
  70
    32
  0
VERTEX
  8
0
  5
773
 10
-10.0420
 20
3.15924
 30
0.000000
  70
    32
  0
VERTEX
  8
0
  5
774
 10
-10.0613
 20
3.11620
 30
0.000000
  70
    32
  0
VERTEX
  8
0
  5
775
 10
-10.0803
 20
3.07309
 30
0.000000
  70
    32
  0
VERTEX
  8
0
  5
776
 10
-10.0990
 20
3.02991
 30
0.000000
  70
    32
  0
VERTEX
  8
0
  5
777
 10
-10.1175
 20
2.98665
 30
0.000000
  70
    32
  0
VERTEX
  8
0
  5
778
 10
-10.1356
 20
2.94332
 30
0.000000
  70
    32
  0
VERTEX
  8
0
  5
779
 10
-10.1535
 20
2.89992
 30
0.000000
  70
    32
  0
VERTEX
  8
0
  5
77A
 10
-10.1712
 20
2.85645
 30
0.000000
  70
    32
  0
VERTEX
  8
0
  5
77B
 10
-10.1885
 20
2.81291
 30
0.000000
  70
    32
  0
VERTEX
  8
0
  5
77C
 10
-10.2056
 20
2.76930
 30
0.000000
  70
    32
  0
VERTEX
  8
0
  5
77D
 10
-10.2224
 20
2.72562
 30
0.000000
  70
    32
  0
VERTEX
  8
0
  5
77E
 10
-10.2390
 20
2.68188
 30
0.000000
  70
    32
  0
VERTEX
  8
0
  5
77F
 10
-10.2553
 20
2.63807
 30
0.000000
  70
    32
  0
VERTEX
  8
0
  5
780
 10
-10.2713
 20
2.59419
 30
0.000000
  70
    32
  0
VERTEX
  8
0
  5
781
 10
-10.2870
 20
2.55026
 30
0.000000
  70
    32
  0
VERTEX
  8
0
  5
782
 10
-10.3025
 20
2.50626
 30
0.000000
  70
    32
  0
VERTEX
  8
0
  5
783
 10
-10.3177
 20
2.46219
 30
0.000000
  70
    32
  0
VERTEX
  8
0
  5
784
 10
-10.3326
 20
2.41807
 30
0.000000
  70
    32
  0
VERTEX
  8
0
  5
785
 10
-10.3473
 20
2.37389
 30
0.000000
  70
    32
  0
VERTEX
  8
0
  5
786
 10
-10.3616
 20
2.32965
 30
0.000000
  70
    32
  0
VERTEX
  8
0
  5
787
 10
-10.3757
 20
2.28536
 30
0.000000
  70
    32
  0
VERTEX
  8
0
  5
788
 10
-10.3896
 20
2.24101
 30
0.000000
  70
    32
  0
VERTEX
  8
0
  5
789
 10
-10.4031
 20
2.19660
 30
0.000000
  70
    32
  0
VERTEX
  8
0
  5
78A
 10
-10.4164
 20
2.15214
 30
0.000000
  70
    32
  0
VERTEX
  8
0
  5
78B
 10
-10.4295
 20
2.10763
 30
0.000000
  70
    32
  0
VERTEX
  8
0
  5
78C
 10
-10.4422
 20
2.06307
 30
0.000000
  70
    32
  0
VERTEX
  8
0
  5
78D
 10
-10.4547
 20
2.01845
 30
0.000000
  70
    32
  0
VERTEX
  8
0
  5
78E
 10
-10.4669
 20
1.97379
 30
0.000000
  70
    32
  0
VERTEX
  8
0
  5
78F
 10
-10.4788
 20
1.92908
 30
0.000000
  70
    32
  0
VERTEX
  8
0
  5
790
 10
-10.4904
 20
1.88432
 30
0.000000
  70
    32
  0
VERTEX
  8
0
  5
791
 10
-10.5018
 20
1.83952
 30
0.000000
  70
    32
  0
VERTEX
  8
0
  5
792
 10
-10.5129
 20
1.79467
 30
0.000000
  70
    32
  0
VERTEX
  8
0
  5
793
 10
-10.5238
 20
1.74978
 30
0.000000
  70
    32
  0
VERTEX
  8
0
  5
794
 10
-10.5343
 20
1.70485
 30
0.000000
  70
    32
  0
VERTEX
  8
0
  5
795
 10
-10.5446
 20
1.65988
 30
0.000000
  70
    32
  0
VERTEX
  8
0
  5
796
 10
-10.5546
 20
1.61486
 30
0.000000
  70
    32
  0
VERTEX
  8
0
  5
797
 10
-10.5643
 20
1.56981
 30
0.000000
  70
    32
  0
VERTEX
  8
0
  5
798
 10
-10.5738
 20
1.52472
 30
0.000000
  70
    32
  0
VERTEX
  8
0
  5
799
 10
-10.5830
 20
1.47959
 30
0.000000
  70
    32
  0
VERTEX
  8
0
  5
79A
 10
-10.5919
 20
1.43443
 30
0.000000
  70
    32
  0
VERTEX
  8
0
  5
79B
 10
-10.6005
 20
1.38923
 30
0.000000
  70
    32
  0
VERTEX
  8
0
  5
79C
 10
-10.6089
 20
1.34400
 30
0.000000
  70
    32
  0
VERTEX
  8
0
  5
79D
 10
-10.6169
 20
1.29874
 30
0.000000
  70
    32
  0
VERTEX
  8
0
  5
79E
 10
-10.6247
 20
1.25345
 30
0.000000
  70
    32
  0
VERTEX
  8
0
  5
79F
 10
-10.6323
 20
1.20812
 30
0.000000
  70
    32
  0
VERTEX
  8
0
  5
7A0
 10
-10.6395
 20
1.16277
 30
0.000000
  70
    32
  0
VERTEX
  8
0
  5
7A1
 10
-10.6465
 20
1.11739
 30
0.000000
  70
    32
  0
VERTEX
  8
0
  5
7A2
 10
-10.6532
 20
1.07199
 30
0.000000
  70
    32
  0
VERTEX
  8
0
  5
7A3
 10
-10.6596
 20
1.02655
 30
0.000000
  70
    32
  0
VERTEX
  8
0
  5
7A4
 10
-10.6658
 20
0.981098
 30
0.000000
  70
    32
  0
VERTEX
  8
0
  5
7A5
 10
-10.6716
 20
0.935619
 30
0.000000
  70
    32
  0
VERTEX
  8
0
  5
7A6
 10
-10.6772
 20
0.890117
 30
0.000000
  70
    32
  0
VERTEX
  8
0
  5
7A7
 10
-10.6825
 20
0.844595
 30
0.000000
  70
    32
  0
VERTEX
  8
0
  5
7A8
 10
-10.6876
 20
0.799052
 30
0.000000
  70
    32
  0
VERTEX
  8
0
  5
7A9
 10
-10.6923
 20
0.753491
 30
0.000000
  70
    32
  0
VERTEX
  8
0
  5
7AA
 10
-10.6968
 20
0.707912
 30
0.000000
  70
    32
  0
VERTEX
  8
0
  5
7AB
 10
-10.7010
 20
0.662317
 30
0.000000
  70
    32
  0
VERTEX
  8
0
  5
7AC
 10
-10.7049
 20
0.616707
 30
0.000000
  70
    32
  0
VERTEX
  8
0
  5
7AD
 10
-10.7086
 20
0.571082
 30
0.000000
  70
    32
  0
VERTEX
  8
0
  5
7AE
 10
-10.7120
 20
0.525444
 30
0.000000
  70
    32
  0
VERTEX
  8
0
  5
7AF
 10
-10.7150
 20
0.479794
 30
0.000000
  70
    32
  0
VERTEX
  8
0
  5
7B0
 10
-10.7179
 20
0.434133
 30
0.000000
  70
    32
  0
VERTEX
  8
0
  5
7B1
 10
-10.7204
 20
0.388463
 30
0.000000
  70
    32
  0
VERTEX
  8
0
  5
7B2
 10
-10.7226
 20
0.342784
 30
0.000000
  70
    32
  0
VERTEX
  8
0
  5
7B3
 10
-10.7246
 20
0.297097
 30
0.000000
  70
    32
  0
VERTEX
  8
0
  5
7B4
 10
-10.7263
 20
0.251404
 30
0.000000
  70
    32
  0
VERTEX
  8
0
  5
7B5
 10
-10.7277
 20
0.205705
 30
0.000000
  70
    32
  0
VERTEX
  8
0
  5
7B6
 10
-10.7288
 20
0.160003
 30
0.000000
  70
    32
  0
VERTEX
  8
0
  5
7B7
 10
-10.7297
 20
0.114297
 30
0.000000
  70
    32
  0
VERTEX
  8
0
  5
7B8
 10
-10.7303
 20
0.0685899
 30
0.000000
  70
    32
  0
VERTEX
  8
0
  5
7B9
 10
-10.7306
 20
0.0228816
 30
0.000000
  70
    32
  0
VERTEX
  8
0
  5
7BA
 10
-10.7306
 20
-0.0228263
 30
0.000000
  70
    32
  0
VERTEX
  8
0
  5
7BB
 10
-10.7303
 20
-0.0685328
 30
0.000000
  70
    32
  0
VERTEX
  8
0
  5
7BC
 10
-10.7298
 20
-0.114237
 30
0.000000
  70
    32
  0
VERTEX
  8
0
  5
7BD
 10
-10.7289
 20
-0.159937
 30
0.000000
  70
    32
  0
VERTEX
  8
0
  5
7BE
 10
-10.7278
 20
-0.205632
 30
0.000000
  70
    32
  0
VERTEX
  8
0
  5
7BF
 10
-10.7264
 20
-0.251322
 30
0.000000
  70
    32
  0
VERTEX
  8
0
  5
7C0
 10
-10.7247
 20
-0.297004
 30
0.000000
  70
    32
  0
VERTEX
  8
0
  5
7C1
 10
-10.7228
 20
-0.342678
 30
0.000000
  70
    32
  0
VERTEX
  8
0
  5
7C2
 10
-10.7205
 20
-0.388343
 30
0.000000
  70
    32
  0
VERTEX
  8
0
  5
7C3
 10
-10.7180
 20
-0.433998
 30
0.000000
  70
    32
  0
VERTEX
  8
0
  5
7C4
 10
-10.7152
 20
-0.479641
 30
0.000000
  70
    32
  0
VERTEX
  8
0
  5
7C5
 10
-10.7121
 20
-0.525275
 30
0.000000
  70
    32
  0
VERTEX
  8
0
  5
7C6
 10
-10.7088
 20
-0.570897
 30
0.000000
  70
    32
  0
VERTEX
  8
0
  5
7C7
 10
-10.7051
 20
-0.616508
 30
0.000000
  70
    32
  0
VERTEX
  8
0
  5
7C8
 10
-10.7012
 20
-0.662105
 30
0.000000
  70
    32
  0
VERTEX
  8
0
  5
7C9
 10
-10.6970
 20
-0.707687
 30
0.000000
  70
    32
  0
VERTEX
  8
0
  5
7CA
 10
-10.6925
 20
-0.753254
 30
0.000000
  70
    32
  0
VERTEX
  8
0
  5
7CB
 10
-10.6878
 20
-0.798804
 30
0.000000
  70
    32
  0
VERTEX
  8
0
  5
7CC
 10
-10.6827
 20
-0.844336
 30
0.000000
  70
    32
  0
VERTEX
  8
0
  5
7CD
 10
-10.6774
 20
-0.889849
 30
0.000000
  70
    32
  0
VERTEX
  8
0
  5
7CE
 10
-10.6718
 20
-0.935342
 30
0.000000
  70
    32
  0
VERTEX
  8
0
  5
7CF
 10
-10.6659
 20
-0.980814
 30
0.000000
  70
    32
  0
VERTEX
  8
0
  5
7D0
 10
-10.6598
 20
-1.02626
 30
0.000000
  70
    32
  0
VERTEX
  8
0
  5
7D1
 10
-10.6534
 20
-1.07169
 30
0.000000
  70
    32
  0
VERTEX
  8
0
  5
7D2
 10
-10.6467
 20
-1.11709
 30
0.000000
  70
    32
  0
VERTEX
  8
0
  5
7D3
 10
-10.6397
 20
-1.16246
 30
0.000000
  70
    32
  0
VERTEX
  8
0
  5
7D4
 10
-10.6324
 20
-1.20781
 30
0.000000
  70
    32
  0
VERTEX
  8
0
  5
7D5
 10
-10.6249
 20
-1.25313
 30
0.000000
  70
    32
  0
VERTEX
  8
0
  5
7D6
 10
-10.6171
 20
-1.29842
 30
0.000000
  70
    32
  0
VERTEX
  8
0
  5
7D7
 10
-10.6090
 20
-1.34368
 30
0.000000
  70
    32
  0
VERTEX
  8
0
  5
7D8
 10
-10.6006
 20
-1.38891
 30
0.000000
  70
    32
  0
VERTEX
  8
0
  5
7D9
 10
-10.5920
 20
-1.43411
 30
0.000000
  70
    32
  0
VERTEX
  8
0
  5
7DA
 10
-10.5830
 20
-1.47927
 30
0.000000
  70
    32
  0
VERTEX
  8
0
  5
7DB
 10
-10.5738
 20
-1.52440
 30
0.000000
  70
    32
  0
VERTEX
  8
0
  5
7DC
 10
-10.5644
 20
-1.56949
 30
0.000000
  70
    32
  0
VERTEX
  8
0
  5
7DD
 10
-10.5546
 20
-1.61455
 30
0.000000
  70
    32
  0
VERTEX
  8
0
  5
7DE
 10
-10.5446
 20
-1.65956
 30
0.000000
  70
    32
  0
VERTEX
  8
0
  5
7DF
 10
-10.5343
 20
-1.70454
 30
0.000000
  70
    32
  0
VERTEX
  8
0
  5
7E0
 10
-10.5237
 20
-1.74947
 30
0.000000
  70
    32
  0
VERTEX
  8
0
  5
7E1
 10
-10.5129
 20
-1.79437
 30
0.000000
  70
    32
  0
VERTEX
  8
0
  5
7E2
 10
-10.5018
 20
-1.83922
 30
0.000000
  70
    32
  0
VERTEX
  8
0
  5
7E3
 10
-10.4904
 20
-1.88403
 30
0.000000
  70
    32
  0
VERTEX
  8
0
  5
7E4
 10
-10.4787
 20
-1.92879
 30
0.000000
  70
    32
  0
VERTEX
  8
0
  5
7E5
 10
-10.4668
 20
-1.97351
 30
0.000000
  70
    32
  0
VERTEX
  8
0
  5
7E6
 10
-10.4546
 20
-2.01818
 30
0.000000
  70
    32
  0
VERTEX
  8
0
  5
7E7
 10
-10.4421
 20
-2.06280
 30
0.000000
  70
    32
  0
VERTEX
  8
0
  5
7E8
 10
-10.4293
 20
-2.10737
 30
0.000000
  70
    32
  0
VERTEX
  8
0
  5
7E9
 10
-10.4163
 20
-2.15189
 30
0.000000
  70
    32
  0
VERTEX
  8
0
  5
7EA
 10
-10.4030
 20
-2.19636
 30
0.000000
  70
    32
  0
VERTEX
  8
0
  5
7EB
 10
-10.3894
 20
-2.24077
 30
0.000000
  70
    32
  0
VERTEX
  8
0
  5
7EC
 10
-10.3756
 20
-2.28513
 30
0.000000
  70
    32
  0
VERTEX
  8
0
  5
7ED
 10
-10.3615
 20
-2.32944
 30
0.000000
  70
    32
  0
VERTEX
  8
0
  5
7EE
 10
-10.3471
 20
-2.37369
 30
0.000000
  70
    32
  0
VERTEX
  8
0
  5
7EF
 10
-10.3324
 20
-2.41788
 30
0.000000
  70
    32
  0
VERTEX
  8
0
  5
7F0
 10
-10.3175
 20
-2.46201
 30
0.000000
  70
    32
  0
VERTEX
  8
0
  5
7F1
 10
-10.3023
 20
-2.50608
 30
0.000000
  70
    32
  0
VERTEX
  8
0
  5
7F2
 10
-10.2868
 20
-2.55010
 30
0.000000
  70
    32
  0
VERTEX
  8
0
  5
7F3
 10
-10.2711
 20
-2.59405
 30
0.000000
  70
    32
  0
VERTEX
  8
0
  5
7F4
 10
-10.2551
 20
-2.63793
 30
0.000000
  70
    32
  0
VERTEX
  8
0
  5
7F5
 10
-10.2388
 20
-2.68176
 30
0.000000
  70
    32
  0
VERTEX
  8
0
  5
7F6
 10
-10.2223
 20
-2.72551
 30
0.000000
  70
    32
  0
VERTEX
  8
0
  5
7F7
 10
-10.2055
 20
-2.76920
 30
0.000000
  70
    32
  0
VERTEX
  8
0
  5
7F8
 10
-10.1884
 20
-2.81282
 30
0.000000
  70
    32
  0
VERTEX
  8
0
  5
7F9
 10
-10.1710
 20
-2.85638
 30
0.000000
  70
    32
  0
VERTEX
  8
0
  5
7FA
 10
-10.1534
 20
-2.89986
 30
0.000000
  70
    32
  0
VERTEX
  8
0
  5
7FB
 10
-10.1355
 20
-2.94327
 30
0.000000
  70
    32
  0
VERTEX
  8
0
  5
7FC
 10
-10.1173
 20
-2.98661
 30
0.000000
  70
    32
  0
VERTEX
  8
0
  5
7FD
 10
-10.0989
 20
-3.02988
 30
0.000000
  70
    32
  0
VERTEX
  8
0
  5
7FE
 10
-10.0802
 20
-3.07307
 30
0.000000
  70
    32
  0
VERTEX
  8
0
  5
7FF
 10
-10.0612
 20
-3.11619
 30
0.000000
  70
    32
  0
VERTEX
  8
0
  5
800
 10
-10.0420
 20
-3.15923
 30
0.000000
  70
    32
  0
VERTEX
  8
0
  5
801
 10
-10.0225
 20
-3.20219
 30
0.000000
  70
    32
  0
VERTEX
  8
0
  5
802
 10
-10.0027
 20
-3.24507
 30
0.000000
  70
    32
  0
VERTEX
  8
0
  5
803
 10
-9.98271
 20
-3.28787
 30
0.000000
  70
    32
  0
VERTEX
  8
0
  5
804
 10
-9.96241
 20
-3.33059
 30
0.000000
  70
    32
  0
VERTEX
  8
0
  5
805
 10
-9.94184
 20
-3.37323
 30
0.000000
  70
    32
  0
VERTEX
  8
0
  5
806
 10
-9.92101
 20
-3.41579
 30
0.000000
  70
    32
  0
VERTEX
  8
0
  5
807
 10
-9.89991
 20
-3.45826
 30
0.000000
  70
    32
  0
VERTEX
  8
0
  5
808
 10
-9.87855
 20
-3.50064
 30
0.000000
  70
    32
  0
VERTEX
  8
0
  5
809
 10
-9.85692
 20
-3.54294
 30
0.000000
  70
    32
  0
VERTEX
  8
0
  5
80A
 10
-9.83503
 20
-3.58515
 30
0.000000
  70
    32
  0
VERTEX
  8
0
  5
80B
 10
-9.81287
 20
-3.62727
 30
0.000000
  70
    32
  0
VERTEX
  8
0
  5
80C
 10
-9.79045
 20
-3.66929
 30
0.000000
  70
    32
  0
VERTEX
  8
0
  5
80D
 10
-9.76776
 20
-3.71123
 30
0.000000
  70
    32
  0
VERTEX
  8
0
  5
80E
 10
-9.74482
 20
-3.75308
 30
0.000000
  70
    32
  0
VERTEX
  8
0
  5
80F
 10
-9.72161
 20
-3.79483
 30
0.000000
  70
    32
  0
VERTEX
  8
0
  5
810
 10
-9.69813
 20
-3.83650
 30
0.000000
  70
    32
  0
VERTEX
  8
0
  5
811
 10
-9.67440
 20
-3.87806
 30
0.000000
  70
    32
  0
VERTEX
  8
0
  5
812
 10
-9.65041
 20
-3.91953
 30
0.000000
  70
    32
  0
VERTEX
  8
0
  5
813
 10
-9.62616
 20
-3.96091
 30
0.000000
  70
    32
  0
VERTEX
  8
0
  5
814
 10
-9.60165
 20
-4.00219
 30
0.000000
  70
    32
  0
VERTEX
  8
0
  5
815
 10
-9.57689
 20
-4.04337
 30
0.000000
  70
    32
  0
VERTEX
  8
0
  5
816
 10
-9.55186
 20
-4.08444
 30
0.000000
  70
    32
  0
VERTEX
  8
0
  5
817
 10
-9.52659
 20
-4.12542
 30
0.000000
  70
    32
  0
VERTEX
  8
0
  5
818
 10
-9.50105
 20
-4.16630
 30
0.000000
  70
    32
  0
VERTEX
  8
0
  5
819
 10
-9.47526
 20
-4.20707
 30
0.000000
  70
    32
  0
VERTEX
  8
0
  5
81A
 10
-9.44922
 20
-4.24773
 30
0.000000
  70
    32
  0
VERTEX
  8
0
  5
81B
 10
-9.42293
 20
-4.28830
 30
0.000000
  70
    32
  0
VERTEX
  8
0
  5
81C
 10
-9.39638
 20
-4.32875
 30
0.000000
  70
    32
  0
VERTEX
  8
0
  5
81D
 10
-9.36958
 20
-4.36910
 30
0.000000
  70
    32
  0
VERTEX
  8
0
  5
81E
 10
-9.34253
 20
-4.40934
 30
0.000000
  70
    32
  0
VERTEX
  8
0
  5
81F
 10
-9.31523
 20
-4.44947
 30
0.000000
  70
    32
  0
VERTEX
  8
0
  5
820
 10
-9.28768
 20
-4.48948
 30
0.000000
  70
    32
  0
VERTEX
  8
0
  5
821
 10
-9.25989
 20
-4.52939
 30
0.000000
  70
    32
  0
VERTEX
  8
0
  5
822
 10
-9.23184
 20
-4.56918
 30
0.000000
  70
    32
  0
VERTEX
  8
0
  5
823
 10
-9.20355
 20
-4.60886
 30
0.000000
  70
    32
  0
VERTEX
  8
0
  5
824
 10
-9.17501
 20
-4.64842
 30
0.000000
  70
    32
  0
VERTEX
  8
0
  5
825
 10
-9.14622
 20
-4.68786
 30
0.000000
  70
    32
  0
VERTEX
  8
0
  5
826
 10
-9.11719
 20
-4.72719
 30
0.000000
  70
    32
  0
VERTEX
  8
0
  5
827
 10
-9.08792
 20
-4.76640
 30
0.000000
  70
    32
  0
VERTEX
  8
0
  5
828
 10
-9.05840
 20
-4.80549
 30
0.000000
  70
    32
  0
VERTEX
  8
0
  5
829
 10
-9.02864
 20
-4.84445
 30
0.000000
  70
    32
  0
VERTEX
  8
0
  5
82A
 10
-8.99864
 20
-4.88330
 30
0.000000
  70
    32
  0
VERTEX
  8
0
  5
82B
 10
-8.96840
 20
-4.92202
 30
0.000000
  70
    32
  0
VERTEX
  8
0
  5
82C
 10
-8.93791
 20
-4.96062
 30
0.000000
  70
    32
  0
VERTEX
  8
0
  5
82D
 10
-8.90719
 20
-4.99909
 30
0.000000
  70
    32
  0
VERTEX
  8
0
  5
82E
 10
-8.87622
 20
-5.03743
 30
0.000000
  70
    32
  0
VERTEX
  8
0
  5
82F
 10
-8.84502
 20
-5.07565
 30
0.000000
  70
    32
  0
VERTEX
  8
0
  5
830
 10
-8.81358
 20
-5.11374
 30
0.000000
  70
    32
  0
VERTEX
  8
0
  5
831
 10
-8.78190
 20
-5.15170
 30
0.000000
  70
    32
  0
VERTEX
  8
0
  5
832
 10
-8.74999
 20
-5.18952
 30
0.000000
  70
    32
  0
VERTEX
  8
0
  5
833
 10
-8.71784
 20
-5.22722
 30
0.000000
  70
    32
  0
VERTEX
  8
0
  5
834
 10
-8.68546
 20
-5.26478
 30
0.000000
  70
    32
  0
VERTEX
  8
0
  5
835
 10
-8.65284
 20
-5.30221
 30
0.000000
  70
    32
  0
VERTEX
  8
0
  5
836
 10
-8.61999
 20
-5.33950
 30
0.000000
  70
    32
  0
VERTEX
  8
0
  5
837
 10
-8.58691
 20
-5.37665
 30
0.000000
  70
    32
  0
VERTEX
  8
0
  5
838
 10
-8.55359
 20
-5.41367
 30
0.000000
  70
    32
  0
VERTEX
  8
0
  5
839
 10
-8.52004
 20
-5.45055
 30
0.000000
  70
    32
  0
VERTEX
  8
0
  5
83A
 10
-8.48627
 20
-5.48728
 30
0.000000
  70
    32
  0
VERTEX
  8
0
  5
83B
 10
-8.45226
 20
-5.52388
 30
0.000000
  70
    32
  0
VERTEX
  8
0
  5
83C
 10
-8.41802
 20
-5.56033
 30
0.000000
  70
    32
  0
VERTEX
  8
0
  5
83D
 10
-8.38356
 20
-5.59665
 30
0.000000
  70
    32
  0
VERTEX
  8
0
  5
83E
 10
-8.34887
 20
-5.63281
 30
0.000000
  70
    32
  0
VERTEX
  8
0
  5
83F
 10
-8.31395
 20
-5.66883
 30
0.000000
  70
    32
  0
VERTEX
  8
0
  5
840
 10
-8.27880
 20
-5.70471
 30
0.000000
  70
    32
  0
VERTEX
  8
0
  5
841
 10
-8.24343
 20
-5.74043
 30
0.000000
  70
    32
  0
VERTEX
  8
0
  5
842
 10
-8.20784
 20
-5.77601
 30
0.000000
  70
    32
  0
VERTEX
  8
0
  5
843
 10
-8.17202
 20
-5.81144
 30
0.000000
  70
    32
  0
VERTEX
  8
0
  5
844
 10
-8.13598
 20
-5.84671
 30
0.000000
  70
    32
  0
VERTEX
  8
0
  5
845
 10
-8.09971
 20
-5.88184
 30
0.000000
  70
    32
  0
VERTEX
  8
0
  5
846
 10
-8.06323
 20
-5.91681
 30
0.000000
  70
    32
  0
VERTEX
  8
0
  5
847
 10
-8.02652
 20
-5.95162
 30
0.000000
  70
    32
  0
VERTEX
  8
0
  5
848
 10
-7.98959
 20
-5.98628
 30
0.000000
  70
    32
  0
VERTEX
  8
0
  5
849
 10
-7.95244
 20
-6.02079
 30
0.000000
  70
    32
  0
VERTEX
  8
0
  5
84A
 10
-7.91508
 20
-6.05513
 30
0.000000
  70
    32
  0
VERTEX
  8
0
  5
84B
 10
-7.87749
 20
-6.08932
 30
0.000000
  70
    32
  0
VERTEX
  8
0
  5
84C
 10
-7.83969
 20
-6.12334
 30
0.000000
  70
    32
  0
VERTEX
  8
0
  5
84D
 10
-7.80168
 20
-6.15721
 30
0.000000
  70
    32
  0
VERTEX
  8
0
  5
84E
 10
-7.76344
 20
-6.19091
 30
0.000000
  70
    32
  0
VERTEX
  8
0
  5
84F
 10
-7.72499
 20
-6.22445
 30
0.000000
  70
    32
  0
VERTEX
  8
0
  5
850
 10
-7.68633
 20
-6.25783
 30
0.000000
  70
    32
  0
VERTEX
  8
0
  5
851
 10
-7.64745
 20
-6.29103
 30
0.000000
  70
    32
  0
VERTEX
  8
0
  5
852
 10
-7.60836
 20
-6.32408
 30
0.000000
  70
    32
  0
VERTEX
  8
0
  5
853
 10
-7.56906
 20
-6.35695
 30
0.000000
  70
    32
  0
VERTEX
  8
0
  5
854
 10
-7.52955
 20
-6.38966
 30
0.000000
  70
    32
  0
VERTEX
  8
0
  5
855
 10
-7.48983
 20
-6.42220
 30
0.000000
  70
    32
  0
VERTEX
  8
0
  5
856
 10
-7.44990
 20
-6.45457
 30
0.000000
  70
    32
  0
VERTEX
  8
0
  5
857
 10
-7.40976
 20
-6.48677
 30
0.000000
  70
    32
  0
VERTEX
  8
0
  5
858
 10
-7.36942
 20
-6.51881
 30
0.000000
  70
    32
  0
VERTEX
  8
0
  5
859
 10
-7.32888
 20
-6.55067
 30
0.000000
  70
    32
  0
VERTEX
  8
0
  5
85A
 10
-7.28813
 20
-6.58236
 30
0.000000
  70
    32
  0
VERTEX
  8
0
  5
85B
 10
-7.24718
 20
-6.61387
 30
0.000000
  70
    32
  0
VERTEX
  8
0
  5
85C
 10
-7.20603
 20
-6.64522
 30
0.000000
  70
    32
  0
VERTEX
  8
0
  5
85D
 10
-7.16469
 20
-6.67638
 30
0.000000
  70
    32
  0
VERTEX
  8
0
  5
85E
 10
-7.12314
 20
-6.70738
 30
0.000000
  70
    32
  0
VERTEX
  8
0
  5
85F
 10
-7.08140
 20
-6.73819
 30
0.000000
  70
    32
  0
VERTEX
  8
0
  5
860
 10
-7.03946
 20
-6.76883
 30
0.000000
  70
    32
  0
VERTEX
  8
0
  5
861
 10
-6.99733
 20
-6.79929
 30
0.000000
  70
    32
  0
VERTEX
  8
0
  5
862
 10
-6.95501
 20
-6.82958
 30
0.000000
  70
    32
  0
VERTEX
  8
0
  5
863
 10
-6.91250
 20
-6.85968
 30
0.000000
  70
    32
  0
VERTEX
  8
0
  5
864
 10
-6.86979
 20
-6.88960
 30
0.000000
  70
    32
  0
VERTEX
  8
0
  5
865
 10
-6.82689
 20
-6.91934
 30
0.000000
  70
    32
  0
VERTEX
  8
0
  5
866
 10
-6.78381
 20
-6.94890
 30
0.000000
  70
    32
  0
VERTEX
  8
0
  5
867
 10
-6.74054
 20
-6.97828
 30
0.000000
  70
    32
  0
VERTEX
  8
0
  5
868
 10
-6.69709
 20
-7.00747
 30
0.000000
  70
    32
  0
VERTEX
  8
0
  5
869
 10
-6.65345
 20
-7.03648
 30
0.000000
  70
    32
  0
VERTEX
  8
0
  5
86A
 10
-6.60963
 20
-7.06531
 30
0.000000
  70
    32
  0
VERTEX
  8
0
  5
86B
 10
-6.56562
 20
-7.09394
 30
0.000000
  70
    32
  0
VERTEX
  8
0
  5
86C
 10
-6.52144
 20
-7.12239
 30
0.000000
  70
    32
  0
VERTEX
  8
0
  5
86D
 10
-6.47708
 20
-7.15065
 30
0.000000
  70
    32
  0
VERTEX
  8
0
  5
86E
 10
-6.43254
 20
-7.17873
 30
0.000000
  70
    32
  0
VERTEX
  8
0
  5
86F
 10
-6.38782
 20
-7.20661
 30
0.000000
  70
    32
  0
VERTEX
  8
0
  5
870
 10
-6.34292
 20
-7.23430
 30
0.000000
  70
    32
  0
VERTEX
  8
0
  5
871
 10
-6.29786
 20
-7.26180
 30
0.000000
  70
    32
  0
VERTEX
  8
0
  5
872
 10
-6.25261
 20
-7.28911
 30
0.000000
  70
    32
  0
VERTEX
  8
0
  5
873
 10
-6.20720
 20
-7.31623
 30
0.000000
  70
    32
  0
VERTEX
  8
0
  5
874
 10
-6.16162
 20
-7.34315
 30
0.000000
  70
    32
  0
VERTEX
  8
0
  5
875
 10
-6.11586
 20
-7.36988
 30
0.000000
  70
    32
  0
VERTEX
  8
0
  5
876
 10
-6.06994
 20
-7.39641
 30
0.000000
  70
    32
  0
VERTEX
  8
0
  5
877
 10
-6.02385
 20
-7.42275
 30
0.000000
  70
    32
  0
VERTEX
  8
0
  5
878
 10
-5.97760
 20
-7.44889
 30
0.000000
  70
    32
  0
VERTEX
  8
0
  5
879
 10
-5.93118
 20
-7.47483
 30
0.000000
  70
    32
  0
VERTEX
  8
0
  5
87A
 10
-5.88460
 20
-7.50057
 30
0.000000
  70
    32
  0
VERTEX
  8
0
  5
87B
 10
-5.83785
 20
-7.52611
 30
0.000000
  70
    32
  0
VERTEX
  8
0
  5
87C
 10
-5.79095
 20
-7.55145
 30
0.000000
  70
    32
  0
VERTEX
  8
0
  5
87D
 10
-5.74389
 20
-7.57659
 30
0.000000
  70
    32
  0
VERTEX
  8
0
  5
87E
 10
-5.69666
 20
-7.60153
 30
0.000000
  70
    32
  0
VERTEX
  8
0
  5
87F
 10
-5.64928
 20
-7.62626
 30
0.000000
  70
    32
  0
VERTEX
  8
0
  5
880
 10
-5.60175
 20
-7.65079
 30
0.000000
  70
    32
  0
VERTEX
  8
0
  5
881
 10
-5.55406
 20
-7.67512
 30
0.000000
  70
    32
  0
VERTEX
  8
0
  5
882
 10
-5.50621
 20
-7.69924
 30
0.000000
  70
    32
  0
VERTEX
  8
0
  5
883
 10
-5.45821
 20
-7.72315
 30
0.000000
  70
    32
  0
VERTEX
  8
0
  5
884
 10
-5.41007
 20
-7.74686
 30
0.000000
  70
    32
  0
VERTEX
  8
0
  5
885
 10
-5.36177
 20
-7.77036
 30
0.000000
  70
    32
  0
VERTEX
  8
0
  5
886
 10
-5.31332
 20
-7.79365
 30
0.000000
  70
    32
  0
VERTEX
  8
0
  5
887
 10
-5.26473
 20
-7.81673
 30
0.000000
  70
    32
  0
VERTEX
  8
0
  5
888
 10
-5.21599
 20
-7.83960
 30
0.000000
  70
    32
  0
VERTEX
  8
0
  5
889
 10
-5.16711
 20
-7.86225
 30
0.000000
  70
    32
  0
VERTEX
  8
0
  5
88A
 10
-5.11808
 20
-7.88470
 30
0.000000
  70
    32
  0
VERTEX
  8
0
  5
88B
 10
-5.06891
 20
-7.90693
 30
0.000000
  70
    32
  0
VERTEX
  8
0
  5
88C
 10
-5.01960
 20
-7.92895
 30
0.000000
  70
    32
  0
VERTEX
  8
0
  5
88D
 10
-4.97015
 20
-7.95075
 30
0.000000
  70
    32
  0
VERTEX
  8
0
  5
88E
 10
-4.92056
 20
-7.97233
 30
0.000000
  70
    32
  0
VERTEX
  8
0
  5
88F
 10
-4.87083
 20
-7.99371
 30
0.000000
  70
    32
  0
VERTEX
  8
0
  5
890
 10
-4.82097
 20
-8.01486
 30
0.000000
  70
    32
  0
VERTEX
  8
0
  5
891
 10
-4.77097
 20
-8.03579
 30
0.000000
  70
    32
  0
VERTEX
  8
0
  5
892
 10
-4.72084
 20
-8.05651
 30
0.000000
  70
    32
  0
VERTEX
  8
0
  5
893
 10
-4.67057
 20
-8.07700
 30
0.000000
  70
    32
  0
VERTEX
  8
0
  5
894
 10
-4.62018
 20
-8.09728
 30
0.000000
  70
    32
  0
VERTEX
  8
0
  5
895
 10
-4.56965
 20
-8.11733
 30
0.000000
  70
    32
  0
VERTEX
  8
0
  5
896
 10
-4.51900
 20
-8.13716
 30
0.000000
  70
    32
  0
VERTEX
  8
0
  5
897
 10
-4.46821
 20
-8.15677
 30
0.000000
  70
    32
  0
VERTEX
  8
0
  5
898
 10
-4.41730
 20
-8.17615
 30
0.000000
  70
    32
  0
VERTEX
  8
0
  5
899
 10
-4.36627
 20
-8.19531
 30
0.000000
  70
    32
  0
VERTEX
  8
0
  5
89A
 10
-4.31511
 20
-8.21425
 30
0.000000
  70
    32
  0
VERTEX
  8
0
  5
89B
 10
-4.26383
 20
-8.23296
 30
0.000000
  70
    32
  0
VERTEX
  8
0
  5
89C
 10
-4.21243
 20
-8.25145
 30
0.000000
  70
    32
  0
VERTEX
  8
0
  5
89D
 10
-4.16091
 20
-8.26971
 30
0.000000
  70
    32
  0
VERTEX
  8
0
  5
89E
 10
-4.10928
 20
-8.28775
 30
0.000000
  70
    32
  0
VERTEX
  8
0
  5
89F
 10
-4.05752
 20
-8.30556
 30
0.000000
  70
    32
  0
VERTEX
  8
0
  5
8A0
 10
-4.00566
 20
-8.32315
 30
0.000000
  70
    32
  0
VERTEX
  8
0
  5
8A1
 10
-3.95368
 20
-8.34051
 30
0.000000
  70
    32
  0
VERTEX
  8
0
  5
8A2
 10
-3.90158
 20
-8.35765
 30
0.000000
  70
    32
  0
VERTEX
  8
0
  5
8A3
 10
-3.84938
 20
-8.37456
 30
0.000000
  70
    32
  0
VERTEX
  8
0
  5
8A4
 10
-3.79707
 20
-8.39125
 30
0.000000
  70
    32
  0
VERTEX
  8
0
  5
8A5
 10
-3.74466
 20
-8.40770
 30
0.000000
  70
    32
  0
VERTEX
  8
0
  5
8A6
 10
-3.69214
 20
-8.42393
 30
0.000000
  70
    32
  0
VERTEX
  8
0
  5
8A7
 10
-3.63951
 20
-8.43993
 30
0.000000
  70
    32
  0
VERTEX
  8
0
  5
8A8
 10
-3.58679
 20
-8.45570
 30
0.000000
  70
    32
  0
VERTEX
  8
0
  5
8A9
 10
-3.53396
 20
-8.47124
 30
0.000000
  70
    32
  0
VERTEX
  8
0
  5
8AA
 10
-3.48103
 20
-8.48656
 30
0.000000
  70
    32
  0
VERTEX
  8
0
  5
8AB
 10
-3.42801
 20
-8.50164
 30
0.000000
  70
    32
  0
VERTEX
  8
0
  5
8AC
 10
-3.37489
 20
-8.51650
 30
0.000000
  70
    32
  0
VERTEX
  8
0
  5
8AD
 10
-3.32168
 20
-8.53112
 30
0.000000
  70
    32
  0
VERTEX
  8
0
  5
8AE
 10
-3.26837
 20
-8.54551
 30
0.000000
  70
    32
  0
VERTEX
  8
0
  5
8AF
 10
-3.21497
 20
-8.55968
 30
0.000000
  70
    32
  0
VERTEX
  8
0
  5
8B0
 10
-3.16148
 20
-8.57361
 30
0.000000
  70
    32
  0
VERTEX
  8
0
  5
8B1
 10
-3.10791
 20
-8.58731
 30
0.000000
  70
    32
  0
VERTEX
  8
0
  5
8B2
 10
-3.05425
 20
-8.60077
 30
0.000000
  70
    32
  0
VERTEX
  8
0
  5
8B3
 10
-3.00050
 20
-8.61401
 30
0.000000
  70
    32
  0
VERTEX
  8
0
  5
8B4
 10
-2.94667
 20
-8.62701
 30
0.000000
  70
    32
  0
VERTEX
  8
0
  5
8B5
 10
-2.89275
 20
-8.63978
 30
0.000000
  70
    32
  0
VERTEX
  8
0
  5
8B6
 10
-2.83876
 20
-8.65231
 30
0.000000
  70
    32
  0
VERTEX
  8
0
  5
8B7
 10
-2.78468
 20
-8.66461
 30
0.000000
  70
    32
  0
VERTEX
  8
0
  5
8B8
 10
-2.73053
 20
-8.67667
 30
0.000000
  70
    32
  0
VERTEX
  8
0
  5
8B9
 10
-2.67631
 20
-8.68850
 30
0.000000
  70
    32
  0
VERTEX
  8
0
  5
8BA
 10
-2.62201
 20
-8.70010
 30
0.000000
  70
    32
  0
VERTEX
  8
0
  5
8BB
 10
-2.56763
 20
-8.71146
 30
0.000000
  70
    32
  0
VERTEX
  8
0
  5
8BC
 10
-2.51319
 20
-8.72258
 30
0.000000
  70
    32
  0
VERTEX
  8
0
  5
8BD
 10
-2.45867
 20
-8.73347
 30
0.000000
  70
    32
  0
VERTEX
  8
0
  5
8BE
 10
-2.40409
 20
-8.74412
 30
0.000000
  70
    32
  0
VERTEX
  8
0
  5
8BF
 10
-2.34944
 20
-8.75453
 30
0.000000
  70
    32
  0
VERTEX
  8
0
  5
8C0
 10
-2.29472
 20
-8.76471
 30
0.000000
  70
    32
  0
VERTEX
  8
0
  5
8C1
 10
-2.23995
 20
-8.77465
 30
0.000000
  70
    32
  0
VERTEX
  8
0
  5
8C2
 10
-2.18511
 20
-8.78435
 30
0.000000
  70
    32
  0
VERTEX
  8
0
  5
8C3
 10
-2.13020
 20
-8.79381
 30
0.000000
  70
    32
  0
VERTEX
  8
0
  5
8C4
 10
-2.07524
 20
-8.80303
 30
0.000000
  70
    32
  0
VERTEX
  8
0
  5
8C5
 10
-2.02023
 20
-8.81201
 30
0.000000
  70
    32
  0
VERTEX
  8
0
  5
8C6
 10
-1.96515
 20
-8.82075
 30
0.000000
  70
    32
  0
VERTEX
  8
0
  5
8C7
 10
-1.91002
 20
-8.82926
 30
0.000000
  70
    32
  0
VERTEX
  8
0
  5
8C8
 10
-1.85484
 20
-8.83752
 30
0.000000
  70
    32
  0
VERTEX
  8
0
  5
8C9
 10
-1.79961
 20
-8.84554
 30
0.000000
  70
    32
  0
VERTEX
  8
0
  5
8CA
 10
-1.74433
 20
-8.85332
 30
0.000000
  70
    32
  0
VERTEX
  8
0
  5
8CB
 10
-1.68900
 20
-8.86085
 30
0.000000
  70
    32
  0
VERTEX
  8
0
  5
8CC
 10
-1.63362
 20
-8.86815
 30
0.000000
  70
    32
  0
VERTEX
  8
0
  5
8CD
 10
-1.57820
 20
-8.87520
 30
0.000000
  70
    32
  0
VERTEX
  8
0
  5
8CE
 10
-1.52273
 20
-8.88201
 30
0.000000
  70
    32
  0
VERTEX
  8
0
  5
8CF
 10
-1.46722
 20
-8.88858
 30
0.000000
  70
    32
  0
VERTEX
  8
0
  5
8D0
 10
-1.41167
 20
-8.89490
 30
0.000000
  70
    32
  0
VERTEX
  8
0
  5
8D1
 10
-1.35609
 20
-8.90098
 30
0.000000
  70
    32
  0
VERTEX
  8
0
  5
8D2
 10
-1.30046
 20
-8.90682
 30
0.000000
  70
    32
  0
VERTEX
  8
0
  5
8D3
 10
-1.24480
 20
-8.91241
 30
0.000000
  70
    32
  0
VERTEX
  8
0
  5
8D4
 10
-1.18910
 20
-8.91776
 30
0.000000
  70
    32
  0
VERTEX
  8
0
  5
8D5
 10
-1.13337
 20
-8.92286
 30
0.000000
  70
    32
  0
VERTEX
  8
0
  5
8D6
 10
-1.07761
 20
-8.92771
 30
0.000000
  70
    32
  0
VERTEX
  8
0
  5
8D7
 10
-1.02182
 20
-8.93232
 30
0.000000
  70
    32
  0
VERTEX
  8
0
  5
8D8
 10
-0.966006
 20
-8.93668
 30
0.000000
  70
    32
  0
VERTEX
  8
0
  5
8D9
 10
-0.910161
 20
-8.94079
 30
0.000000
  70
    32
  0
VERTEX
  8
0
  5
8DA
 10
-0.854291
 20
-8.94466
 30
0.000000
  70
    32
  0
VERTEX
  8
0
  5
8DB
 10
-0.798397
 20
-8.94828
 30
0.000000
  70
    32
  0
VERTEX
  8
0
  5
8DC
 10
-0.742481
 20
-8.95165
 30
0.000000
  70
    32
  0
VERTEX
  8
0
  5
8DD
 10
-0.686545
 20
-8.95477
 30
0.000000
  70
    32
  0
VERTEX
  8
0
  5
8DE
 10
-0.630589
 20
-8.95765
 30
0.000000
  70
    32
  0
VERTEX
  8
0
  5
8DF
 10
-0.574615
 20
-8.96027
 30
0.000000
  70
    32
  0
VERTEX
  8
0
  5
8E0
 10
-0.518624
 20
-8.96265
 30
0.000000
  70
    32
  0
VERTEX
  8
0
  5
8E1
 10
-0.462618
 20
-8.96478
 30
0.000000
  70
    32
  0
VERTEX
  8
0
  5
8E2
 10
-0.406597
 20
-8.96666
 30
0.000000
  70
    32
  0
VERTEX
  8
0
  5
8E3
 10
-0.350565
 20
-8.96830
 30
0.000000
  70
    32
  0
VERTEX
  8
0
  5
8E4
 10
-0.294521
 20
-8.96969
 30
0.000000
  70
    32
  0
VERTEX
  8
0
  5
8E5
 10
-0.238469
 20
-8.97084
 30
0.000000
  70
    32
  0
VERTEX
  8
0
  5
8E6
 10
-0.182409
 20
-8.97174
 30
0.000000
  70
    32
  0
VERTEX
  8
0
  5
8E7
 10
-0.126343
 20
-8.97239
 30
0.000000
  70
    32
  0
VERTEX
  8
0
  5
8E8
 10
-0.0702724
 20
-8.97280
 30
0.000000
  70
    32
  0
VERTEX
  8
0
  5
8E9
 10
-0.0141993
 20
-8.97296
 30
0.000000
  70
    32
  0
VERTEX
  8
0
  5
8EA
 10
0.0418750
 20
-8.97287
 30
0.000000
  70
    32
  0
VERTEX
  8
0
  5
8EB
 10
0.0979489
 20
-8.97254
 30
0.000000
  70
    32
  0
VERTEX
  8
0
  5
8EC
 10
0.154021
 20
-8.97197
 30
0.000000
  70
    32
  0
VERTEX
  8
0
  5
8ED
 10
0.210089
 20
-8.97115
 30
0.000000
  70
    32
  0
VERTEX
  8
0
  5
8EE
 10
0.266152
 20
-8.97008
 30
0.000000
  70
    32
  0
VERTEX
  8
0
  5
8EF
 10
0.322208
 20
-8.96877
 30
0.000000
  70
    32
  0
VERTEX
  8
0
  5
8F0
 10
0.378256
 20
-8.96722
 30
0.000000
  70
    32
  0
VERTEX
  8
0
  5
8F1
 10
0.434294
 20
-8.96542
 30
0.000000
  70
    32
  0
VERTEX
  8
0
  5
8F2
 10
0.490320
 20
-8.96338
 30
0.000000
  70
    32
  0
VERTEX
  8
0
  5
8F3
 10
0.546333
 20
-8.96109
 30
0.000000
  70
    32
  0
VERTEX
  8
0
  5
8F4
 10
0.602332
 20
-8.95856
 30
0.000000
  70
    32
  0
VERTEX
  8
0
  5
8F5
 10
0.658314
 20
-8.95578
 30
0.000000
  70
    32
  0
VERTEX
  8
0
  5
8F6
 10
0.714278
 20
-8.95276
 30
0.000000
  70
    32
  0
VERTEX
  8
0
  5
8F7
 10
0.770222
 20
-8.94950
 30
0.000000
  70
    32
  0
VERTEX
  8
0
  5
8F8
 10
0.826145
 20
-8.94599
 30
0.000000
  70
    32
  0
VERTEX
  8
0
  5
8F9
 10
0.882046
 20
-8.94224
 30
0.000000
  70
    32
  0
VERTEX
  8
0
  5
8FA
 10
0.937922
 20
-8.93825
 30
0.000000
  70
    32
  0
VERTEX
  8
0
  5
8FB
 10
0.993773
 20
-8.93402
 30
0.000000
  70
    32
  0
VERTEX
  8
0
  5
8FC
 10
1.04960
 20
-8.92954
 30
0.000000
  70
    32
  0
VERTEX
  8
0
  5
8FD
 10
1.10539
 20
-8.92482
 30
0.000000
  70
    32
  0
VERTEX
  8
0
  5
8FE
 10
1.16115
 20
-8.91985
 30
0.000000
  70
    32
  0
VERTEX
  8
0
  5
8FF
 10
1.21688
 20
-8.91465
 30
0.000000
  70
    32
  0
VERTEX
  8
0
  5
900
 10
1.27258
 20
-8.90920
 30
0.000000
  70
    32
  0
VERTEX
  8
0
  5
901
 10
1.32824
 20
-8.90351
 30
0.000000
  70
    32
  0
VERTEX
  8
0
  5
902
 10
1.38387
 20
-8.89758
 30
0.000000
  70
    32
  0
VERTEX
  8
0
  5
903
 10
1.43945
 20
-8.89141
 30
0.000000
  70
    32
  0
VERTEX
  8
0
  5
904
 10
1.49500
 20
-8.88499
 30
0.000000
  70
    32
  0
VERTEX
  8
0
  5
905
 10
1.55050
 20
-8.87834
 30
0.000000
  70
    32
  0
VERTEX
  8
0
  5
906
 10
1.60596
 20
-8.87144
 30
0.000000
  70
    32
  0
VERTEX
  8
0
  5
907
 10
1.66137
 20
-8.86430
 30
0.000000
  70
    32
  0
VERTEX
  8
0
  5
908
 10
1.71674
 20
-8.85692
 30
0.000000
  70
    32
  0
VERTEX
  8
0
  5
909
 10
1.77206
 20
-8.84930
 30
0.000000
  70
    32
  0
VERTEX
  8
0
  5
90A
 10
1.82733
 20
-8.84144
 30
0.000000
  70
    32
  0
VERTEX
  8
0
  5
90B
 10
1.88255
 20
-8.83334
 30
0.000000
  70
    32
  0
VERTEX
  8
0
  5
90C
 10
1.93772
 20
-8.82500
 30
0.000000
  70
    32
  0
VERTEX
  8
0
  5
90D
 10
1.99283
 20
-8.81642
 30
0.000000
  70
    32
  0
VERTEX
  8
0
  5
90E
 10
2.04788
 20
-8.80760
 30
0.000000
  70
    32
  0
VERTEX
  8
0
  5
90F
 10
2.10288
 20
-8.79854
 30
0.000000
  70
    32
  0
VERTEX
  8
0
  5
910
 10
2.15782
 20
-8.78924
 30
0.000000
  70
    32
  0
VERTEX
  8
0
  5
911
 10
2.21270
 20
-8.77970
 30
0.000000
  70
    32
  0
VERTEX
  8
0
  5
912
 10
2.26751
 20
-8.76992
 30
0.000000
  70
    32
  0
VERTEX
  8
0
  5
913
 10
2.32226
 20
-8.75990
 30
0.000000
  70
    32
  0
VERTEX
  8
0
  5
914
 10
2.37694
 20
-8.74964
 30
0.000000
  70
    32
  0
VERTEX
  8
0
  5
915
 10
2.43156
 20
-8.73914
 30
0.000000
  70
    32
  0
VERTEX
  8
0
  5
916
 10
2.48611
 20
-8.72841
 30
0.000000
  70
    32
  0
VERTEX
  8
0
  5
917
 10
2.54059
 20
-8.71744
 30
0.000000
  70
    32
  0
VERTEX
  8
0
  5
918
 10
2.59499
 20
-8.70622
 30
0.000000
  70
    32
  0
VERTEX
  8
0
  5
919
 10
2.64932
 20
-8.69477
 30
0.000000
  70
    32
  0
VERTEX
  8
0
  5
91A
 10
2.70358
 20
-8.68308
 30
0.000000
  70
    32
  0
VERTEX
  8
0
  5
91B
 10
2.75776
 20
-8.67116
 30
0.000000
  70
    32
  0
VERTEX
  8
0
  5
91C
 10
2.81186
 20
-8.65899
 30
0.000000
  70
    32
  0
VERTEX
  8
0
  5
91D
 10
2.86588
 20
-8.64659
 30
0.000000
  70
    32
  0
VERTEX
  8
0
  5
91E
 10
2.91982
 20
-8.63395
 30
0.000000
  70
    32
  0
VERTEX
  8
0
  5
91F
 10
2.97368
 20
-8.62108
 30
0.000000
  70
    32
  0
VERTEX
  8
0
  5
920
 10
3.02745
 20
-8.60796
 30
0.000000
  70
    32
  0
VERTEX
  8
0
  5
921
 10
3.08113
 20
-8.59461
 30
0.000000
  70
    32
  0
VERTEX
  8
0
  5
922
 10
3.13473
 20
-8.58103
 30
0.000000
  70
    32
  0
VERTEX
  8
0
  5
923
 10
3.18823
 20
-8.56720
 30
0.000000
  70
    32
  0
VERTEX
  8
0
  5
924
 10
3.24165
 20
-8.55314
 30
0.000000
  70
    32
  0
VERTEX
  8
0
  5
925
 10
3.29497
 20
-8.53885
 30
0.000000
  70
    32
  0
VERTEX
  8
0
  5
926
 10
3.34820
 20
-8.52431
 30
0.000000
  70
    32
  0
VERTEX
  8
0
  5
927
 10
3.40134
 20
-8.50955
 30
0.000000
  70
    32
  0
VERTEX
  8
0
  5
928
 10
3.45438
 20
-8.49455
 30
0.000000
  70
    32
  0
VERTEX
  8
0
  5
929
 10
3.50733
 20
-8.47932
 30
0.000000
  70
    32
  0
VERTEX
  8
0
  5
92A
 10
3.56018
 20
-8.46386
 30
0.000000
  70
    32
  0
VERTEX
  8
0
  5
92B
 10
3.61293
 20
-8.44817
 30
0.000000
  70
    32
  0
VERTEX
  8
0
  5
92C
 10
3.66558
 20
-8.43224
 30
0.000000
  70
    32
  0
VERTEX
  8
0
  5
92D
 10
3.71813
 20
-8.41609
 30
0.000000
  70
    32
  0
VERTEX
  8
0
  5
92E
 10
3.77057
 20
-8.39971
 30
0.000000
  70
    32
  0
VERTEX
  8
0
  5
92F
 10
3.82291
 20
-8.38310
 30
0.000000
  70
    32
  0
VERTEX
  8
0
  5
930
 10
3.87515
 20
-8.36626
 30
0.000000
  70
    32
  0
VERTEX
  8
0
  5
931
 10
3.92727
 20
-8.34919
 30
0.000000
  70
    32
  0
VERTEX
  8
0
  5
932
 10
3.97929
 20
-8.33190
 30
0.000000
  70
    32
  0
VERTEX
  8
0
  5
933
 10
4.03120
 20
-8.31438
 30
0.000000
  70
    32
  0
VERTEX
  8
0
  5
934
 10
4.08299
 20
-8.29663
 30
0.000000
  70
    32
  0
VERTEX
  8
0
  5
935
 10
4.13467
 20
-8.27867
 30
0.000000
  70
    32
  0
VERTEX
  8
0
  5
936
 10
4.18624
 20
-8.26047
 30
0.000000
  70
    32
  0
VERTEX
  8
0
  5
937
 10
4.23770
 20
-8.24206
 30
0.000000
  70
    32
  0
VERTEX
  8
0
  5
938
 10
4.28903
 20
-8.22342
 30
0.000000
  70
    32
  0
VERTEX
  8
0
  5
939
 10
4.34025
 20
-8.20456
 30
0.000000
  70
    32
  0
VERTEX
  8
0
  5
93A
 10
4.39134
 20
-8.18548
 30
0.000000
  70
    32
  0
VERTEX
  8
0
  5
93B
 10
4.44232
 20
-8.16618
 30
0.000000
  70
    32
  0
VERTEX
  8
0
  5
93C
 10
4.49317
 20
-8.14666
 30
0.000000
  70
    32
  0
VERTEX
  8
0
  5
93D
 10
4.54390
 20
-8.12691
 30
0.000000
  70
    32
  0
VERTEX
  8
0
  5
93E
 10
4.59450
 20
-8.10695
 30
0.000000
  70
    32
  0
VERTEX
  8
0
  5
93F
 10
4.64498
 20
-8.08678
 30
0.000000
  70
    32
  0
VERTEX
  8
0
  5
940
 10
4.69532
 20
-8.06638
 30
0.000000
  70
    32
  0
VERTEX
  8
0
  5
941
 10
4.74554
 20
-8.04577
 30
0.000000
  70
    32
  0
VERTEX
  8
0
  5
942
 10
4.79563
 20
-8.02495
 30
0.000000
  70
    32
  0
VERTEX
  8
0
  5
943
 10
4.84558
 20
-8.00390
 30
0.000000
  70
    32
  0
VERTEX
  8
0
  5
944
 10
4.89540
 20
-7.98265
 30
0.000000
  70
    32
  0
VERTEX
  8
0
  5
945
 10
4.94508
 20
-7.96118
 30
0.000000
  70
    32
  0
VERTEX
  8
0
  5
946
 10
4.99463
 20
-7.93949
 30
0.000000
  70
    32
  0
VERTEX
  8
0
  5
947
 10
5.04404
 20
-7.91760
 30
0.000000
  70
    32
  0
VERTEX
  8
0
  5
948
 10
5.09331
 20
-7.89549
 30
0.000000
  70
    32
  0
VERTEX
  8
0
  5
949
 10
5.14244
 20
-7.87317
 30
0.000000
  70
    32
  0
VERTEX
  8
0
  5
94A
 10
5.19143
 20
-7.85064
 30
0.000000
  70
    32
  0
VERTEX
  8
0
  5
94B
 10
5.24027
 20
-7.82790
 30
0.000000
  70
    32
  0
VERTEX
  8
0
  5
94C
 10
5.28897
 20
-7.80495
 30
0.000000
  70
    32
  0
VERTEX
  8
0
  5
94D
 10
5.33752
 20
-7.78179
 30
0.000000
  70
    32
  0
VERTEX
  8
0
  5
94E
 10
5.38592
 20
-7.75843
 30
0.000000
  70
    32
  0
VERTEX
  8
0
  5
94F
 10
5.43418
 20
-7.73485
 30
0.000000
  70
    32
  0
VERTEX
  8
0
  5
950
 10
5.48228
 20
-7.71108
 30
0.000000
  70
    32
  0
VERTEX
  8
0
  5
951
 10
5.53023
 20
-7.68709
 30
0.000000
  70
    32
  0
VERTEX
  8
0
  5
952
 10
5.57803
 20
-7.66290
 30
0.000000
  70
    32
  0
VERTEX
  8
0
  5
953
 10
5.62567
 20
-7.63851
 30
0.000000
  70
    32
  0
VERTEX
  8
0
  5
954
 10
5.67316
 20
-7.61391
 30
0.000000
  70
    32
  0
VERTEX
  8
0
  5
955
 10
5.72049
 20
-7.58910
 30
0.000000
  70
    32
  0
VERTEX
  8
0
  5
956
 10
5.76766
 20
-7.56410
 30
0.000000
  70
    32
  0
VERTEX
  8
0
  5
957
 10
5.81467
 20
-7.53889
 30
0.000000
  70
    32
  0
VERTEX
  8
0
  5
958
 10
5.86152
 20
-7.51349
 30
0.000000
  70
    32
  0
VERTEX
  8
0
  5
959
 10
5.90820
 20
-7.48788
 30
0.000000
  70
    32
  0
VERTEX
  8
0
  5
95A
 10
5.95472
 20
-7.46207
 30
0.000000
  70
    32
  0
VERTEX
  8
0
  5
95B
 10
6.00107
 20
-7.43606
 30
0.000000
  70
    32
  0
VERTEX
  8
0
  5
95C
 10
6.04726
 20
-7.40986
 30
0.000000
  70
    32
  0
VERTEX
  8
0
  5
95D
 10
6.09328
 20
-7.38345
 30
0.000000
  70
    32
  0
VERTEX
  8
0
  5
95E
 10
6.13913
 20
-7.35685
 30
0.000000
  70
    32
  0
VERTEX
  8
0
  5
95F
 10
6.18480
 20
-7.33005
 30
0.000000
  70
    32
  0
VERTEX
  8
0
  5
960
 10
6.23030
 20
-7.30306
 30
0.000000
  70
    32
  0
VERTEX
  8
0
  5
961
 10
6.27563
 20
-7.27587
 30
0.000000
  70
    32
  0
VERTEX
  8
0
  5
962
 10
6.32079
 20
-7.24849
 30
0.000000
  70
    32
  0
VERTEX
  8
0
  5
963
 10
6.36576
 20
-7.22091
 30
0.000000
  70
    32
  0
VERTEX
  8
0
  5
964
 10
6.41056
 20
-7.19314
 30
0.000000
  70
    32
  0
VERTEX
  8
0
  5
965
 10
6.45518
 20
-7.16518
 30
0.000000
  70
    32
  0
VERTEX
  8
0
  5
966
 10
6.49961
 20
-7.13702
 30
0.000000
  70
    32
  0
VERTEX
  8
0
  5
967
 10
6.54386
 20
-7.10868
 30
0.000000
  70
    32
  0
VERTEX
  8
0
  5
968
 10
6.58793
 20
-7.08014
 30
0.000000
  70
    32
  0
VERTEX
  8
0
  5
969
 10
6.63182
 20
-7.05141
 30
0.000000
  70
    32
  0
VERTEX
  8
0
  5
96A
 10
6.67551
 20
-7.02250
 30
0.000000
  70
    32
  0
VERTEX
  8
0
  5
96B
 10
6.71902
 20
-6.99339
 30
0.000000
  70
    32
  0
VERTEX
  8
0
  5
96C
 10
6.76235
 20
-6.96410
 30
0.000000
  70
    32
  0
VERTEX
  8
0
  5
96D
 10
6.80548
 20
-6.93462
 30
0.000000
  70
    32
  0
VERTEX
  8
0
  5
96E
 10
6.84843
 20
-6.90496
 30
0.000000
  70
    32
  0
VERTEX
  8
0
  5
96F
 10
6.89119
 20
-6.87511
 30
0.000000
  70
    32
  0
VERTEX
  8
0
  5
970
 10
6.93376
 20
-6.84508
 30
0.000000
  70
    32
  0
VERTEX
  8
0
  5
971
 10
6.97613
 20
-6.81487
 30
0.000000
  70
    32
  0
VERTEX
  8
0
  5
972
 10
7.01832
 20
-6.78447
 30
0.000000
  70
    32
  0
VERTEX
  8
0
  5
973
 10
7.06031
 20
-6.75390
 30
0.000000
  70
    32
  0
VERTEX
  8
0
  5
974
 10
7.10210
 20
-6.72314
 30
0.000000
  70
    32
  0
VERTEX
  8
0
  5
975
 10
7.14370
 20
-6.69221
 30
0.000000
  70
    32
  0
VERTEX
  8
0
  5
976
 10
7.18511
 20
-6.66110
 30
0.000000
  70
    32
  0
VERTEX
  8
0
  5
977
 10
7.22632
 20
-6.62982
 30
0.000000
  70
    32
  0
VERTEX
  8
0
  5
978
 10
7.26733
 20
-6.59836
 30
0.000000
  70
    32
  0
VERTEX
  8
0
  5
979
 10
7.30814
 20
-6.56673
 30
0.000000
  70
    32
  0
VERTEX
  8
0
  5
97A
 10
7.34875
 20
-6.53492
 30
0.000000
  70
    32
  0
VERTEX
  8
0
  5
97B
 10
7.38916
 20
-6.50294
 30
0.000000
  70
    32
  0
VERTEX
  8
0
  5
97C
 10
7.42936
 20
-6.47079
 30
0.000000
  70
    32
  0
VERTEX
  8
0
  5
97D
 10
7.46937
 20
-6.43847
 30
0.000000
  70
    32
  0
VERTEX
  8
0
  5
97E
 10
7.50917
 20
-6.40599
 30
0.000000
  70
    32
  0
VERTEX
  8
0
  5
97F
 10
7.54877
 20
-6.37333
 30
0.000000
  70
    32
  0
VERTEX
  8
0
  5
980
 10
7.58816
 20
-6.34051
 30
0.000000
  70
    32
  0
VERTEX
  8
0
  5
981
 10
7.62734
 20
-6.30752
 30
0.000000
  70
    32
  0
VERTEX
  8
0
  5
982
 10
7.66632
 20
-6.27437
 30
0.000000
  70
    32
  0
VERTEX
  8
0
  5
983
 10
7.70508
 20
-6.24106
 30
0.000000
  70
    32
  0
VERTEX
  8
0
  5
984
 10
7.74364
 20
-6.20758
 30
0.000000
  70
    32
  0
VERTEX
  8
0
  5
985
 10
7.78199
 20
-6.17394
 30
0.000000
  70
    32
  0
VERTEX
  8
0
  5
986
 10
7.82012
 20
-6.14014
 30
0.000000
  70
    32
  0
VERTEX
  8
0
  5
987
 10
7.85805
 20
-6.10618
 30
0.000000
  70
    32
  0
VERTEX
  8
0
  5
988
 10
7.89576
 20
-6.07206
 30
0.000000
  70
    32
  0
VERTEX
  8
0
  5
989
 10
7.93325
 20
-6.03779
 30
0.000000
  70
    32
  0
VERTEX
  8
0
  5
98A
 10
7.97053
 20
-6.00335
 30
0.000000
  70
    32
  0
VERTEX
  8
0
  5
98B
 10
8.00760
 20
-5.96877
 30
0.000000
  70
    32
  0
VERTEX
  8
0
  5
98C
 10
8.04444
 20
-5.93403
 30
0.000000
  70
    32
  0
VERTEX
  8
0
  5
98D
 10
8.08107
 20
-5.89913
 30
0.000000
  70
    32
  0
VERTEX
  8
0
  5
98E
 10
8.11748
 20
-5.86409
 30
0.000000
  70
    32
  0
VERTEX
  8
0
  5
98F
 10
8.15367
 20
-5.82889
 30
0.000000
  70
    32
  0
VERTEX
  8
0
  5
990
 10
8.18964
 20
-5.79354
 30
0.000000
  70
    32
  0
VERTEX
  8
0
  5
991
 10
8.22538
 20
-5.75804
 30
0.000000
  70
    32
  0
VERTEX
  8
0
  5
992
 10
8.26091
 20
-5.72240
 30
0.000000
  70
    32
  0
VERTEX
  8
0
  5
993
 10
8.29620
 20
-5.68661
 30
0.000000
  70
    32
  0
VERTEX
  8
0
  5
994
 10
8.33128
 20
-5.65067
 30
0.000000
  70
    32
  0
VERTEX
  8
0
  5
995
 10
8.36613
 20
-5.61459
 30
0.000000
  70
    32
  0
VERTEX
  8
0
  5
996
 10
8.40075
 20
-5.57836
 30
0.000000
  70
    32
  0
VERTEX
  8
0
  5
997
 10
8.43514
 20
-5.54199
 30
0.000000
  70
    32
  0
VERTEX
  8
0
  5
998
 10
8.46931
 20
-5.50548
 30
0.000000
  70
    32
  0
VERTEX
  8
0
  5
999
 10
8.50324
 20
-5.46883
 30
0.000000
  70
    32
  0
VERTEX
  8
0
  5
99A
 10
8.53695
 20
-5.43204
 30
0.000000
  70
    32
  0
VERTEX
  8
0
  5
99B
 10
8.57042
 20
-5.39511
 30
0.000000
  70
    32
  0
VERTEX
  8
0
  5
99C
 10
8.60366
 20
-5.35804
 30
0.000000
  70
    32
  0
VERTEX
  8
0
  5
99D
 10
8.63667
 20
-5.32083
 30
0.000000
  70
    32
  0
VERTEX
  8
0
  5
99E
 10
8.66944
 20
-5.28349
 30
0.000000
  70
    32
  0
VERTEX
  8
0
  5
99F
 10
8.70197
 20
-5.24602
 30
0.000000
  70
    32
  0
VERTEX
  8
0
  5
9A0
 10
8.73428
 20
-5.20841
 30
0.000000
  70
    32
  0
VERTEX
  8
0
  5
9A1
 10
8.76634
 20
-5.17067
 30
0.000000
  70
    32
  0
VERTEX
  8
0
  5
9A2
 10
8.79816
 20
-5.13280
 30
0.000000
  70
    32
  0
VERTEX
  8
0
  5
9A3
 10
8.82975
 20
-5.09479
 30
0.000000
  70
    32
  0
VERTEX
  8
0
  5
9A4
 10
8.86109
 20
-5.05666
 30
0.000000
  70
    32
  0
VERTEX
  8
0
  5
9A5
 10
8.89220
 20
-5.01840
 30
0.000000
  70
    32
  0
VERTEX
  8
0
  5
9A6
 10
8.92306
 20
-4.98001
 30
0.000000
  70
    32
  0
VERTEX
  8
0
  5
9A7
 10
8.95368
 20
-4.94150
 30
0.000000
  70
    32
  0
VERTEX
  8
0
  5
9A8
 10
8.98405
 20
-4.90286
 30
0.000000
  70
    32
  0
VERTEX
  8
0
  5
9A9
 10
9.01418
 20
-4.86410
 30
0.000000
  70
    32
  0
VERTEX
  8
0
  5
9AA
 10
9.04407
 20
-4.82521
 30
0.000000
  70
    32
  0
VERTEX
  8
0
  5
9AB
 10
9.07370
 20
-4.78620
 30
0.000000
  70
    32
  0
VERTEX
  8
0
  5
9AC
 10
9.10309
 20
-4.74707
 30
0.000000
  70
    32
  0
VERTEX
  8
0
  5
9AD
 10
9.13223
 20
-4.70782
 30
0.000000
  70
    32
  0
VERTEX
  8
0
  5
9AE
 10
9.16112
 20
-4.66845
 30
0.000000
  70
    32
  0
VERTEX
  8
0
  5
9AF
 10
9.18976
 20
-4.62897
 30
0.000000
  70
    32
  0
VERTEX
  8
0
  5
9B0
 10
9.21815
 20
-4.58936
 30
0.000000
  70
    32
  0
VERTEX
  8
0
  5
9B1
 10
9.24628
 20
-4.54964
 30
0.000000
  70
    32
  0
VERTEX
  8
0
  5
9B2
 10
9.27417
 20
-4.50981
 30
0.000000
  70
    32
  0
VERTEX
  8
0
  5
9B3
 10
9.30180
 20
-4.46986
 30
0.000000
  70
    32
  0
VERTEX
  8
0
  5
9B4
 10
9.32918
 20
-4.42979
 30
0.000000
  70
    32
  0
VERTEX
  8
0
  5
9B5
 10
9.35631
 20
-4.38962
 30
0.000000
  70
    32
  0
VERTEX
  8
0
  5
9B6
 10
9.38319
 20
-4.34933
 30
0.000000
  70
    32
  0
VERTEX
  8
0
  5
9B7
 10
9.40982
 20
-4.30894
 30
0.000000
  70
    32
  0
VERTEX
  8
0
  5
9B8
 10
9.43619
 20
-4.26843
 30
0.000000
  70
    32
  0
VERTEX
  8
0
  5
9B9
 10
9.46231
 20
-4.22782
 30
0.000000
  70
    32
  0
VERTEX
  8
0
  5
9BA
 10
9.48817
 20
-4.18711
 30
0.000000
  70
    32
  0
VERTEX
  8
0
  5
9BB
 10
9.51378
 20
-4.14628
 30
0.000000
  70
    32
  0
VERTEX
  8
0
  5
9BC
 10
9.53914
 20
-4.10536
 30
0.000000
  70
    32
  0
VERTEX
  8
0
  5
9BD
 10
9.56424
 20
-4.06433
 30
0.000000
  70
    32
  0
VERTEX
  8
0
  5
9BE
 10
9.58908
 20
-4.02319
 30
0.000000
  70
    32
  0
VERTEX
  8
0
  5
9BF
 10
9.61367
 20
-3.98196
 30
0.000000
  70
    32
  0
VERTEX
  8
0
  5
9C0
 10
9.63800
 20
-3.94063
 30
0.000000
  70
    32
  0
VERTEX
  8
0
  5
9C1
 10
9.66208
 20
-3.89920
 30
0.000000
  70
    32
  0
VERTEX
  8
0
  5
9C2
 10
9.68590
 20
-3.85767
 30
0.000000
  70
    32
  0
VERTEX
  8
0
  5
9C3
 10
9.70946
 20
-3.81605
 30
0.000000
  70
    32
  0
VERTEX
  8
0
  5
9C4
 10
9.73276
 20
-3.77433
 30
0.000000
  70
    32
  0
VERTEX
  8
0
  5
9C5
 10
9.75581
 20
-3.73252
 30
0.000000
  70
    32
  0
VERTEX
  8
0
  5
9C6
 10
9.77859
 20
-3.69061
 30
0.000000
  70
    32
  0
VERTEX
  8
0
  5
9C7
 10
9.80112
 20
-3.64861
 30
0.000000
  70
    32
  0
VERTEX
  8
0
  5
9C8
 10
9.82338
 20
-3.60653
 30
0.000000
  70
    32
  0
VERTEX
  8
0
  5
9C9
 10
9.84539
 20
-3.56435
 30
0.000000
  70
    32
  0
VERTEX
  8
0
  5
9CA
 10
9.86714
 20
-3.52208
 30
0.000000
  70
    32
  0
VERTEX
  8
0
  5
9CB
 10
9.88862
 20
-3.47973
 30
0.000000
  70
    32
  0
VERTEX
  8
0
  5
9CC
 10
9.90984
 20
-3.43729
 30
0.000000
  70
    32
  0
VERTEX
  8
0
  5
9CD
 10
9.93081
 20
-3.39477
 30
0.000000
  70
    32
  0
VERTEX
  8
0
  5
9CE
 10
9.95151
 20
-3.35216
 30
0.000000
  70
    32
  0
VERTEX
  8
0
  5
9CF
 10
9.97194
 20
-3.30947
 30
0.000000
  70
    32
  0
VERTEX
  8
0
  5
9D0
 10
9.99212
 20
-3.26670
 30
0.000000
  70
    32
  0
VERTEX
  8
0
  5
9D1
 10
10.0120
 20
-3.22385
 30
0.000000
  70
    32
  0
VERTEX
  8
0
  5
9D2
 10
10.0317
 20
-3.18092
 30
0.000000
  70
    32
  0
VERTEX
  8
0
  5
9D3
 10
10.0511
 20
-3.13791
 30
0.000000
  70
    32
  0
VERTEX
  8
0
  5
9D4
 10
10.0702
 20
-3.09482
 30
0.000000
  70
    32
  0
VERTEX
  8
0
  5
9D5
 10
10.0890
 20
-3.05166
 30
0.000000
  70
    32
  0
VERTEX
  8
0
  5
9D6
 10
10.1076
 20
-3.00843
 30
0.000000
  70
    32
  0
VERTEX
  8
0
  5
9D7
 10
10.1259
 20
-2.96512
 30
0.000000
  70
    32
  0
VERTEX
  8
0
  5
9D8
 10
10.1440
 20
-2.92173
 30
0.000000
  70
    32
  0
VERTEX
  8
0
  5
9D9
 10
10.1618
 20
-2.87828
 30
0.000000
  70
    32
  0
VERTEX
  8
0
  5
9DA
 10
10.1793
 20
-2.83476
 30
0.000000
  70
    32
  0
VERTEX
  8
0
  5
9DB
 10
10.1966
 20
-2.79116
 30
0.000000
  70
    32
  0
VERTEX
  8
0
  5
9DC
 10
10.2136
 20
-2.74750
 30
0.000000
  70
    32
  0
VERTEX
  8
0
  5
9DD
 10
10.2303
 20
-2.70378
 30
0.000000
  70
    32
  0
VERTEX
  8
0
  5
9DE
 10
10.2467
 20
-2.65998
 30
0.000000
  70
    32
  0
VERTEX
  8
0
  5
9DF
 10
10.2629
 20
-2.61613
 30
0.000000
  70
    32
  0
VERTEX
  8
0
  5
9E0
 10
10.2788
 20
-2.57220
 30
0.000000
  70
    32
  0
VERTEX
  8
0
  5
9E1
 10
10.2945
 20
-2.52822
 30
0.000000
  70
    32
  0
VERTEX
  8
0
  5
9E2
 10
10.3098
 20
-2.48418
 30
0.000000
  70
    32
  0
VERTEX
  8
0
  5
9E3
 10
10.3249
 20
-2.44007
 30
0.000000
  70
    32
  0
VERTEX
  8
0
  5
9E4
 10
10.3398
 20
-2.39591
 30
0.000000
  70
    32
  0
VERTEX
  8
0
  5
9E5
 10
10.3543
 20
-2.35169
 30
0.000000
  70
    32
  0
VERTEX
  8
0
  5
9E6
 10
10.3686
 20
-2.30741
 30
0.000000
  70
    32
  0
VERTEX
  8
0
  5
9E7
 10
10.3826
 20
-2.26308
 30
0.000000
  70
    32
  0
VERTEX
  8
0
  5
9E8
 10
10.3964
 20
-2.21869
 30
0.000000
  70
    32
  0
VERTEX
  8
0
  5
9E9
 10
10.4099
 20
-2.17425
 30
0.000000
  70
    32
  0
VERTEX
  8
0
  5
9EA
 10
10.4231
 20
-2.12975
 30
0.000000
  70
    32
  0
VERTEX
  8
0
  5
9EB
 10
10.4360
 20
-2.08521
 30
0.000000
  70
    32
  0
VERTEX
  8
0
  5
9EC
 10
10.4486
 20
-2.04062
 30
0.000000
  70
    32
  0
VERTEX
  8
0
  5
9ED
 10
10.4610
 20
-1.99597
 30
0.000000
  70
    32
  0
VERTEX
  8
0
  5
9EE
 10
10.4731
 20
-1.95128
 30
0.000000
  70
    32
  0
VERTEX
  8
0
  5
9EF
 10
10.4849
 20
-1.90655
 30
0.000000
  70
    32
  0
VERTEX
  8
0
  5
9F0
 10
10.4965
 20
-1.86176
 30
0.000000
  70
    32
  0
VERTEX
  8
0
  5
9F1
 10
10.5077
 20
-1.81694
 30
0.000000
  70
    32
  0
VERTEX
  8
0
  5
9F2
 10
10.5187
 20
-1.77207
 30
0.000000
  70
    32
  0
VERTEX
  8
0
  5
9F3
 10
10.5295
 20
-1.72716
 30
0.000000
  70
    32
  0
VERTEX
  8
0
  5
9F4
 10
10.5399
 20
-1.68221
 30
0.000000
  70
    32
  0
VERTEX
  8
0
  5
9F5
 10
10.5501
 20
-1.63721
 30
0.000000
  70
    32
  0
VERTEX
  8
0
  5
9F6
 10
10.5599
 20
-1.59218
 30
0.000000
  70
    32
  0
VERTEX
  8
0
  5
9F7
 10
10.5696
 20
-1.54712
 30
0.000000
  70
    32
  0
VERTEX
  8
0
  5
9F8
 10
10.5789
 20
-1.50201
 30
0.000000
  70
    32
  0
VERTEX
  8
0
  5
9F9
 10
10.5879
 20
-1.45687
 30
0.000000
  70
    32
  0
VERTEX
  8
0
  5
9FA
 10
10.5967
 20
-1.41170
 30
0.000000
  70
    32
  0
VERTEX
  8
0
  5
9FB
 10
10.6052
 20
-1.36649
 30
0.000000
  70
    32
  0
VERTEX
  8
0
  5
9FC
 10
10.6134
 20
-1.32125
 30
0.000000
  70
    32
  0
VERTEX
  8
0
  5
9FD
 10
10.6213
 20
-1.27598
 30
0.000000
  70
    32
  0
VERTEX
  8
0
  5
9FE
 10
10.6290
 20
-1.23068
 30
0.000000
  70
    32
  0
VERTEX
  8
0
  5
9FF
 10
10.6364
 20
-1.18534
 30
0.000000
  70
    32
  0
VERTEX
  8
0
  5
A00
 10
10.6435
 20
-1.13998
 30
0.000000
  70
    32
  0
VERTEX
  8
0
  5
A01
 10
10.6503
 20
-1.09459
 30
0.000000
  70
    32
  0
VERTEX
  8
0
  5
A02
 10
10.6568
 20
-1.04918
 30
0.000000
  70
    32
  0
VERTEX
  8
0
  5
A03
 10
10.6631
 20
-1.00374
 30
0.000000
  70
    32
  0
VERTEX
  8
0
  5
A04
 10
10.6691
 20
-0.958270
 30
0.000000
  70
    32
  0
VERTEX
  8
0
  5
A05
 10
10.6748
 20
-0.912782
 30
0.000000
  70
    32
  0
VERTEX
  8
0
  5
A06
 10
10.6803
 20
-0.867273
 30
0.000000
  70
    32
  0
VERTEX
  8
0
  5
A07
 10
10.6854
 20
-0.821742
 30
0.000000
  70
    32
  0
VERTEX
  8
0
  5
A08
 10
10.6903
 20
-0.776193
 30
0.000000
  70
    32
  0
VERTEX
  8
0
  5
A09
 10
10.6949
 20
-0.730625
 30
0.000000
  70
    32
  0
VERTEX
  8
0
  5
A0A
 10
10.6992
 20
-0.685040
 30
0.000000
  70
    32
  0
VERTEX
  8
0
  5
A0B
 10
10.7033
 20
-0.639439
 30
0.000000
  70
    32
  0
VERTEX
  8
0
  5
A0C
 10
10.7070
 20
-0.593823
 30
0.000000
  70
    32
  0
VERTEX
  8
0
  5
A0D
 10
10.7105
 20
-0.548194
 30
0.000000
  70
    32
  0
VERTEX
  8
0
  5
A0E
 10
10.7137
 20
-0.502552
 30
0.000000
  70
    32
  0
VERTEX
  8
0
  5
A0F
 10
10.7167
 20
-0.456899
 30
0.000000
  70
    32
  0
VERTEX
  8
0
  5
A10
 10
10.7193
 20
-0.411236
 30
0.000000
  70
    32
  0
VERTEX
  8
0
  5
A11
 10
10.7217
 20
-0.365563
 30
0.000000
  70
    32
  0
VERTEX
  8
0
  5
A12
 10
10.7238
 20
-0.319883
 30
0.000000
  70
    32
  0
VERTEX
  8
0
  5
A13
 10
10.7256
 20
-0.274197
 30
0.000000
  70
    32
  0
VERTEX
  8
0
  5
A14
 10
10.7272
 20
-0.228504
 30
0.000000
  70
    32
  0
VERTEX
  8
0
  5
A15
 10
10.7284
 20
-0.182807
 30
0.000000
  70
    32
  0
VERTEX
  8
0
  5
A16
 10
10.7294
 20
-0.137108
 30
0.000000
  70
    32
  0
VERTEX
  8
0
  5
A17
 10
10.7301
 20
-0.0914055
 30
0.000000
  70
    32
  0
VERTEX
  8
0
  5
A18
 10
10.7305
 20
-0.0457026
 30
0.000000
  70
    32
  0
VERTEX
  8
0
  5
A19
 10
10.7307
 20
-8.83757e-011
 30
0.000000
  70
    32
  0
SEQEND
  8
0
  5
A1A
  0
POLYLINE
  8
0
  5
A1B
  66
     1
 10
0.000000
 20
0.000000
 30
0.000000
  70
     8
  0
VERTEX
  8
0
  5
A1C
 10
10.0797
 20
0.000000
 30
0.000000
  70
    32
  0
VERTEX
  8
0
  5
A1D
 10
10.0795
 20
0.0396254
 30
0.000000
  70
    32
  0
VERTEX
  8
0
  5
A1E
 10
10.0792
 20
0.0792544
 30
0.000000
  70
    32
  0
VERTEX
  8
0
  5
A1F
 10
10.0786
 20
0.118886
 30
0.000000
  70
    32
  0
VERTEX
  8
0
  5
A20
 10
10.0778
 20
0.158519
 30
0.000000
  70
    32
  0
VERTEX
  8
0
  5
A21
 10
10.0768
 20
0.198153
 30
0.000000
  70
    32
  0
VERTEX
  8
0
  5
A22
 10
10.0755
 20
0.237786
 30
0.000000
  70
    32
  0
VERTEX
  8
0
  5
A23
 10
10.0740
 20
0.277418
 30
0.000000
  70
    32
  0
VERTEX
  8
0
  5
A24
 10
10.0723
 20
0.317048
 30
0.000000
  70
    32
  0
VERTEX
  8
0
  5
A25
 10
10.0703
 20
0.356675
 30
0.000000
  70
    32
  0
VERTEX
  8
0
  5
A26
 10
10.0681
 20
0.396297
 30
0.000000
  70
    32
  0
VERTEX
  8
0
  5
A27
 10
10.0657
 20
0.435915
 30
0.000000
  70
    32
  0
VERTEX
  8
0
  5
A28
 10
10.0631
 20
0.475526
 30
0.000000
  70
    32
  0
VERTEX
  8
0
  5
A29
 10
10.0602
 20
0.515130
 30
0.000000
  70
    32
  0
VERTEX
  8
0
  5
A2A
 10
10.0571
 20
0.554727
 30
0.000000
  70
    32
  0
VERTEX
  8
0
  5
A2B
 10
10.0537
 20
0.594314
 30
0.000000
  70
    32
  0
VERTEX
  8
0
  5
A2C
 10
10.0502
 20
0.633892
 30
0.000000
  70
    32
  0
VERTEX
  8
0
  5
A2D
 10
10.0464
 20
0.673459
 30
0.000000
  70
    32
  0
VERTEX
  8
0
  5
A2E
 10
10.0423
 20
0.713014
 30
0.000000
  70
    32
  0
VERTEX
  8
0
  5
A2F
 10
10.0381
 20
0.752556
 30
0.000000
  70
    32
  0
VERTEX
  8
0
  5
A30
 10
10.0336
 20
0.792085
 30
0.000000
  70
    32
  0
VERTEX
  8
0
  5
A31
 10
10.0289
 20
0.831599
 30
0.000000
  70
    32
  0
VERTEX
  8
0
  5
A32
 10
10.0239
 20
0.871097
 30
0.000000
  70
    32
  0
VERTEX
  8
0
  5
A33
 10
10.0187
 20
0.910579
 30
0.000000
  70
    32
  0
VERTEX
  8
0
  5
A34
 10
10.0133
 20
0.950043
 30
0.000000
  70
    32
  0
VERTEX
  8
0
  5
A35
 10
10.0077
 20
0.989489
 30
0.000000
  70
    32
  0
VERTEX
  8
0
  5
A36
 10
10.0018
 20
1.02892
 30
0.000000
  70
    32
  0
VERTEX
  8
0
  5
A37
 10
9.99574
 20
1.06832
 30
0.000000
  70
    32
  0
VERTEX
  8
0
  5
A38
 10
9.98942
 20
1.10771
 30
0.000000
  70
    32
  0
VERTEX
  8
0
  5
A39
 10
9.98288
 20
1.14707
 30
0.000000
  70
    32
  0
VERTEX
  8
0
  5
A3A
 10
9.97610
 20
1.18641
 30
0.000000
  70
    32
  0
VERTEX
  8
0
  5
A3B
 10
9.96909
 20
1.22572
 30
0.000000
  70
    32
  0
VERTEX
  8
0
  5
A3C
 10
9.96186
 20
1.26501
 30
0.000000
  70
    32
  0
VERTEX
  8
0
  5
A3D
 10
9.95439
 20
1.30428
 30
0.000000
  70
    32
  0
VERTEX
  8
0
  5
A3E
 10
9.94670
 20
1.34351
 30
0.000000
  70
    32
  0
VERTEX
  8
0
  5
A3F
 10
9.93878
 20
1.38272
 30
0.000000
  70
    32
  0
VERTEX
  8
0
  5
A40
 10
9.93063
 20
1.42190
 30
0.000000
  70
    32
  0
VERTEX
  8
0
  5
A41
 10
9.92225
 20
1.46105
 30
0.000000
  70
    32
  0
VERTEX
  8
0
  5
A42
 10
9.91365
 20
1.50017
 30
0.000000
  70
    32
  0
VERTEX
  8
0
  5
A43
 10
9.90482
 20
1.53926
 30
0.000000
  70
    32
  0
VERTEX
  8
0
  5
A44
 10
9.89576
 20
1.57831
 30
0.000000
  70
    32
  0
VERTEX
  8
0
  5
A45
 10
9.88647
 20
1.61733
 30
0.000000
  70
    32
  0
VERTEX
  8
0
  5
A46
 10
9.87695
 20
1.65632
 30
0.000000
  70
    32
  0
VERTEX
  8
0
  5
A47
 10
9.86721
 20
1.69527
 30
0.000000
  70
    32
  0
VERTEX
  8
0
  5
A48
 10
9.85723
 20
1.73418
 30
0.000000
  70
    32
  0
VERTEX
  8
0
  5
A49
 10
9.84704
 20
1.77306
 30
0.000000
  70
    32
  0
VERTEX
  8
0
  5
A4A
 10
9.83661
 20
1.81189
 30
0.000000
  70
    32
  0
VERTEX
  8
0
  5
A4B
 10
9.82595
 20
1.85069
 30
0.000000
  70
    32
  0
VERTEX
  8
0
  5
A4C
 10
9.81507
 20
1.88945
 30
0.000000
  70
    32
  0
VERTEX
  8
0
  5
A4D
 10
9.80396
 20
1.92817
 30
0.000000
  70
    32
  0
VERTEX
  8
0
  5
A4E
 10
9.79262
 20
1.96687
 30
0.000000
  70
    32
  0
VERTEX
  8
0
  5
A4F
 10
9.78104
 20
2.00553
 30
0.000000
  70
    32
  0
VERTEX
  8
0
  5
A50
 10
9.76924
 20
2.04415
 30
0.000000
  70
    32
  0
VERTEX
  8
0
  5
A51
 10
9.75720
 20
2.08274
 30
0.000000
  70
    32
  0
VERTEX
  8
0
  5
A52
 10
9.74494
 20
2.12130
 30
0.000000
  70
    32
  0
VERTEX
  8
0
  5
A53
 10
9.73244
 20
2.15982
 30
0.000000
  70
    32
  0
VERTEX
  8
0
  5
A54
 10
9.71971
 20
2.19830
 30
0.000000
  70
    32
  0
VERTEX
  8
0
  5
A55
 10
9.70676
 20
2.23674
 30
0.000000
  70
    32
  0
VERTEX
  8
0
  5
A56
 10
9.69358
 20
2.27514
 30
0.000000
  70
    32
  0
VERTEX
  8
0
  5
A57
 10
9.68017
 20
2.31350
 30
0.000000
  70
    32
  0
VERTEX
  8
0
  5
A58
 10
9.66653
 20
2.35182
 30
0.000000
  70
    32
  0
VERTEX
  8
0
  5
A59
 10
9.65266
 20
2.39010
 30
0.000000
  70
    32
  0
VERTEX
  8
0
  5
A5A
 10
9.63856
 20
2.42834
 30
0.000000
  70
    32
  0
VERTEX
  8
0
  5
A5B
 10
9.62424
 20
2.46653
 30
0.000000
  70
    32
  0
VERTEX
  8
0
  5
A5C
 10
9.60969
 20
2.50467
 30
0.000000
  70
    32
  0
VERTEX
  8
0
  5
A5D
 10
9.59491
 20
2.54277
 30
0.000000
  70
    32
  0
VERTEX
  8
0
  5
A5E
 10
9.57991
 20
2.58082
 30
0.000000
  70
    32
  0
VERTEX
  8
0
  5
A5F
 10
9.56468
 20
2.61883
 30
0.000000
  70
    32
  0
VERTEX
  8
0
  5
A60
 10
9.54923
 20
2.65678
 30
0.000000
  70
    32
  0
VERTEX
  8
0
  5
A61
 10
9.53355
 20
2.69468
 30
0.000000
  70
    32
  0
VERTEX
  8
0
  5
A62
 10
9.51765
 20
2.73253
 30
0.000000
  70
    32
  0
VERTEX
  8
0
  5
A63
 10
9.50152
 20
2.77033
 30
0.000000
  70
    32
  0
VERTEX
  8
0
  5
A64
 10
9.48516
 20
2.80808
 30
0.000000
  70
    32
  0
VERTEX
  8
0
  5
A65
 10
9.46859
 20
2.84577
 30
0.000000
  70
    32
  0
VERTEX
  8
0
  5
A66
 10
9.45179
 20
2.88341
 30
0.000000
  70
    32
  0
VERTEX
  8
0
  5
A67
 10
9.43476
 20
2.92099
 30
0.000000
  70
    32
  0
VERTEX
  8
0
  5
A68
 10
9.41752
 20
2.95851
 30
0.000000
  70
    32
  0
VERTEX
  8
0
  5
A69
 10
9.40005
 20
2.99597
 30
0.000000
  70
    32
  0
VERTEX
  8
0
  5
A6A
 10
9.38236
 20
3.03338
 30
0.000000
  70
    32
  0
VERTEX
  8
0
  5
A6B
 10
9.36444
 20
3.07073
 30
0.000000
  70
    32
  0
VERTEX
  8
0
  5
A6C
 10
9.34631
 20
3.10801
 30
0.000000
  70
    32
  0
VERTEX
  8
0
  5
A6D
 10
9.32795
 20
3.14523
 30
0.000000
  70
    32
  0
VERTEX
  8
0
  5
A6E
 10
9.30938
 20
3.18239
 30
0.000000
  70
    32
  0
VERTEX
  8
0
  5
A6F
 10
9.29058
 20
3.21949
 30
0.000000
  70
    32
  0
VERTEX
  8
0
  5
A70
 10
9.27156
 20
3.25652
 30
0.000000
  70
    32
  0
VERTEX
  8
0
  5
A71
 10
9.25232
 20
3.29348
 30
0.000000
  70
    32
  0
VERTEX
  8
0
  5
A72
 10
9.23286
 20
3.33038
 30
0.000000
  70
    32
  0
VERTEX
  8
0
  5
A73
 10
9.21319
 20
3.36720
 30
0.000000
  70
    32
  0
VERTEX
  8
0
  5
A74
 10
9.19329
 20
3.40396
 30
0.000000
  70
    32
  0
VERTEX
  8
0
  5
A75
 10
9.17317
 20
3.44065
 30
0.000000
  70
    32
  0
VERTEX
  8
0
  5
A76
 10
9.15284
 20
3.47727
 30
0.000000
  70
    32
  0
VERTEX
  8
0
  5
A77
 10
9.13229
 20
3.51382
 30
0.000000
  70
    32
  0
VERTEX
  8
0
  5
A78
 10
9.11152
 20
3.55029
 30
0.000000
  70
    32
  0
VERTEX
  8
0
  5
A79
 10
9.09053
 20
3.58669
 30
0.000000
  70
    32
  0
VERTEX
  8
0
  5
A7A
 10
9.06933
 20
3.62302
 30
0.000000
  70
    32
  0
VERTEX
  8
0
  5
A7B
 10
9.04791
 20
3.65927
 30
0.000000
  70
    32
  0
VERTEX
  8
0
  5
A7C
 10
9.02628
 20
3.69544
 30
0.000000
  70
    32
  0
VERTEX
  8
0
  5
A7D
 10
9.00442
 20
3.73153
 30
0.000000
  70
    32
  0
VERTEX
  8
0
  5
A7E
 10
8.98235
 20
3.76755
 30
0.000000
  70
    32
  0
VERTEX
  8
0
  5
A7F
 10
8.96007
 20
3.80348
 30
0.000000
  70
    32
  0
VERTEX
  8
0
  5
A80
 10
8.93757
 20
3.83934
 30
0.000000
  70
    32
  0
VERTEX
  8
0
  5
A81
 10
8.91486
 20
3.87511
 30
0.000000
  70
    32
  0
VERTEX
  8
0
  5
A82
 10
8.89193
 20
3.91080
 30
0.000000
  70
    32
  0
VERTEX
  8
0
  5
A83
 10
8.86879
 20
3.94641
 30
0.000000
  70
    32
  0
VERTEX
  8
0
  5
A84
 10
8.84543
 20
3.98193
 30
0.000000
  70
    32
  0
VERTEX
  8
0
  5
A85
 10
8.82187
 20
4.01737
 30
0.000000
  70
    32
  0
VERTEX
  8
0
  5
A86
 10
8.79808
 20
4.05272
 30
0.000000
  70
    32
  0
VERTEX
  8
0
  5
A87
 10
8.77409
 20
4.08798
 30
0.000000
  70
    32
  0
VERTEX
  8
0
  5
A88
 10
8.74988
 20
4.12315
 30
0.000000
  70
    32
  0
VERTEX
  8
0
  5
A89
 10
8.72546
 20
4.15824
 30
0.000000
  70
    32
  0
VERTEX
  8
0
  5
A8A
 10
8.70083
 20
4.19323
 30
0.000000
  70
    32
  0
VERTEX
  8
0
  5
A8B
 10
8.67599
 20
4.22813
 30
0.000000
  70
    32
  0
VERTEX
  8
0
  5
A8C
 10
8.65093
 20
4.26294
 30
0.000000
  70
    32
  0
VERTEX
  8
0
  5
A8D
 10
8.62567
 20
4.29765
 30
0.000000
  70
    32
  0
VERTEX
  8
0
  5
A8E
 10
8.60019
 20
4.33227
 30
0.000000
  70
    32
  0
VERTEX
  8
0
  5
A8F
 10
8.57451
 20
4.36680
 30
0.000000
  70
    32
  0
VERTEX
  8
0
  5
A90
 10
8.54861
 20
4.40123
 30
0.000000
  70
    32
  0
VERTEX
  8
0
  5
A91
 10
8.52251
 20
4.43556
 30
0.000000
  70
    32
  0
VERTEX
  8
0
  5
A92
 10
8.49620
 20
4.46979
 30
0.000000
  70
    32
  0
VERTEX
  8
0
  5
A93
 10
8.46967
 20
4.50392
 30
0.000000
  70
    32
  0
VERTEX
  8
0
  5
A94
 10
8.44294
 20
4.53796
 30
0.000000
  70
    32
  0
VERTEX
  8
0
  5
A95
 10
8.41600
 20
4.57189
 30
0.000000
  70
    32
  0
VERTEX
  8
0
  5
A96
 10
8.38886
 20
4.60572
 30
0.000000
  70
    32
  0
VERTEX
  8
0
  5
A97
 10
8.36150
 20
4.63944
 30
0.000000
  70
    32
  0
VERTEX
  8
0
  5
A98
 10
8.33394
 20
4.67307
 30
0.000000
  70
    32
  0
VERTEX
  8
0
  5
A99
 10
8.30616
 20
4.70659
 30
0.000000
  70
    32
  0
VERTEX
  8
0
  5
A9A
 10
8.27817
 20
4.74002
 30
0.000000
  70
    32
  0
VERTEX
  8
0
  5
A9B
 10
8.24997
 20
4.77334
 30
0.000000
  70
    32
  0
VERTEX
  8
0
  5
A9C
 10
8.22157
 20
4.80656
 30
0.000000
  70
    32
  0
VERTEX
  8
0
  5
A9D
 10
8.19295
 20
4.83968
 30
0.000000
  70
    32
  0
VERTEX
  8
0
  5
A9E
 10
8.16413
 20
4.87270
 30
0.000000
  70
    32
  0
VERTEX
  8
0
  5
A9F
 10
8.13510
 20
4.90560
 30
0.000000
  70
    32
  0
VERTEX
  8
0
  5
AA0
 10
8.10586
 20
4.93841
 30
0.000000
  70
    32
  0
VERTEX
  8
0
  5
AA1
 10
8.07642
 20
4.97110
 30
0.000000
  70
    32
  0
VERTEX
  8
0
  5
AA2
 10
8.04677
 20
5.00369
 30
0.000000
  70
    32
  0
VERTEX
  8
0
  5
AA3
 10
8.01692
 20
5.03617
 30
0.000000
  70
    32
  0
VERTEX
  8
0
  5
AA4
 10
7.98687
 20
5.06854
 30
0.000000
  70
    32
  0
VERTEX
  8
0
  5
AA5
 10
7.95662
 20
5.10080
 30
0.000000
  70
    32
  0
VERTEX
  8
0
  5
AA6
 10
7.92616
 20
5.13294
 30
0.000000
  70
    32
  0
VERTEX
  8
0
  5
AA7
 10
7.89551
 20
5.16498
 30
0.000000
  70
    32
  0
VERTEX
  8
0
  5
AA8
 10
7.86466
 20
5.19690
 30
0.000000
  70
    32
  0
VERTEX
  8
0
  5
AA9
 10
7.83361
 20
5.22870
 30
0.000000
  70
    32
  0
VERTEX
  8
0
  5
AAA
 10
7.80236
 20
5.26039
 30
0.000000
  70
    32
  0
VERTEX
  8
0
  5
AAB
 10
7.77091
 20
5.29197
 30
0.000000
  70
    32
  0
VERTEX
  8
0
  5
AAC
 10
7.73927
 20
5.32342
 30
0.000000
  70
    32
  0
VERTEX
  8
0
  5
AAD
 10
7.70744
 20
5.35476
 30
0.000000
  70
    32
  0
VERTEX
  8
0
  5
AAE
 10
7.67541
 20
5.38598
 30
0.000000
  70
    32
  0
VERTEX
  8
0
  5
AAF
 10
7.64318
 20
5.41708
 30
0.000000
  70
    32
  0
VERTEX
  8
0
  5
AB0
 10
7.61077
 20
5.44806
 30
0.000000
  70
    32
  0
VERTEX
  8
0
  5
AB1
 10
7.57816
 20
5.47892
 30
0.000000
  70
    32
  0
VERTEX
  8
0
  5
AB2
 10
7.54537
 20
5.50965
 30
0.000000
  70
    32
  0
VERTEX
  8
0
  5
AB3
 10
7.51238
 20
5.54026
 30
0.000000
  70
    32
  0
VERTEX
  8
0
  5
AB4
 10
7.47921
 20
5.57075
 30
0.000000
  70
    32
  0
VERTEX
  8
0
  5
AB5
 10
7.44584
 20
5.60110
 30
0.000000
  70
    32
  0
VERTEX
  8
0
  5
AB6
 10
7.41229
 20
5.63134
 30
0.000000
  70
    32
  0
VERTEX
  8
0
  5
AB7
 10
7.37856
 20
5.66144
 30
0.000000
  70
    32
  0
VERTEX
  8
0
  5
AB8
 10
7.34463
 20
5.69142
 30
0.000000
  70
    32
  0
VERTEX
  8
0
  5
AB9
 10
7.31053
 20
5.72127
 30
0.000000
  70
    32
  0
VERTEX
  8
0
  5
ABA
 10
7.27624
 20
5.75099
 30
0.000000
  70
    32
  0
VERTEX
  8
0
  5
ABB
 10
7.24176
 20
5.78057
 30
0.000000
  70
    32
  0
VERTEX
  8
0
  5
ABC
 10
7.20711
 20
5.81003
 30
0.000000
  70
    32
  0
VERTEX
  8
0
  5
ABD
 10
7.17227
 20
5.83935
 30
0.000000
  70
    32
  0
VERTEX
  8
0
  5
ABE
 10
7.13726
 20
5.86853
 30
0.000000
  70
    32
  0
VERTEX
  8
0
  5
ABF
 10
7.10206
 20
5.89758
 30
0.000000
  70
    32
  0
VERTEX
  8
0
  5
AC0
 10
7.06669
 20
5.92650
 30
0.000000
  70
    32
  0
VERTEX
  8
0
  5
AC1
 10
7.03113
 20
5.95528
 30
0.000000
  70
    32
  0
VERTEX
  8
0
  5
AC2
 10
6.99541
 20
5.98392
 30
0.000000
  70
    32
  0
VERTEX
  8
0
  5
AC3
 10
6.95950
 20
6.01242
 30
0.000000
  70
    32
  0
VERTEX
  8
0
  5
AC4
 10
6.92342
 20
6.04079
 30
0.000000
  70
    32
  0
VERTEX
  8
0
  5
AC5
 10
6.88717
 20
6.06901
 30
0.000000
  70
    32
  0
VERTEX
  8
0
  5
AC6
 10
6.85074
 20
6.09709
 30
0.000000
  70
    32
  0
VERTEX
  8
0
  5
AC7
 10
6.81414
 20
6.12503
 30
0.000000
  70
    32
  0
VERTEX
  8
0
  5
AC8
 10
6.77736
 20
6.15282
 30
0.000000
  70
    32
  0
VERTEX
  8
0
  5
AC9
 10
6.74042
 20
6.18048
 30
0.000000
  70
    32
  0
VERTEX
  8
0
  5
ACA
 10
6.70331
 20
6.20798
 30
0.000000
  70
    32
  0
VERTEX
  8
0
  5
ACB
 10
6.66603
 20
6.23534
 30
0.000000
  70
    32
  0
VERTEX
  8
0
  5
ACC
 10
6.62858
 20
6.26255
 30
0.000000
  70
    32
  0
VERTEX
  8
0
  5
ACD
 10
6.59096
 20
6.28962
 30
0.000000
  70
    32
  0
VERTEX
  8
0
  5
ACE
 10
6.55317
 20
6.31653
 30
0.000000
  70
    32
  0
VERTEX
  8
0
  5
ACF
 10
6.51522
 20
6.34330
 30
0.000000
  70
    32
  0
VERTEX
  8
0
  5
AD0
 10
6.47711
 20
6.36991
 30
0.000000
  70
    32
  0
VERTEX
  8
0
  5
AD1
 10
6.43883
 20
6.39638
 30
0.000000
  70
    32
  0
VERTEX
  8
0
  5
AD2
 10
6.40038
 20
6.42269
 30
0.000000
  70
    32
  0
VERTEX
  8
0
  5
AD3
 10
6.36178
 20
6.44885
 30
0.000000
  70
    32
  0
VERTEX
  8
0
  5
AD4
 10
6.32301
 20
6.47485
 30
0.000000
  70
    32
  0
VERTEX
  8
0
  5
AD5
 10
6.28409
 20
6.50070
 30
0.000000
  70
    32
  0
VERTEX
  8
0
  5
AD6
 10
6.24500
 20
6.52639
 30
0.000000
  70
    32
  0
VERTEX
  8
0
  5
AD7
 10
6.20575
 20
6.55192
 30
0.000000
  70
    32
  0
VERTEX
  8
0
  5
AD8
 10
6.16635
 20
6.57729
 30
0.000000
  70
    32
  0
VERTEX
  8
0
  5
AD9
 10
6.12679
 20
6.60251
 30
0.000000
  70
    32
  0
VERTEX
  8
0
  5
ADA
 10
6.08707
 20
6.62757
 30
0.000000
  70
    32
  0
VERTEX
  8
0
  5
ADB
 10
6.04720
 20
6.65246
 30
0.000000
  70
    32
  0
VERTEX
  8
0
  5
ADC
 10
6.00717
 20
6.67719
 30
0.000000
  70
    32
  0
VERTEX
  8
0
  5
ADD
 10
5.96699
 20
6.70176
 30
0.000000
  70
    32
  0
VERTEX
  8
0
  5
ADE
 10
5.92665
 20
6.72617
 30
0.000000
  70
    32
  0
VERTEX
  8
0
  5
ADF
 10
5.88617
 20
6.75041
 30
0.000000
  70
    32
  0
VERTEX
  8
0
  5
AE0
 10
5.84553
 20
6.77449
 30
0.000000
  70
    32
  0
VERTEX
  8
0
  5
AE1
 10
5.80474
 20
6.79840
 30
0.000000
  70
    32
  0
VERTEX
  8
0
  5
AE2
 10
5.76379
 20
6.82214
 30
0.000000
  70
    32
  0
VERTEX
  8
0
  5
AE3
 10
5.72269
 20
6.84573
 30
0.000000
  70
    32
  0
VERTEX
  8
0
  5
AE4
 10
5.68143
 20
6.86914
 30
0.000000
  70
    32
  0
VERTEX
  8
0
  5
AE5
 10
5.64002
 20
6.89239
 30
0.000000
  70
    32
  0
VERTEX
  8
0
  5
AE6
 10
5.59846
 20
6.91548
 30
0.000000
  70
    32
  0
VERTEX
  8
0
  5
AE7
 10
5.55675
 20
6.93840
 30
0.000000
  70
    32
  0
VERTEX
  8
0
  5
AE8
 10
5.51490
 20
6.96115
 30
0.000000
  70
    32
  0
VERTEX
  8
0
  5
AE9
 10
5.47290
 20
6.98373
 30
0.000000
  70
    32
  0
VERTEX
  8
0
  5
AEA
 10
5.43075
 20
7.00614
 30
0.000000
  70
    32
  0
VERTEX
  8
0
  5
AEB
 10
5.38845
 20
7.02839
 30
0.000000
  70
    32
  0
VERTEX
  8
0
  5
AEC
 10
5.34602
 20
7.05046
 30
0.000000
  70
    32
  0
VERTEX
  8
0
  5
AED
 10
5.30344
 20
7.07237
 30
0.000000
  70
    32
  0
VERTEX
  8
0
  5
AEE
 10
5.26072
 20
7.09410
 30
0.000000
  70
    32
  0
VERTEX
  8
0
  5
AEF
 10
5.21786
 20
7.11566
 30
0.000000
  70
    32
  0
VERTEX
  8
0
  5
AF0
 10
5.17486
 20
7.13705
 30
0.000000
  70
    32
  0
VERTEX
  8
0
  5
AF1
 10
5.13173
 20
7.15827
 30
0.000000
  70
    32
  0
VERTEX
  8
0
  5
AF2
 10
5.08846
 20
7.17931
 30
0.000000
  70
    32
  0
VERTEX
  8
0
  5
AF3
 10
5.04506
 20
7.20018
 30
0.000000
  70
    32
  0
VERTEX
  8
0
  5
AF4
 10
5.00152
 20
7.22087
 30
0.000000
  70
    32
  0
VERTEX
  8
0
  5
AF5
 10
4.95786
 20
7.24139
 30
0.000000
  70
    32
  0
VERTEX
  8
0
  5
AF6
 10
4.91406
 20
7.26174
 30
0.000000
  70
    32
  0
VERTEX
  8
0
  5
AF7
 10
4.87013
 20
7.28191
 30
0.000000
  70
    32
  0
VERTEX
  8
0
  5
AF8
 10
4.82607
 20
7.30190
 30
0.000000
  70
    32
  0
VERTEX
  8
0
  5
AF9
 10
4.78189
 20
7.32171
 30
0.000000
  70
    32
  0
VERTEX
  8
0
  5
AFA
 10
4.73758
 20
7.34135
 30
0.000000
  70
    32
  0
VERTEX
  8
0
  5
AFB
 10
4.69315
 20
7.36081
 30
0.000000
  70
    32
  0
VERTEX
  8
0
  5
AFC
 10
4.64860
 20
7.38009
 30
0.000000
  70
    32
  0
VERTEX
  8
0
  5
AFD
 10
4.60392
 20
7.39919
 30
0.000000
  70
    32
  0
VERTEX
  8
0
  5
AFE
 10
4.55912
 20
7.41811
 30
0.000000
  70
    32
  0
VERTEX
  8
0
  5
AFF
 10
4.51421
 20
7.43685
 30
0.000000
  70
    32
  0
VERTEX
  8
0
  5
B00
 10
4.46917
 20
7.45541
 30
0.000000
  70
    32
  0
VERTEX
  8
0
  5
B01
 10
4.42402
 20
7.47378
 30
0.000000
  70
    32
  0
VERTEX
  8
0
  5
B02
 10
4.37876
 20
7.49198
 30
0.000000
  70
    32
  0
VERTEX
  8
0
  5
B03
 10
4.33338
 20
7.50999
 30
0.000000
  70
    32
  0
VERTEX
  8
0
  5
B04
 10
4.28789
 20
7.52781
 30
0.000000
  70
    32
  0
VERTEX
  8
0
  5
B05
 10
4.24228
 20
7.54546
 30
0.000000
  70
    32
  0
VERTEX
  8
0
  5
B06
 10
4.19657
 20
7.56291
 30
0.000000
  70
    32
  0
VERTEX
  8
0
  5
B07
 10
4.15075
 20
7.58019
 30
0.000000
  70
    32
  0
VERTEX
  8
0
  5
B08
 10
4.10482
 20
7.59727
 30
0.000000
  70
    32
  0
VERTEX
  8
0
  5
B09
 10
4.05878
 20
7.61418
 30
0.000000
  70
    32
  0
VERTEX
  8
0
  5
B0A
 10
4.01264
 20
7.63089
 30
0.000000
  70
    32
  0
VERTEX
  8
0
  5
B0B
 10
3.96639
 20
7.64742
 30
0.000000
  70
    32
  0
VERTEX
  8
0
  5
B0C
 10
3.92004
 20
7.66375
 30
0.000000
  70
    32
  0
VERTEX
  8
0
  5
B0D
 10
3.87359
 20
7.67990
 30
0.000000
  70
    32
  0
VERTEX
  8
0
  5
B0E
 10
3.82704
 20
7.69586
 30
0.000000
  70
    32
  0
VERTEX
  8
0
  5
B0F
 10
3.78039
 20
7.71163
 30
0.000000
  70
    32
  0
VERTEX
  8
0
  5
B10
 10
3.73365
 20
7.72721
 30
0.000000
  70
    32
  0
VERTEX
  8
0
  5
B11
 10
3.68680
 20
7.74260
 30
0.000000
  70
    32
  0
VERTEX
  8
0
  5
B12
 10
3.63987
 20
7.75780
 30
0.000000
  70
    32
  0
VERTEX
  8
0
  5
B13
 10
3.59283
 20
7.77280
 30
0.000000
  70
    32
  0
VERTEX
  8
0
  5
B14
 10
3.54571
 20
7.78762
 30
0.000000
  70
    32
  0
VERTEX
  8
0
  5
B15
 10
3.49849
 20
7.80224
 30
0.000000
  70
    32
  0
VERTEX
  8
0
  5
B16
 10
3.45119
 20
7.81666
 30
0.000000
  70
    32
  0
VERTEX
  8
0
  5
B17
 10
3.40380
 20
7.83089
 30
0.000000
  70
    32
  0
VERTEX
  8
0
  5
B18
 10
3.35631
 20
7.84493
 30
0.000000
  70
    32
  0
VERTEX
  8
0
  5
B19
 10
3.30875
 20
7.85877
 30
0.000000
  70
    32
  0
VERTEX
  8
0
  5
B1A
 10
3.26109
 20
7.87241
 30
0.000000
  70
    32
  0
VERTEX
  8
0
  5
B1B
 10
3.21336
 20
7.88586
 30
0.000000
  70
    32
  0
VERTEX
  8
0
  5
B1C
 10
3.16554
 20
7.89911
 30
0.000000
  70
    32
  0
VERTEX
  8
0
  5
B1D
 10
3.11764
 20
7.91216
 30
0.000000
  70
    32
  0
VERTEX
  8
0
  5
B1E
 10
3.06966
 20
7.92502
 30
0.000000
  70
    32
  0
VERTEX
  8
0
  5
B1F
 10
3.02160
 20
7.93767
 30
0.000000
  70
    32
  0
VERTEX
  8
0
  5
B20
 10
2.97347
 20
7.95013
 30
0.000000
  70
    32
  0
VERTEX
  8
0
  5
B21
 10
2.92525
 20
7.96238
 30
0.000000
  70
    32
  0
VERTEX
  8
0
  5
B22
 10
2.87697
 20
7.97444
 30
0.000000
  70
    32
  0
VERTEX
  8
0
  5
B23
 10
2.82861
 20
7.98629
 30
0.000000
  70
    32
  0
VERTEX
  8
0
  5
B24
 10
2.78018
 20
7.99794
 30
0.000000
  70
    32
  0
VERTEX
  8
0
  5
B25
 10
2.73167
 20
8.00939
 30
0.000000
  70
    32
  0
VERTEX
  8
0
  5
B26
 10
2.68310
 20
8.02064
 30
0.000000
  70
    32
  0
VERTEX
  8
0
  5
B27
 10
2.63446
 20
8.03168
 30
0.000000
  70
    32
  0
VERTEX
  8
0
  5
B28
 10
2.58575
 20
8.04252
 30
0.000000
  70
    32
  0
VERTEX
  8
0
  5
B29
 10
2.53698
 20
8.05315
 30
0.000000
  70
    32
  0
VERTEX
  8
0
  5
B2A
 10
2.48814
 20
8.06358
 30
0.000000
  70
    32
  0
VERTEX
  8
0
  5
B2B
 10
2.43922
 20
8.07380
 30
0.000000
  70
    32
  0
VERTEX
  8
0
  5
B2C
 10
2.39024
 20
8.08382
 30
0.000000
  70
    32
  0
VERTEX
  8
0
  5
B2D
 10
2.34120
 20
8.09363
 30
0.000000
  70
    32
  0
VERTEX
  8
0
  5
B2E
 10
2.29209
 20
8.10324
 30
0.000000
  70
    32
  0
VERTEX
  8
0
  5
B2F
 10
2.24291
 20
8.11264
 30
0.000000
  70
    32
  0
VERTEX
  8
0
  5
B30
 10
2.19367
 20
8.12183
 30
0.000000
  70
    32
  0
VERTEX
  8
0
  5
B31
 10
2.14437
 20
8.13082
 30
0.000000
  70
    32
  0
VERTEX
  8
0
  5
B32
 10
2.09501
 20
8.13961
 30
0.000000
  70
    32
  0
VERTEX
  8
0
  5
B33
 10
2.04560
 20
8.14819
 30
0.000000
  70
    32
  0
VERTEX
  8
0
  5
B34
 10
1.99612
 20
8.15656
 30
0.000000
  70
    32
  0
VERTEX
  8
0
  5
B35
 10
1.94659
 20
8.16472
 30
0.000000
  70
    32
  0
VERTEX
  8
0
  5
B36
 10
1.89701
 20
8.17268
 30
0.000000
  70
    32
  0
VERTEX
  8
0
  5
B37
 10
1.84738
 20
8.18044
 30
0.000000
  70
    32
  0
VERTEX
  8
0
  5
B38
 10
1.79769
 20
8.18798
 30
0.000000
  70
    32
  0
VERTEX
  8
0
  5
B39
 10
1.74795
 20
8.19533
 30
0.000000
  70
    32
  0
VERTEX
  8
0
  5
B3A
 10
1.69817
 20
8.20246
 30
0.000000
  70
    32
  0
VERTEX
  8
0
  5
B3B
 10
1.64834
 20
8.20939
 30
0.000000
  70
    32
  0
VERTEX
  8
0
  5
B3C
 10
1.59846
 20
8.21611
 30
0.000000
  70
    32
  0
VERTEX
  8
0
  5
B3D
 10
1.54854
 20
8.22262
 30
0.000000
  70
    32
  0
VERTEX
  8
0
  5
B3E
 10
1.49858
 20
8.22893
 30
0.000000
  70
    32
  0
VERTEX
  8
0
  5
B3F
 10
1.44858
 20
8.23503
 30
0.000000
  70
    32
  0
VERTEX
  8
0
  5
B40
 10
1.39854
 20
8.24093
 30
0.000000
  70
    32
  0
VERTEX
  8
0
  5
B41
 10
1.34845
 20
8.24661
 30
0.000000
  70
    32
  0
VERTEX
  8
0
  5
B42
 10
1.29834
 20
8.25209
 30
0.000000
  70
    32
  0
VERTEX
  8
0
  5
B43
 10
1.24818
 20
8.25737
 30
0.000000
  70
    32
  0
VERTEX
  8
0
  5
B44
 10
1.19800
 20
8.26243
 30
0.000000
  70
    32
  0
VERTEX
  8
0
  5
B45
 10
1.14778
 20
8.26729
 30
0.000000
  70
    32
  0
VERTEX
  8
0
  5
B46
 10
1.09753
 20
8.27194
 30
0.000000
  70
    32
  0
VERTEX
  8
0
  5
B47
 10
1.04724
 20
8.27639
 30
0.000000
  70
    32
  0
VERTEX
  8
0
  5
B48
 10
0.996936
 20
8.28062
 30
0.000000
  70
    32
  0
VERTEX
  8
0
  5
B49
 10
0.946600
 20
8.28465
 30
0.000000
  70
    32
  0
VERTEX
  8
0
  5
B4A
 10
0.896238
 20
8.28847
 30
0.000000
  70
    32
  0
VERTEX
  8
0
  5
B4B
 10
0.845853
 20
8.29208
 30
0.000000
  70
    32
  0
VERTEX
  8
0
  5
B4C
 10
0.795445
 20
8.29549
 30
0.000000
  70
    32
  0
VERTEX
  8
0
  5
B4D
 10
0.745016
 20
8.29869
 30
0.000000
  70
    32
  0
VERTEX
  8
0
  5
B4E
 10
0.694567
 20
8.30168
 30
0.000000
  70
    32
  0
VERTEX
  8
0
  5
B4F
 10
0.644100
 20
8.30446
 30
0.000000
  70
    32
  0
VERTEX
  8
0
  5
B50
 10
0.593616
 20
8.30703
 30
0.000000
  70
    32
  0
VERTEX
  8
0
  5
B51
 10
0.543117
 20
8.30940
 30
0.000000
  70
    32
  0
VERTEX
  8
0
  5
B52
 10
0.492603
 20
8.31155
 30
0.000000
  70
    32
  0
VERTEX
  8
0
  5
B53
 10
0.442077
 20
8.31350
 30
0.000000
  70
    32
  0
VERTEX
  8
0
  5
B54
 10
0.391539
 20
8.31524
 30
0.000000
  70
    32
  0
VERTEX
  8
0
  5
B55
 10
0.340992
 20
8.31678
 30
0.000000
  70
    32
  0
VERTEX
  8
0
  5
B56
 10
0.290436
 20
8.31810
 30
0.000000
  70
    32
  0
VERTEX
  8
0
  5
B57
 10
0.239874
 20
8.31921
 30
0.000000
  70
    32
  0
VERTEX
  8
0
  5
B58
 10
0.189305
 20
8.32012
 30
0.000000
  70
    32
  0
VERTEX
  8
0
  5
B59
 10
0.138733
 20
8.32082
 30
0.000000
  70
    32
  0
VERTEX
  8
0
  5
B5A
 10
0.0881580
 20
8.32130
 30
0.000000
  70
    32
  0
VERTEX
  8
0
  5
B5B
 10
0.0375817
 20
8.32158
 30
0.000000
  70
    32
  0
VERTEX
  8
0
  5
B5C
 10
-0.0129944
 20
8.32165
 30
0.000000
  70
    32
  0
VERTEX
  8
0
  5
B5D
 10
-0.0635690
 20
8.32151
 30
0.000000
  70
    32
  0
VERTEX
  8
0
  5
B5E
 10
-0.114141
 20
8.32117
 30
0.000000
  70
    32
  0
VERTEX
  8
0
  5
B5F
 10
-0.164708
 20
8.32061
 30
0.000000
  70
    32
  0
VERTEX
  8
0
  5
B60
 10
-0.215269
 20
8.31984
 30
0.000000
  70
    32
  0
VERTEX
  8
0
  5
B61
 10
-0.265823
 20
8.31887
 30
0.000000
  70
    32
  0
VERTEX
  8
0
  5
B62
 10
-0.316369
 20
8.31768
 30
0.000000
  70
    32
  0
VERTEX
  8
0
  5
B63
 10
-0.366904
 20
8.31629
 30
0.000000
  70
    32
  0
VERTEX
  8
0
  5
B64
 10
-0.417428
 20
8.31468
 30
0.000000
  70
    32
  0
VERTEX
  8
0
  5
B65
 10
-0.467939
 20
8.31287
 30
0.000000
  70
    32
  0
VERTEX
  8
0
  5
B66
 10
-0.518436
 20
8.31084
 30
0.000000
  70
    32
  0
VERTEX
  8
0
  5
B67
 10
-0.568917
 20
8.30861
 30
0.000000
  70
    32
  0
VERTEX
  8
0
  5
B68
 10
-0.619380
 20
8.30617
 30
0.000000
  70
    32
  0
VERTEX
  8
0
  5
B69
 10
-0.669826
 20
8.30351
 30
0.000000
  70
    32
  0
VERTEX
  8
0
  5
B6A
 10
-0.720251
 20
8.30065
 30
0.000000
  70
    32
  0
VERTEX
  8
0
  5
B6B
 10
-0.770654
 20
8.29757
 30
0.000000
  70
    32
  0
VERTEX
  8
0
  5
B6C
 10
-0.821035
 20
8.29429
 30
0.000000
  70
    32
  0
VERTEX
  8
0
  5
B6D
 10
-0.871391
 20
8.29079
 30
0.000000
  70
    32
  0
VERTEX
  8
0
  5
B6E
 10
-0.921722
 20
8.28709
 30
0.000000
  70
    32
  0
VERTEX
  8
0
  5
B6F
 10
-0.972026
 20
8.28317
 30
0.000000
  70
    32
  0
VERTEX
  8
0
  5
B70
 10
-1.02230
 20
8.27905
 30
0.000000
  70
    32
  0
VERTEX
  8
0
  5
B71
 10
-1.07255
 20
8.27471
 30
0.000000
  70
    32
  0
VERTEX
  8
0
  5
B72
 10
-1.12276
 20
8.27016
 30
0.000000
  70
    32
  0
VERTEX
  8
0
  5
B73
 10
-1.17295
 20
8.26540
 30
0.000000
  70
    32
  0
VERTEX
  8
0
  5
B74
 10
-1.22310
 20
8.26043
 30
0.000000
  70
    32
  0
VERTEX
  8
0
  5
B75
 10
-1.27323
 20
8.25524
 30
0.000000
  70
    32
  0
VERTEX
  8
0
  5
B76
 10
-1.32332
 20
8.24985
 30
0.000000
  70
    32
  0
VERTEX
  8
0
  5
B77
 10
-1.37338
 20
8.24424
 30
0.000000
  70
    32
  0
VERTEX
  8
0
  5
B78
 10
-1.42340
 20
8.23842
 30
0.000000
  70
    32
  0
VERTEX
  8
0
  5
B79
 10
-1.47339
 20
8.23239
 30
0.000000
  70
    32
  0
VERTEX
  8
0
  5
B7A
 10
-1.52334
 20
8.22615
 30
0.000000
  70
    32
  0
VERTEX
  8
0
  5
B7B
 10
-1.57326
 20
8.21970
 30
0.000000
  70
    32
  0
VERTEX
  8
0
  5
B7C
 10
-1.62313
 20
8.21304
 30
0.000000
  70
    32
  0
VERTEX
  8
0
  5
B7D
 10
-1.67296
 20
8.20617
 30
0.000000
  70
    32
  0
VERTEX
  8
0
  5
B7E
 10
-1.72275
 20
8.19909
 30
0.000000
  70
    32
  0
VERTEX
  8
0
  5
B7F
 10
-1.77249
 20
8.19181
 30
0.000000
  70
    32
  0
VERTEX
  8
0
  5
B80
 10
-1.82219
 20
8.18432
 30
0.000000
  70
    32
  0
VERTEX
  8
0
  5
B81
 10
-1.87184
 20
8.17662
 30
0.000000
  70
    32
  0
VERTEX
  8
0
  5
B82
 10
-1.92144
 20
8.16871
 30
0.000000
  70
    32
  0
VERTEX
  8
0
  5
B83
 10
-1.97100
 20
8.16060
 30
0.000000
  70
    32
  0
VERTEX
  8
0
  5
B84
 10
-2.02050
 20
8.15228
 30
0.000000
  70
    32
  0
VERTEX
  8
0
  5
B85
 10
-2.06995
 20
8.14376
 30
0.000000
  70
    32
  0
VERTEX
  8
0
  5
B86
 10
-2.11935
 20
8.13503
 30
0.000000
  70
    32
  0
VERTEX
  8
0
  5
B87
 10
-2.16869
 20
8.12610
 30
0.000000
  70
    32
  0
VERTEX
  8
0
  5
B88
 10
-2.21798
 20
8.11696
 30
0.000000
  70
    32
  0
VERTEX
  8
0
  5
B89
 10
-2.26721
 20
8.10762
 30
0.000000
  70
    32
  0
VERTEX
  8
0
  5
B8A
 10
-2.31638
 20
8.09808
 30
0.000000
  70
    32
  0
VERTEX
  8
0
  5
B8B
 10
-2.36549
 20
8.08833
 30
0.000000
  70
    32
  0
VERTEX
  8
0
  5
B8C
 10
-2.41454
 20
8.07838
 30
0.000000
  70
    32
  0
VERTEX
  8
0
  5
B8D
 10
-2.46353
 20
8.06823
 30
0.000000
  70
    32
  0
VERTEX
  8
0
  5
B8E
 10
-2.51246
 20
8.05788
 30
0.000000
  70
    32
  0
VERTEX
  8
0
  5
B8F
 10
-2.56132
 20
8.04732
 30
0.000000
  70
    32
  0
VERTEX
  8
0
  5
B90
 10
-2.61011
 20
8.03657
 30
0.000000
  70
    32
  0
VERTEX
  8
0
  5
B91
 10
-2.65883
 20
8.02561
 30
0.000000
  70
    32
  0
VERTEX
  8
0
  5
B92
 10
-2.70749
 20
8.01446
 30
0.000000
  70
    32
  0
VERTEX
  8
0
  5
B93
 10
-2.75607
 20
8.00310
 30
0.000000
  70
    32
  0
VERTEX
  8
0
  5
B94
 10
-2.80459
 20
7.99155
 30
0.000000
  70
    32
  0
VERTEX
  8
0
  5
B95
 10
-2.85303
 20
7.97979
 30
0.000000
  70
    32
  0
VERTEX
  8
0
  5
B96
 10
-2.90139
 20
7.96784
 30
0.000000
  70
    32
  0
VERTEX
  8
0
  5
B97
 10
-2.94968
 20
7.95569
 30
0.000000
  70
    32
  0
VERTEX
  8
0
  5
B98
 10
-2.99790
 20
7.94335
 30
0.000000
  70
    32
  0
VERTEX
  8
0
  5
B99
 10
-3.04603
 20
7.93080
 30
0.000000
  70
    32
  0
VERTEX
  8
0
  5
B9A
 10
-3.09409
 20
7.91806
 30
0.000000
  70
    32
  0
VERTEX
  8
0
  5
B9B
 10
-3.14206
 20
7.90513
 30
0.000000
  70
    32
  0
VERTEX
  8
0
  5
B9C
 10
-3.18995
 20
7.89200
 30
0.000000
  70
    32
  0
VERTEX
  8
0
  5
B9D
 10
-3.23776
 20
7.87867
 30
0.000000
  70
    32
  0
VERTEX
  8
0
  5
B9E
 10
-3.28549
 20
7.86515
 30
0.000000
  70
    32
  0
VERTEX
  8
0
  5
B9F
 10
-3.33312
 20
7.85143
 30
0.000000
  70
    32
  0
VERTEX
  8
0
  5
BA0
 10
-3.38067
 20
7.83752
 30
0.000000
  70
    32
  0
VERTEX
  8
0
  5
BA1
 10
-3.42813
 20
7.82342
 30
0.000000
  70
    32
  0
VERTEX
  8
0
  5
BA2
 10
-3.47550
 20
7.80912
 30
0.000000
  70
    32
  0
VERTEX
  8
0
  5
BA3
 10
-3.52278
 20
7.79463
 30
0.000000
  70
    32
  0
VERTEX
  8
0
  5
BA4
 10
-3.56997
 20
7.77995
 30
0.000000
  70
    32
  0
VERTEX
  8
0
  5
BA5
 10
-3.61706
 20
7.76507
 30
0.000000
  70
    32
  0
VERTEX
  8
0
  5
BA6
 10
-3.66406
 20
7.75001
 30
0.000000
  70
    32
  0
VERTEX
  8
0
  5
BA7
 10
-3.71096
 20
7.73475
 30
0.000000
  70
    32
  0
VERTEX
  8
0
  5
BA8
 10
-3.75776
 20
7.71930
 30
0.000000
  70
    32
  0
VERTEX
  8
0
  5
BA9
 10
-3.80446
 20
7.70367
 30
0.000000
  70
    32
  0
VERTEX
  8
0
  5
BAA
 10
-3.85106
 20
7.68784
 30
0.000000
  70
    32
  0
VERTEX
  8
0
  5
BAB
 10
-3.89756
 20
7.67182
 30
0.000000
  70
    32
  0
VERTEX
  8
0
  5
BAC
 10
-3.94396
 20
7.65562
 30
0.000000
  70
    32
  0
VERTEX
  8
0
  5
BAD
 10
-3.99025
 20
7.63922
 30
0.000000
  70
    32
  0
VERTEX
  8
0
  5
BAE
 10
-4.03643
 20
7.62264
 30
0.000000
  70
    32
  0
VERTEX
  8
0
  5
BAF
 10
-4.08251
 20
7.60587
 30
0.000000
  70
    32
  0
VERTEX
  8
0
  5
BB0
 10
-4.12848
 20
7.58891
 30
0.000000
  70
    32
  0
VERTEX
  8
0
  5
BB1
 10
-4.17434
 20
7.57177
 30
0.000000
  70
    32
  0
VERTEX
  8
0
  5
BB2
 10
-4.22009
 20
7.55444
 30
0.000000
  70
    32
  0
VERTEX
  8
0
  5
BB3
 10
-4.26572
 20
7.53692
 30
0.000000
  70
    32
  0
VERTEX
  8
0
  5
BB4
 10
-4.31124
 20
7.51922
 30
0.000000
  70
    32
  0
VERTEX
  8
0
  5
BB5
 10
-4.35665
 20
7.50133
 30
0.000000
  70
    32
  0
VERTEX
  8
0
  5
BB6
 10
-4.40194
 20
7.48326
 30
0.000000
  70
    32
  0
VERTEX
  8
0
  5
BB7
 10
-4.44711
 20
7.46500
 30
0.000000
  70
    32
  0
VERTEX
  8
0
  5
BB8
 10
-4.49216
 20
7.44656
 30
0.000000
  70
    32
  0
VERTEX
  8
0
  5
BB9
 10
-4.53710
 20
7.42794
 30
0.000000
  70
    32
  0
VERTEX
  8
0
  5
BBA
 10
-4.58191
 20
7.40913
 30
0.000000
  70
    32
  0
VERTEX
  8
0
  5
BBB
 10
-4.62659
 20
7.39014
 30
0.000000
  70
    32
  0
VERTEX
  8
0
  5
BBC
 10
-4.67116
 20
7.37097
 30
0.000000
  70
    32
  0
VERTEX
  8
0
  5
BBD
 10
-4.71560
 20
7.35160
 30
0.000000
  70
    32
  0
VERTEX
  8
0
  5
BBE
 10
-4.75992
 20
7.33206
 30
0.000000
  70
    32
  0
VERTEX
  8
0
  5
BBF
 10
-4.80412
 20
7.31233
 30
0.000000
  70
    32
  0
VERTEX
  8
0
  5
BC0
 10
-4.84818
 20
7.29242
 30
0.000000
  70
    32
  0
VERTEX
  8
0
  5
BC1
 10
-4.89213
 20
7.27233
 30
0.000000
  70
    32
  0
VERTEX
  8
0
  5
BC2
 10
-4.93594
 20
7.25206
 30
0.000000
  70
    32
  0
VERTEX
  8
0
  5
BC3
 10
-4.97962
 20
7.23160
 30
0.000000
  70
    32
  0
VERTEX
  8
0
  5
BC4
 10
-5.02318
 20
7.21097
 30
0.000000
  70
    32
  0
VERTEX
  8
0
  5
BC5
 10
-5.06660
 20
7.19016
 30
0.000000
  70
    32
  0
VERTEX
  8
0
  5
BC6
 10
-5.10990
 20
7.16917
 30
0.000000
  70
    32
  0
VERTEX
  8
0
  5
BC7
 10
-5.15306
 20
7.14801
 30
0.000000
  70
    32
  0
VERTEX
  8
0
  5
BC8
 10
-5.19608
 20
7.12667
 30
0.000000
  70
    32
  0
VERTEX
  8
0
  5
BC9
 10
-5.23897
 20
7.10516
 30
0.000000
  70
    32
  0
VERTEX
  8
0
  5
BCA
 10
-5.28173
 20
7.08347
 30
0.000000
  70
    32
  0
VERTEX
  8
0
  5
BCB
 10
-5.32435
 20
7.06161
 30
0.000000
  70
    32
  0
VERTEX
  8
0
  5
BCC
 10
-5.36683
 20
7.03957
 30
0.000000
  70
    32
  0
VERTEX
  8
0
  5
BCD
 10
-5.40917
 20
7.01737
 30
0.000000
  70
    32
  0
VERTEX
  8
0
  5
BCE
 10
-5.45138
 20
6.99499
 30
0.000000
  70
    32
  0
VERTEX
  8
0
  5
BCF
 10
-5.49344
 20
6.97245
 30
0.000000
  70
    32
  0
VERTEX
  8
0
  5
BD0
 10
-5.53536
 20
6.94973
 30
0.000000
  70
    32
  0
VERTEX
  8
0
  5
BD1
 10
-5.57714
 20
6.92685
 30
0.000000
  70
    32
  0
VERTEX
  8
0
  5
BD2
 10
-5.61878
 20
6.90380
 30
0.000000
  70
    32
  0
VERTEX
  8
0
  5
BD3
 10
-5.66027
 20
6.88058
 30
0.000000
  70
    32
  0
VERTEX
  8
0
  5
BD4
 10
-5.70162
 20
6.85720
 30
0.000000
  70
    32
  0
VERTEX
  8
0
  5
BD5
 10
-5.74282
 20
6.83365
 30
0.000000
  70
    32
  0
VERTEX
  8
0
  5
BD6
 10
-5.78387
 20
6.80993
 30
0.000000
  70
    32
  0
VERTEX
  8
0
  5
BD7
 10
-5.82478
 20
6.78606
 30
0.000000
  70
    32
  0
VERTEX
  8
0
  5
BD8
 10
-5.86553
 20
6.76202
 30
0.000000
  70
    32
  0
VERTEX
  8
0
  5
BD9
 10
-5.90614
 20
6.73782
 30
0.000000
  70
    32
  0
VERTEX
  8
0
  5
BDA
 10
-5.94659
 20
6.71346
 30
0.000000
  70
    32
  0
VERTEX
  8
0
  5
BDB
 10
-5.98690
 20
6.68893
 30
0.000000
  70
    32
  0
VERTEX
  8
0
  5
BDC
 10
-6.02705
 20
6.66425
 30
0.000000
  70
    32
  0
VERTEX
  8
0
  5
BDD
 10
-6.06704
 20
6.63941
 30
0.000000
  70
    32
  0
VERTEX
  8
0
  5
BDE
 10
-6.10688
 20
6.61442
 30
0.000000
  70
    32
  0
VERTEX
  8
0
  5
BDF
 10
-6.14657
 20
6.58926
 30
0.000000
  70
    32
  0
VERTEX
  8
0
  5
BE0
 10
-6.18609
 20
6.56395
 30
0.000000
  70
    32
  0
VERTEX
  8
0
  5
BE1
 10
-6.22546
 20
6.53849
 30
0.000000
  70
    32
  0
VERTEX
  8
0
  5
BE2
 10
-6.26468
 20
6.51287
 30
0.000000
  70
    32
  0
VERTEX
  8
0
  5
BE3
 10
-6.30373
 20
6.48709
 30
0.000000
  70
    32
  0
VERTEX
  8
0
  5
BE4
 10
-6.34262
 20
6.46117
 30
0.000000
  70
    32
  0
VERTEX
  8
0
  5
BE5
 10
-6.38134
 20
6.43509
 30
0.000000
  70
    32
  0
VERTEX
  8
0
  5
BE6
 10
-6.41991
 20
6.40886
 30
0.000000
  70
    32
  0
VERTEX
  8
0
  5
BE7
 10
-6.45831
 20
6.38248
 30
0.000000
  70
    32
  0
VERTEX
  8
0
  5
BE8
 10
-6.49655
 20
6.35595
 30
0.000000
  70
    32
  0
VERTEX
  8
0
  5
BE9
 10
-6.53462
 20
6.32927
 30
0.000000
  70
    32
  0
VERTEX
  8
0
  5
BEA
 10
-6.57253
 20
6.30245
 30
0.000000
  70
    32
  0
VERTEX
  8
0
  5
BEB
 10
-6.61026
 20
6.27547
 30
0.000000
  70
    32
  0
VERTEX
  8
0
  5
BEC
 10
-6.64783
 20
6.24836
 30
0.000000
  70
    32
  0
VERTEX
  8
0
  5
BED
 10
-6.68523
 20
6.22109
 30
0.000000
  70
    32
  0
VERTEX
  8
0
  5
BEE
 10
-6.72246
 20
6.19368
 30
0.000000
  70
    32
  0
VERTEX
  8
0
  5
BEF
 10
-6.75952
 20
6.16613
 30
0.000000
  70
    32
  0
VERTEX
  8
0
  5
BF0
 10
-6.79640
 20
6.13843
 30
0.000000
  70
    32
  0
VERTEX
  8
0
  5
BF1
 10
-6.83311
 20
6.11060
 30
0.000000
  70
    32
  0
VERTEX
  8
0
  5
BF2
 10
-6.86965
 20
6.08262
 30
0.000000
  70
    32
  0
VERTEX
  8
0
  5
BF3
 10
-6.90601
 20
6.05450
 30
0.000000
  70
    32
  0
VERTEX
  8
0
  5
BF4
 10
-6.94220
 20
6.02624
 30
0.000000
  70
    32
  0
VERTEX
  8
0
  5
BF5
 10
-6.97821
 20
5.99784
 30
0.000000
  70
    32
  0
VERTEX
  8
0
  5
BF6
 10
-7.01404
 20
5.96931
 30
0.000000
  70
    32
  0
VERTEX
  8
0
  5
BF7
 10
-7.04969
 20
5.94063
 30
0.000000
  70
    32
  0
VERTEX
  8
0
  5
BF8
 10
-7.08516
 20
5.91182
 30
0.000000
  70
    32
  0
VERTEX
  8
0
  5
BF9
 10
-7.12044
 20
5.88288
 30
0.000000
  70
    32
  0
VERTEX
  8
0
  5
BFA
 10
-7.15555
 20
5.85380
 30
0.000000
  70
    32
  0
VERTEX
  8
0
  5
BFB
 10
-7.19048
 20
5.82458
 30
0.000000
  70
    32
  0
VERTEX
  8
0
  5
BFC
 10
-7.22522
 20
5.79524
 30
0.000000
  70
    32
  0
VERTEX
  8
0
  5
BFD
 10
-7.25977
 20
5.76576
 30
0.000000
  70
    32
  0
VERTEX
  8
0
  5
BFE
 10
-7.29414
 20
5.73615
 30
0.000000
  70
    32
  0
VERTEX
  8
0
  5
BFF
 10
-7.32832
 20
5.70641
 30
0.000000
  70
    32
  0
VERTEX
  8
0
  5
C00
 10
-7.36231
 20
5.67654
 30
0.000000
  70
    32
  0
VERTEX
  8
0
  5
C01
 10
-7.39612
 20
5.64654
 30
0.000000
  70
    32
  0
VERTEX
  8
0
  5
C02
 10
-7.42973
 20
5.61641
 30
0.000000
  70
    32
  0
VERTEX
  8
0
  5
C03
 10
-7.46316
 20
5.58615
 30
0.000000
  70
    32
  0
VERTEX
  8
0
  5
C04
 10
-7.49639
 20
5.55577
 30
0.000000
  70
    32
  0
VERTEX
  8
0
  5
C05
 10
-7.52943
 20
5.52525
 30
0.000000
  70
    32
  0
VERTEX
  8
0
  5
C06
 10
-7.56228
 20
5.49461
 30
0.000000
  70
    32
  0
VERTEX
  8
0
  5
C07
 10
-7.59493
 20
5.46384
 30
0.000000
  70
    32
  0
VERTEX
  8
0
  5
C08
 10
-7.62739
 20
5.43295
 30
0.000000
  70
    32
  0
VERTEX
  8
0
  5
C09
 10
-7.65966
 20
5.40193
 30
0.000000
  70
    32
  0
VERTEX
  8
0
  5
C0A
 10
-7.69173
 20
5.37079
 30
0.000000
  70
    32
  0
VERTEX
  8
0
  5
C0B
 10
-7.72361
 20
5.33953
 30
0.000000
  70
    32
  0
VERTEX
  8
0
  5
C0C
 10
-7.75529
 20
5.30814
 30
0.000000
  70
    32
  0
VERTEX
  8
0
  5
C0D
 10
-7.78677
 20
5.27663
 30
0.000000
  70
    32
  0
VERTEX
  8
0
  5
C0E
 10
-7.81806
 20
5.24500
 30
0.000000
  70
    32
  0
VERTEX
  8
0
  5
C0F
 10
-7.84915
 20
5.21326
 30
0.000000
  70
    32
  0
VERTEX
  8
0
  5
C10
 10
-7.88005
 20
5.18139
 30
0.000000
  70
    32
  0
VERTEX
  8
0
  5
C11
 10
-7.91075
 20
5.14941
 30
0.000000
  70
    32
  0
VERTEX
  8
0
  5
C12
 10
-7.94125
 20
5.11731
 30
0.000000
  70
    32
  0
VERTEX
  8
0
  5
C13
 10
-7.97155
 20
5.08510
 30
0.000000
  70
    32
  0
VERTEX
  8
0
  5
C14
 10
-8.00165
 20
5.05277
 30
0.000000
  70
    32
  0
VERTEX
  8
0
  5
C15
 10
-8.03155
 20
5.02033
 30
0.000000
  70
    32
  0
VERTEX
  8
0
  5
C16
 10
-8.06125
 20
4.98777
 30
0.000000
  70
    32
  0
VERTEX
  8
0
  5
C17
 10
-8.09076
 20
4.95511
 30
0.000000
  70
    32
  0
VERTEX
  8
0
  5
C18
 10
-8.12006
 20
4.92233
 30
0.000000
  70
    32
  0
VERTEX
  8
0
  5
C19
 10
-8.14916
 20
4.88945
 30
0.000000
  70
    32
  0
VERTEX
  8
0
  5
C1A
 10
-8.17806
 20
4.85645
 30
0.000000
  70
    32
  0
VERTEX
  8
0
  5
C1B
 10
-8.20675
 20
4.82335
 30
0.000000
  70
    32
  0
VERTEX
  8
0
  5
C1C
 10
-8.23525
 20
4.79014
 30
0.000000
  70
    32
  0
VERTEX
  8
0
  5
C1D
 10
-8.26354
 20
4.75683
 30
0.000000
  70
    32
  0
VERTEX
  8
0
  5
C1E
 10
-8.29162
 20
4.72341
 30
0.000000
  70
    32
  0
VERTEX
  8
0
  5
C1F
 10
-8.31951
 20
4.68988
 30
0.000000
  70
    32
  0
VERTEX
  8
0
  5
C20
 10
-8.34719
 20
4.65626
 30
0.000000
  70
    32
  0
VERTEX
  8
0
  5
C21
 10
-8.37466
 20
4.62253
 30
0.000000
  70
    32
  0
VERTEX
  8
0
  5
C22
 10
-8.40193
 20
4.58870
 30
0.000000
  70
    32
  0
VERTEX
  8
0
  5
C23
 10
-8.42899
 20
4.55477
 30
0.000000
  70
    32
  0
VERTEX
  8
0
  5
C24
 10
-8.45585
 20
4.52074
 30
0.000000
  70
    32
  0
VERTEX
  8
0
  5
C25
 10
-8.48250
 20
4.48662
 30
0.000000
  70
    32
  0
VERTEX
  8
0
  5
C26
 10
-8.50894
 20
4.45239
 30
0.000000
  70
    32
  0
VERTEX
  8
0
  5
C27
 10
-8.53518
 20
4.41808
 30
0.000000
  70
    32
  0
VERTEX
  8
0
  5
C28
 10
-8.56121
 20
4.38366
 30
0.000000
  70
    32
  0
VERTEX
  8
0
  5
C29
 10
-8.58703
 20
4.34915
 30
0.000000
  70
    32
  0
VERTEX
  8
0
  5
C2A
 10
-8.61264
 20
4.31455
 30
0.000000
  70
    32
  0
VERTEX
  8
0
  5
C2B
 10
-8.63804
 20
4.27985
 30
0.000000
  70
    32
  0
VERTEX
  8
0
  5
C2C
 10
-8.66323
 20
4.24507
 30
0.000000
  70
    32
  0
VERTEX
  8
0
  5
C2D
 10
-8.68821
 20
4.21019
 30
0.000000
  70
    32
  0
VERTEX
  8
0
  5
C2E
 10
-8.71298
 20
4.17522
 30
0.000000
  70
    32
  0
VERTEX
  8
0
  5
C2F
 10
-8.73754
 20
4.14016
 30
0.000000
  70
    32
  0
VERTEX
  8
0
  5
C30
 10
-8.76189
 20
4.10502
 30
0.000000
  70
    32
  0
VERTEX
  8
0
  5
C31
 10
-8.78602
 20
4.06979
 30
0.000000
  70
    32
  0
VERTEX
  8
0
  5
C32
 10
-8.80995
 20
4.03448
 30
0.000000
  70
    32
  0
VERTEX
  8
0
  5
C33
 10
-8.83366
 20
3.99907
 30
0.000000
  70
    32
  0
VERTEX
  8
0
  5
C34
 10
-8.85716
 20
3.96359
 30
0.000000
  70
    32
  0
VERTEX
  8
0
  5
C35
 10
-8.88044
 20
3.92802
 30
0.000000
  70
    32
  0
VERTEX
  8
0
  5
C36
 10
-8.90351
 20
3.89237
 30
0.000000
  70
    32
  0
VERTEX
  8
0
  5
C37
 10
-8.92636
 20
3.85664
 30
0.000000
  70
    32
  0
VERTEX
  8
0
  5
C38
 10
-8.94900
 20
3.82083
 30
0.000000
  70
    32
  0
VERTEX
  8
0
  5
C39
 10
-8.97143
 20
3.78494
 30
0.000000
  70
    32
  0
VERTEX
  8
0
  5
C3A
 10
-8.99363
 20
3.74897
 30
0.000000
  70
    32
  0
VERTEX
  8
0
  5
C3B
 10
-9.01562
 20
3.71293
 30
0.000000
  70
    32
  0
VERTEX
  8
0
  5
C3C
 10
-9.03740
 20
3.67680
 30
0.000000
  70
    32
  0
VERTEX
  8
0
  5
C3D
 10
-9.05896
 20
3.64061
 30
0.000000
  70
    32
  0
VERTEX
  8
0
  5
C3E
 10
-9.08029
 20
3.60433
 30
0.000000
  70
    32
  0
VERTEX
  8
0
  5
C3F
 10
-9.10142
 20
3.56799
 30
0.000000
  70
    32
  0
VERTEX
  8
0
  5
C40
 10
-9.12232
 20
3.53157
 30
0.000000
  70
    32
  0
VERTEX
  8
0
  5
C41
 10
-9.14300
 20
3.49508
 30
0.000000
  70
    32
  0
VERTEX
  8
0
  5
C42
 10
-9.16346
 20
3.45852
 30
0.000000
  70
    32
  0
VERTEX
  8
0
  5
C43
 10
-9.18371
 20
3.42189
 30
0.000000
  70
    32
  0
VERTEX
  8
0
  5
C44
 10
-9.20373
 20
3.38519
 30
0.000000
  70
    32
  0
VERTEX
  8
0
  5
C45
 10
-9.22353
 20
3.34843
 30
0.000000
  70
    32
  0
VERTEX
  8
0
  5
C46
 10
-9.24311
 20
3.31160
 30
0.000000
  70
    32
  0
VERTEX
  8
0
  5
C47
 10
-9.26247
 20
3.27470
 30
0.000000
  70
    32
  0
VERTEX
  8
0
  5
C48
 10
-9.28161
 20
3.23773
 30
0.000000
  70
    32
  0
VERTEX
  8
0
  5
C49
 10
-9.30052
 20
3.20071
 30
0.000000
  70
    32
  0
VERTEX
  8
0
  5
C4A
 10
-9.31921
 20
3.16361
 30
0.000000
  70
    32
  0
VERTEX
  8
0
  5
C4B
 10
-9.33768
 20
3.12646
 30
0.000000
  70
    32
  0
VERTEX
  8
0
  5
C4C
 10
-9.35592
 20
3.08925
 30
0.000000
  70
    32
  0
VERTEX
  8
0
  5
C4D
 10
-9.37393
 20
3.05197
 30
0.000000
  70
    32
  0
VERTEX
  8
0
  5
C4E
 10
-9.39172
 20
3.01464
 30
0.000000
  70
    32
  0
VERTEX
  8
0
  5
C4F
 10
-9.40929
 20
2.97724
 30
0.000000
  70
    32
  0
VERTEX
  8
0
  5
C50
 10
-9.42663
 20
2.93979
 30
0.000000
  70
    32
  0
VERTEX
  8
0
  5
C51
 10
-9.44374
 20
2.90228
 30
0.000000
  70
    32
  0
VERTEX
  8
0
  5
C52
 10
-9.46063
 20
2.86471
 30
0.000000
  70
    32
  0
VERTEX
  8
0
  5
C53
 10
-9.47729
 20
2.82709
 30
0.000000
  70
    32
  0
VERTEX
  8
0
  5
C54
 10
-9.49372
 20
2.78941
 30
0.000000
  70
    32
  0
VERTEX
  8
0
  5
C55
 10
-9.50993
 20
2.75167
 30
0.000000
  70
    32
  0
VERTEX
  8
0
  5
C56
 10
-9.52591
 20
2.71388
 30
0.000000
  70
    32
  0
VERTEX
  8
0
  5
C57
 10
-9.54167
 20
2.67604
 30
0.000000
  70
    32
  0
VERTEX
  8
0
  5
C58
 10
-9.55720
 20
2.63814
 30
0.000000
  70
    32
  0
VERTEX
  8
0
  5
C59
 10
-9.57250
 20
2.60020
 30
0.000000
  70
    32
  0
VERTEX
  8
0
  5
C5A
 10
-9.58758
 20
2.56220
 30
0.000000
  70
    32
  0
VERTEX
  8
0
  5
C5B
 10
-9.60243
 20
2.52415
 30
0.000000
  70
    32
  0
VERTEX
  8
0
  5
C5C
 10
-9.61706
 20
2.48606
 30
0.000000
  70
    32
  0
VERTEX
  8
0
  5
C5D
 10
-9.63145
 20
2.44791
 30
0.000000
  70
    32
  0
VERTEX
  8
0
  5
C5E
 10
-9.64563
 20
2.40972
 30
0.000000
  70
    32
  0
VERTEX
  8
0
  5
C5F
 10
-9.65957
 20
2.37148
 30
0.000000
  70
    32
  0
VERTEX
  8
0
  5
C60
 10
-9.67329
 20
2.33319
 30
0.000000
  70
    32
  0
VERTEX
  8
0
  5
C61
 10
-9.68678
 20
2.29486
 30
0.000000
  70
    32
  0
VERTEX
  8
0
  5
C62
 10
-9.70004
 20
2.25648
 30
0.000000
  70
    32
  0
VERTEX
  8
0
  5
C63
 10
-9.71308
 20
2.21806
 30
0.000000
  70
    32
  0
VERTEX
  8
0
  5
C64
 10
-9.72589
 20
2.17959
 30
0.000000
  70
    32
  0
VERTEX
  8
0
  5
C65
 10
-9.73848
 20
2.14109
 30
0.000000
  70
    32
  0
VERTEX
  8
0
  5
C66
 10
-9.75083
 20
2.10254
 30
0.000000
  70
    32
  0
VERTEX
  8
0
  5
C67
 10
-9.76296
 20
2.06395
 30
0.000000
  70
    32
  0
VERTEX
  8
0
  5
C68
 10
-9.77487
 20
2.02532
 30
0.000000
  70
    32
  0
VERTEX
  8
0
  5
C69
 10
-9.78654
 20
1.98665
 30
0.000000
  70
    32
  0
VERTEX
  8
0
  5
C6A
 10
-9.79799
 20
1.94794
 30
0.000000
  70
    32
  0
VERTEX
  8
0
  5
C6B
 10
-9.80921
 20
1.90920
 30
0.000000
  70
    32
  0
VERTEX
  8
0
  5
C6C
 10
-9.82020
 20
1.87041
 30
0.000000
  70
    32
  0
VERTEX
  8
0
  5
C6D
 10
-9.83097
 20
1.83159
 30
0.000000
  70
    32
  0
VERTEX
  8
0
  5
C6E
 10
-9.84151
 20
1.79274
 30
0.000000
  70
    32
  0
VERTEX
  8
0
  5
C6F
 10
-9.85182
 20
1.75385
 30
0.000000
  70
    32
  0
VERTEX
  8
0
  5
C70
 10
-9.86191
 20
1.71493
 30
0.000000
  70
    32
  0
VERTEX
  8
0
  5
C71
 10
-9.87176
 20
1.67597
 30
0.000000
  70
    32
  0
VERTEX
  8
0
  5
C72
 10
-9.88139
 20
1.63698
 30
0.000000
  70
    32
  0
VERTEX
  8
0
  5
C73
 10
-9.89079
 20
1.59796
 30
0.000000
  70
    32
  0
VERTEX
  8
0
  5
C74
 10
-9.89996
 20
1.55891
 30
0.000000
  70
    32
  0
VERTEX
  8
0
  5
C75
 10
-9.90891
 20
1.51982
 30
0.000000
  70
    32
  0
VERTEX
  8
0
  5
C76
 10
-9.91763
 20
1.48071
 30
0.000000
  70
    32
  0
VERTEX
  8
0
  5
C77
 10
-9.92612
 20
1.44157
 30
0.000000
  70
    32
  0
VERTEX
  8
0
  5
C78
 10
-9.93438
 20
1.40240
 30
0.000000
  70
    32
  0
VERTEX
  8
0
  5
C79
 10
-9.94241
 20
1.36321
 30
0.000000
  70
    32
  0
VERTEX
  8
0
  5
C7A
 10
-9.95022
 20
1.32399
 30
0.000000
  70
    32
  0
VERTEX
  8
0
  5
C7B
 10
-9.95780
 20
1.28474
 30
0.000000
  70
    32
  0
VERTEX
  8
0
  5
C7C
 10
-9.96515
 20
1.24547
 30
0.000000
  70
    32
  0
VERTEX
  8
0
  5
C7D
 10
-9.97227
 20
1.20617
 30
0.000000
  70
    32
  0
VERTEX
  8
0
  5
C7E
 10
-9.97916
 20
1.16685
 30
0.000000
  70
    32
  0
VERTEX
  8
0
  5
C7F
 10
-9.98582
 20
1.12751
 30
0.000000
  70
    32
  0
VERTEX
  8
0
  5
C80
 10
-9.99226
 20
1.08815
 30
0.000000
  70
    32
  0
VERTEX
  8
0
  5
C81
 10
-9.99847
 20
1.04876
 30
0.000000
  70
    32
  0
VERTEX
  8
0
  5
C82
 10
-10.0044
 20
1.00936
 30
0.000000
  70
    32
  0
VERTEX
  8
0
  5
C83
 10
-10.0102
 20
0.969936
 30
0.000000
  70
    32
  0
VERTEX
  8
0
  5
C84
 10
-10.0157
 20
0.930494
 30
0.000000
  70
    32
  0
VERTEX
  8
0
  5
C85
 10
-10.0210
 20
0.891033
 30
0.000000
  70
    32
  0
VERTEX
  8
0
  5
C86
 10
-10.0261
 20
0.851556
 30
0.000000
  70
    32
  0
VERTEX
  8
0
  5
C87
 10
-10.0309
 20
0.812062
 30
0.000000
  70
    32
  0
VERTEX
  8
0
  5
C88
 10
-10.0355
 20
0.772553
 30
0.000000
  70
    32
  0
VERTEX
  8
0
  5
C89
 10
-10.0399
 20
0.733029
 30
0.000000
  70
    32
  0
VERTEX
  8
0
  5
C8A
 10
-10.0440
 20
0.693491
 30
0.000000
  70
    32
  0
VERTEX
  8
0
  5
C8B
 10
-10.0480
 20
0.653940
 30
0.000000
  70
    32
  0
VERTEX
  8
0
  5
C8C
 10
-10.0517
 20
0.614376
 30
0.000000
  70
    32
  0
VERTEX
  8
0
  5
C8D
 10
-10.0551
 20
0.574800
 30
0.000000
  70
    32
  0
VERTEX
  8
0
  5
C8E
 10
-10.0584
 20
0.535214
 30
0.000000
  70
    32
  0
VERTEX
  8
0
  5
C8F
 10
-10.0614
 20
0.495617
 30
0.000000
  70
    32
  0
VERTEX
  8
0
  5
C90
 10
-10.0641
 20
0.456011
 30
0.000000
  70
    32
  0
VERTEX
  8
0
  5
C91
 10
-10.0667
 20
0.416397
 30
0.000000
  70
    32
  0
VERTEX
  8
0
  5
C92
 10
-10.0690
 20
0.376774
 30
0.000000
  70
    32
  0
VERTEX
  8
0
  5
C93
 10
-10.0711
 20
0.337145
 30
0.000000
  70
    32
  0
VERTEX
  8
0
  5
C94
 10
-10.0729
 20
0.297509
 30
0.000000
  70
    32
  0
VERTEX
  8
0
  5
C95
 10
-10.0746
 20
0.257868
 30
0.000000
  70
    32
  0
VERTEX
  8
0
  5
C96
 10
-10.0760
 20
0.218222
 30
0.000000
  70
    32
  0
VERTEX
  8
0
  5
C97
 10
-10.0771
 20
0.178572
 30
0.000000
  70
    32
  0
VERTEX
  8
0
  5
C98
 10
-10.0781
 20
0.138919
 30
0.000000
  70
    32
  0
VERTEX
  8
0
  5
C99
 10
-10.0787
 20
0.0992643
 30
0.000000
  70
    32
  0
VERTEX
  8
0
  5
C9A
 10
-10.0792
 20
0.0596075
 30
0.000000
  70
    32
  0
VERTEX
  8
0
  5
C9B
 10
-10.0794
 20
0.0199498
 30
0.000000
  70
    32
  0
VERTEX
  8
0
  5
C9C
 10
-10.0794
 20
-0.0197080
 30
0.000000
  70
    32
  0
VERTEX
  8
0
  5
C9D
 10
-10.0792
 20
-0.0593652
 30
0.000000
  70
    32
  0
VERTEX
  8
0
  5
C9E
 10
-10.0788
 20
-0.0990210
 30
0.000000
  70
    32
  0
VERTEX
  8
0
  5
C9F
 10
-10.0781
 20
-0.138675
 30
0.000000
  70
    32
  0
VERTEX
  8
0
  5
CA0
 10
-10.0771
 20
-0.178326
 30
0.000000
  70
    32
  0
VERTEX
  8
0
  5
CA1
 10
-10.0760
 20
-0.217973
 30
0.000000
  70
    32
  0
VERTEX
  8
0
  5
CA2
 10
-10.0746
 20
-0.257616
 30
0.000000
  70
    32
  0
VERTEX
  8
0
  5
CA3
 10
-10.0730
 20
-0.297254
 30
0.000000
  70
    32
  0
VERTEX
  8
0
  5
CA4
 10
-10.0711
 20
-0.336886
 30
0.000000
  70
    32
  0
VERTEX
  8
0
  5
CA5
 10
-10.0690
 20
-0.376512
 30
0.000000
  70
    32
  0
VERTEX
  8
0
  5
CA6
 10
-10.0667
 20
-0.416130
 30
0.000000
  70
    32
  0
VERTEX
  8
0
  5
CA7
 10
-10.0642
 20
-0.455740
 30
0.000000
  70
    32
  0
VERTEX
  8
0
  5
CA8
 10
-10.0614
 20
-0.495341
 30
0.000000
  70
    32
  0
VERTEX
  8
0
  5
CA9
 10
-10.0584
 20
-0.534933
 30
0.000000
  70
    32
  0
VERTEX
  8
0
  5
CAA
 10
-10.0552
 20
-0.574515
 30
0.000000
  70
    32
  0
VERTEX
  8
0
  5
CAB
 10
-10.0517
 20
-0.614086
 30
0.000000
  70
    32
  0
VERTEX
  8
0
  5
CAC
 10
-10.0480
 20
-0.653644
 30
0.000000
  70
    32
  0
VERTEX
  8
0
  5
CAD
 10
-10.0441
 20
-0.693191
 30
0.000000
  70
    32
  0
VERTEX
  8
0
  5
CAE
 10
-10.0400
 20
-0.732724
 30
0.000000
  70
    32
  0
VERTEX
  8
0
  5
CAF
 10
-10.0356
 20
-0.772243
 30
0.000000
  70
    32
  0
VERTEX
  8
0
  5
CB0
 10
-10.0310
 20
-0.811747
 30
0.000000
  70
    32
  0
VERTEX
  8
0
  5
CB1
 10
-10.0261
 20
-0.851236
 30
0.000000
  70
    32
  0
VERTEX
  8
0
  5
CB2
 10
-10.0210
 20
-0.890709
 30
0.000000
  70
    32
  0
VERTEX
  8
0
  5
CB3
 10
-10.0157
 20
-0.930165
 30
0.000000
  70
    32
  0
VERTEX
  8
0
  5
CB4
 10
-10.0102
 20
-0.969603
 30
0.000000
  70
    32
  0
VERTEX
  8
0
  5
CB5
 10
-10.0045
 20
-1.00902
 30
0.000000
  70
    32
  0
VERTEX
  8
0
  5
CB6
 10
-9.99846
 20
-1.04842
 30
0.000000
  70
    32
  0
VERTEX
  8
0
  5
CB7
 10
-9.99224
 20
-1.08780
 30
0.000000
  70
    32
  0
VERTEX
  8
0
  5
CB8
 10
-9.98580
 20
-1.12716
 30
0.000000
  70
    32
  0
VERTEX
  8
0
  5
CB9
 10
-9.97912
 20
-1.16650
 30
0.000000
  70
    32
  0
VERTEX
  8
0
  5
CBA
 10
-9.97221
 20
-1.20582
 30
0.000000
  70
    32
  0
VERTEX
  8
0
  5
CBB
 10
-9.96508
 20
-1.24511
 30
0.000000
  70
    32
  0
VERTEX
  8
0
  5
CBC
 10
-9.95772
 20
-1.28438
 30
0.000000
  70
    32
  0
VERTEX
  8
0
  5
CBD
 10
-9.95013
 20
-1.32363
 30
0.000000
  70
    32
  0
VERTEX
  8
0
  5
CBE
 10
-9.94231
 20
-1.36285
 30
0.000000
  70
    32
  0
VERTEX
  8
0
  5
CBF
 10
-9.93426
 20
-1.40204
 30
0.000000
  70
    32
  0
VERTEX
  8
0
  5
CC0
 10
-9.92598
 20
-1.44121
 30
0.000000
  70
    32
  0
VERTEX
  8
0
  5
CC1
 10
-9.91748
 20
-1.48035
 30
0.000000
  70
    32
  0
VERTEX
  8
0
  5
CC2
 10
-9.90875
 20
-1.51946
 30
0.000000
  70
    32
  0
VERTEX
  8
0
  5
CC3
 10
-9.89979
 20
-1.55854
 30
0.000000
  70
    32
  0
VERTEX
  8
0
  5
CC4
 10
-9.89060
 20
-1.59760
 30
0.000000
  70
    32
  0
VERTEX
  8
0
  5
CC5
 10
-9.88119
 20
-1.63662
 30
0.000000
  70
    32
  0
VERTEX
  8
0
  5
CC6
 10
-9.87154
 20
-1.67561
 30
0.000000
  70
    32
  0
VERTEX
  8
0
  5
CC7
 10
-9.86167
 20
-1.71457
 30
0.000000
  70
    32
  0
VERTEX
  8
0
  5
CC8
 10
-9.85157
 20
-1.75350
 30
0.000000
  70
    32
  0
VERTEX
  8
0
  5
CC9
 10
-9.84125
 20
-1.79239
 30
0.000000
  70
    32
  0
VERTEX
  8
0
  5
CCA
 10
-9.83070
 20
-1.83125
 30
0.000000
  70
    32
  0
VERTEX
  8
0
  5
CCB
 10
-9.81992
 20
-1.87008
 30
0.000000
  70
    32
  0
VERTEX
  8
0
  5
CCC
 10
-9.80891
 20
-1.90887
 30
0.000000
  70
    32
  0
VERTEX
  8
0
  5
CCD
 10
-9.79768
 20
-1.94762
 30
0.000000
  70
    32
  0
VERTEX
  8
0
  5
CCE
 10
-9.78622
 20
-1.98634
 30
0.000000
  70
    32
  0
VERTEX
  8
0
  5
CCF
 10
-9.77453
 20
-2.02502
 30
0.000000
  70
    32
  0
VERTEX
  8
0
  5
CD0
 10
-9.76262
 20
-2.06366
 30
0.000000
  70
    32
  0
VERTEX
  8
0
  5
CD1
 10
-9.75048
 20
-2.10226
 30
0.000000
  70
    32
  0
VERTEX
  8
0
  5
CD2
 10
-9.73812
 20
-2.14082
 30
0.000000
  70
    32
  0
VERTEX
  8
0
  5
CD3
 10
-9.72552
 20
-2.17934
 30
0.000000
  70
    32
  0
VERTEX
  8
0
  5
CD4
 10
-9.71271
 20
-2.21782
 30
0.000000
  70
    32
  0
VERTEX
  8
0
  5
CD5
 10
-9.69966
 20
-2.25626
 30
0.000000
  70
    32
  0
VERTEX
  8
0
  5
CD6
 10
-9.68639
 20
-2.29465
 30
0.000000
  70
    32
  0
VERTEX
  8
0
  5
CD7
 10
-9.67289
 20
-2.33300
 30
0.000000
  70
    32
  0
VERTEX
  8
0
  5
CD8
 10
-9.65917
 20
-2.37131
 30
0.000000
  70
    32
  0
VERTEX
  8
0
  5
CD9
 10
-9.64523
 20
-2.40957
 30
0.000000
  70
    32
  0
VERTEX
  8
0
  5
CDA
 10
-9.63105
 20
-2.44778
 30
0.000000
  70
    32
  0
VERTEX
  8
0
  5
CDB
 10
-9.61665
 20
-2.48595
 30
0.000000
  70
    32
  0
VERTEX
  8
0
  5
CDC
 10
-9.60203
 20
-2.52407
 30
0.000000
  70
    32
  0
VERTEX
  8
0
  5
CDD
 10
-9.58718
 20
-2.56214
 30
0.000000
  70
    32
  0
VERTEX
  8
0
  5
CDE
 10
-9.57210
 20
-2.60016
 30
0.000000
  70
    32
  0
VERTEX
  8
0
  5
CDF
 10
-9.55679
 20
-2.63813
 30
0.000000
  70
    32
  0
VERTEX
  8
0
  5
CE0
 10
-9.54125
 20
-2.67605
 30
0.000000
  70
    32
  0
VERTEX
  8
0
  5
CE1
 10
-9.52549
 20
-2.71391
 30
0.000000
  70
    32
  0
VERTEX
  8
0
  5
CE2
 10
-9.50950
 20
-2.75172
 30
0.000000
  70
    32
  0
VERTEX
  8
0
  5
CE3
 10
-9.49328
 20
-2.78948
 30
0.000000
  70
    32
  0
VERTEX
  8
0
  5
CE4
 10
-9.47683
 20
-2.82718
 30
0.000000
  70
    32
  0
VERTEX
  8
0
  5
CE5
 10
-9.46016
 20
-2.86482
 30
0.000000
  70
    32
  0
VERTEX
  8
0
  5
CE6
 10
-9.44326
 20
-2.90241
 30
0.000000
  70
    32
  0
VERTEX
  8
0
  5
CE7
 10
-9.42613
 20
-2.93994
 30
0.000000
  70
    32
  0
VERTEX
  8
0
  5
CE8
 10
-9.40878
 20
-2.97741
 30
0.000000
  70
    32
  0
VERTEX
  8
0
  5
CE9
 10
-9.39121
 20
-3.01481
 30
0.000000
  70
    32
  0
VERTEX
  8
0
  5
CEA
 10
-9.37341
 20
-3.05216
 30
0.000000
  70
    32
  0
VERTEX
  8
0
  5
CEB
 10
-9.35539
 20
-3.08945
 30
0.000000
  70
    32
  0
VERTEX
  8
0
  5
CEC
 10
-9.33714
 20
-3.12667
 30
0.000000
  70
    32
  0
VERTEX
  8
0
  5
CED
 10
-9.31867
 20
-3.16383
 30
0.000000
  70
    32
  0
VERTEX
  8
0
  5
CEE
 10
-9.29997
 20
-3.20093
 30
0.000000
  70
    32
  0
VERTEX
  8
0
  5
CEF
 10
-9.28106
 20
-3.23796
 30
0.000000
  70
    32
  0
VERTEX
  8
0
  5
CF0
 10
-9.26192
 20
-3.27492
 30
0.000000
  70
    32
  0
VERTEX
  8
0
  5
CF1
 10
-9.24256
 20
-3.31182
 30
0.000000
  70
    32
  0
VERTEX
  8
0
  5
CF2
 10
-9.22298
 20
-3.34865
 30
0.000000
  70
    32
  0
VERTEX
  8
0
  5
CF3
 10
-9.20318
 20
-3.38541
 30
0.000000
  70
    32
  0
VERTEX
  8
0
  5
CF4
 10
-9.18316
 20
-3.42210
 30
0.000000
  70
    32
  0
VERTEX
  8
0
  5
CF5
 10
-9.16292
 20
-3.45872
 30
0.000000
  70
    32
  0
VERTEX
  8
0
  5
CF6
 10
-9.14245
 20
-3.49527
 30
0.000000
  70
    32
  0
VERTEX
  8
0
  5
CF7
 10
-9.12177
 20
-3.53175
 30
0.000000
  70
    32
  0
VERTEX
  8
0
  5
CF8
 10
-9.10087
 20
-3.56816
 30
0.000000
  70
    32
  0
VERTEX
  8
0
  5
CF9
 10
-9.07976
 20
-3.60449
 30
0.000000
  70
    32
  0
VERTEX
  8
0
  5
CFA
 10
-9.05842
 20
-3.64074
 30
0.000000
  70
    32
  0
VERTEX
  8
0
  5
CFB
 10
-9.03687
 20
-3.67692
 30
0.000000
  70
    32
  0
VERTEX
  8
0
  5
CFC
 10
-9.01510
 20
-3.71303
 30
0.000000
  70
    32
  0
VERTEX
  8
0
  5
CFD
 10
-8.99311
 20
-3.74905
 30
0.000000
  70
    32
  0
VERTEX
  8
0
  5
CFE
 10
-8.97091
 20
-3.78500
 30
0.000000
  70
    32
  0
VERTEX
  8
0
  5
CFF
 10
-8.94849
 20
-3.82087
 30
0.000000
  70
    32
  0
VERTEX
  8
0
  5
D00
 10
-8.92585
 20
-3.85666
 30
0.000000
  70
    32
  0
VERTEX
  8
0
  5
D01
 10
-8.90300
 20
-3.89237
 30
0.000000
  70
    32
  0
VERTEX
  8
0
  5
D02
 10
-8.87994
 20
-3.92800
 30
0.000000
  70
    32
  0
VERTEX
  8
0
  5
D03
 10
-8.85666
 20
-3.96354
 30
0.000000
  70
    32
  0
VERTEX
  8
0
  5
D04
 10
-8.83316
 20
-3.99900
 30
0.000000
  70
    32
  0
VERTEX
  8
0
  5
D05
 10
-8.80946
 20
-4.03438
 30
0.000000
  70
    32
  0
VERTEX
  8
0
  5
D06
 10
-8.78554
 20
-4.06967
 30
0.000000
  70
    32
  0
VERTEX
  8
0
  5
D07
 10
-8.76141
 20
-4.10488
 30
0.000000
  70
    32
  0
VERTEX
  8
0
  5
D08
 10
-8.73706
 20
-4.14000
 30
0.000000
  70
    32
  0
VERTEX
  8
0
  5
D09
 10
-8.71250
 20
-4.17503
 30
0.000000
  70
    32
  0
VERTEX
  8
0
  5
D0A
 10
-8.68774
 20
-4.20997
 30
0.000000
  70
    32
  0
VERTEX
  8
0
  5
D0B
 10
-8.66276
 20
-4.24483
 30
0.000000
  70
    32
  0
VERTEX
  8
0
  5
D0C
 10
-8.63757
 20
-4.27959
 30
0.000000
  70
    32
  0
VERTEX
  8
0
  5
D0D
 10
-8.61217
 20
-4.31426
 30
0.000000
  70
    32
  0
VERTEX
  8
0
  5
D0E
 10
-8.58656
 20
-4.34884
 30
0.000000
  70
    32
  0
VERTEX
  8
0
  5
D0F
 10
-8.56074
 20
-4.38333
 30
0.000000
  70
    32
  0
VERTEX
  8
0
  5
D10
 10
-8.53471
 20
-4.41773
 30
0.000000
  70
    32
  0
VERTEX
  8
0
  5
D11
 10
-8.50847
 20
-4.45202
 30
0.000000
  70
    32
  0
VERTEX
  8
0
  5
D12
 10
-8.48203
 20
-4.48623
 30
0.000000
  70
    32
  0
VERTEX
  8
0
  5
D13
 10
-8.45537
 20
-4.52034
 30
0.000000
  70
    32
  0
VERTEX
  8
0
  5
D14
 10
-8.42851
 20
-4.55435
 30
0.000000
  70
    32
  0
VERTEX
  8
0
  5
D15
 10
-8.40144
 20
-4.58826
 30
0.000000
  70
    32
  0
VERTEX
  8
0
  5
D16
 10
-8.37417
 20
-4.62207
 30
0.000000
  70
    32
  0
VERTEX
  8
0
  5
D17
 10
-8.34669
 20
-4.65578
 30
0.000000
  70
    32
  0
VERTEX
  8
0
  5
D18
 10
-8.31900
 20
-4.68940
 30
0.000000
  70
    32
  0
VERTEX
  8
0
  5
D19
 10
-8.29111
 20
-4.72291
 30
0.000000
  70
    32
  0
VERTEX
  8
0
  5
D1A
 10
-8.26301
 20
-4.75632
 30
0.000000
  70
    32
  0
VERTEX
  8
0
  5
D1B
 10
-8.23471
 20
-4.78962
 30
0.000000
  70
    32
  0
VERTEX
  8
0
  5
D1C
 10
-8.20621
 20
-4.82282
 30
0.000000
  70
    32
  0
VERTEX
  8
0
  5
D1D
 10
-8.17750
 20
-4.85592
 30
0.000000
  70
    32
  0
VERTEX
  8
0
  5
D1E
 10
-8.14858
 20
-4.88891
 30
0.000000
  70
    32
  0
VERTEX
  8
0
  5
D1F
 10
-8.11947
 20
-4.92179
 30
0.000000
  70
    32
  0
VERTEX
  8
0
  5
D20
 10
-8.09015
 20
-4.95457
 30
0.000000
  70
    32
  0
VERTEX
  8
0
  5
D21
 10
-8.06063
 20
-4.98724
 30
0.000000
  70
    32
  0
VERTEX
  8
0
  5
D22
 10
-8.03091
 20
-5.01979
 30
0.000000
  70
    32
  0
VERTEX
  8
0
  5
D23
 10
-8.00098
 20
-5.05224
 30
0.000000
  70
    32
  0
VERTEX
  8
0
  5
D24
 10
-7.97086
 20
-5.08458
 30
0.000000
  70
    32
  0
VERTEX
  8
0
  5
D25
 10
-7.94053
 20
-5.11680
 30
0.000000
  70
    32
  0
VERTEX
  8
0
  5
D26
 10
-7.91001
 20
-5.14892
 30
0.000000
  70
    32
  0
VERTEX
  8
0
  5
D27
 10
-7.87929
 20
-5.18091
 30
0.000000
  70
    32
  0
VERTEX
  8
0
  5
D28
 10
-7.84836
 20
-5.21279
 30
0.000000
  70
    32
  0
VERTEX
  8
0
  5
D29
 10
-7.81725
 20
-5.24455
 30
0.000000
  70
    32
  0
VERTEX
  8
0
  5
D2A
 10
-7.78593
 20
-5.27619
 30
0.000000
  70
    32
  0
VERTEX
  8
0
  5
D2B
 10
-7.75442
 20
-5.30771
 30
0.000000
  70
    32
  0
VERTEX
  8
0
  5
D2C
 10
-7.72272
 20
-5.33911
 30
0.000000
  70
    32
  0
VERTEX
  8
0
  5
D2D
 10
-7.69082
 20
-5.37039
 30
0.000000
  70
    32
  0
VERTEX
  8
0
  5
D2E
 10
-7.65873
 20
-5.40154
 30
0.000000
  70
    32
  0
VERTEX
  8
0
  5
D2F
 10
-7.62645
 20
-5.43258
 30
0.000000
  70
    32
  0
VERTEX
  8
0
  5
D30
 10
-7.59397
 20
-5.46349
 30
0.000000
  70
    32
  0
VERTEX
  8
0
  5
D31
 10
-7.56131
 20
-5.49427
 30
0.000000
  70
    32
  0
VERTEX
  8
0
  5
D32
 10
-7.52845
 20
-5.52493
 30
0.000000
  70
    32
  0
VERTEX
  8
0
  5
D33
 10
-7.49541
 20
-5.55547
 30
0.000000
  70
    32
  0
VERTEX
  8
0
  5
D34
 10
-7.46217
 20
-5.58587
 30
0.000000
  70
    32
  0
VERTEX
  8
0
  5
D35
 10
-7.42875
 20
-5.61615
 30
0.000000
  70
    32
  0
VERTEX
  8
0
  5
D36
 10
-7.39514
 20
-5.64630
 30
0.000000
  70
    32
  0
VERTEX
  8
0
  5
D37
 10
-7.36135
 20
-5.67632
 30
0.000000
  70
    32
  0
VERTEX
  8
0
  5
D38
 10
-7.32737
 20
-5.70622
 30
0.000000
  70
    32
  0
VERTEX
  8
0
  5
D39
 10
-7.29320
 20
-5.73598
 30
0.000000
  70
    32
  0
VERTEX
  8
0
  5
D3A
 10
-7.25885
 20
-5.76560
 30
0.000000
  70
    32
  0
VERTEX
  8
0
  5
D3B
 10
-7.22432
 20
-5.79510
 30
0.000000
  70
    32
  0
VERTEX
  8
0
  5
D3C
 10
-7.18961
 20
-5.82446
 30
0.000000
  70
    32
  0
VERTEX
  8
0
  5
D3D
 10
-7.15471
 20
-5.85369
 30
0.000000
  70
    32
  0
VERTEX
  8
0
  5
D3E
 10
-7.11963
 20
-5.88278
 30
0.000000
  70
    32
  0
VERTEX
  8
0
  5
D3F
 10
-7.08438
 20
-5.91174
 30
0.000000
  70
    32
  0
VERTEX
  8
0
  5
D40
 10
-7.04894
 20
-5.94056
 30
0.000000
  70
    32
  0
VERTEX
  8
0
  5
D41
 10
-7.01332
 20
-5.96924
 30
0.000000
  70
    32
  0
VERTEX
  8
0
  5
D42
 10
-6.97753
 20
-5.99779
 30
0.000000
  70
    32
  0
VERTEX
  8
0
  5
D43
 10
-6.94156
 20
-6.02619
 30
0.000000
  70
    32
  0
VERTEX
  8
0
  5
D44
 10
-6.90541
 20
-6.05446
 30
0.000000
  70
    32
  0
VERTEX
  8
0
  5
D45
 10
-6.86909
 20
-6.08259
 30
0.000000
  70
    32
  0
VERTEX
  8
0
  5
D46
 10
-6.83259
 20
-6.11057
 30
0.000000
  70
    32
  0
VERTEX
  8
0
  5
D47
 10
-6.79592
 20
-6.13841
 30
0.000000
  70
    32
  0
VERTEX
  8
0
  5
D48
 10
-6.75908
 20
-6.16611
 30
0.000000
  70
    32
  0
VERTEX
  8
0
  5
D49
 10
-6.72206
 20
-6.19366
 30
0.000000
  70
    32
  0
VERTEX
  8
0
  5
D4A
 10
-6.68487
 20
-6.22107
 30
0.000000
  70
    32
  0
VERTEX
  8
0
  5
D4B
 10
-6.64751
 20
-6.24834
 30
0.000000
  70
    32
  0
VERTEX
  8
0
  5
D4C
 10
-6.60998
 20
-6.27545
 30
0.000000
  70
    32
  0
VERTEX
  8
0
  5
D4D
 10
-6.57229
 20
-6.30243
 30
0.000000
  70
    32
  0
VERTEX
  8
0
  5
D4E
 10
-6.53442
 20
-6.32925
 30
0.000000
  70
    32
  0
VERTEX
  8
0
  5
D4F
 10
-6.49638
 20
-6.35592
 30
0.000000
  70
    32
  0
VERTEX
  8
0
  5
D50
 10
-6.45818
 20
-6.38245
 30
0.000000
  70
    32
  0
VERTEX
  8
0
  5
D51
 10
-6.41981
 20
-6.40882
 30
0.000000
  70
    32
  0
VERTEX
  8
0
  5
D52
 10
-6.38127
 20
-6.43504
 30
0.000000
  70
    32
  0
VERTEX
  8
0
  5
D53
 10
-6.34257
 20
-6.46111
 30
0.000000
  70
    32
  0
VERTEX
  8
0
  5
D54
 10
-6.30371
 20
-6.48703
 30
0.000000
  70
    32
  0
VERTEX
  8
0
  5
D55
 10
-6.26468
 20
-6.51279
 30
0.000000
  70
    32
  0
VERTEX
  8
0
  5
D56
 10
-6.22549
 20
-6.53840
 30
0.000000
  70
    32
  0
VERTEX
  8
0
  5
D57
 10
-6.18614
 20
-6.56386
 30
0.000000
  70
    32
  0
VERTEX
  8
0
  5
D58
 10
-6.14663
 20
-6.58916
 30
0.000000
  70
    32
  0
VERTEX
  8
0
  5
D59
 10
-6.10695
 20
-6.61430
 30
0.000000
  70
    32
  0
VERTEX
  8
0
  5
D5A
 10
-6.06712
 20
-6.63928
 30
0.000000
  70
    32
  0
VERTEX
  8
0
  5
D5B
 10
-6.02713
 20
-6.66411
 30
0.000000
  70
    32
  0
VERTEX
  8
0
  5
D5C
 10
-5.98698
 20
-6.68877
 30
0.000000
  70
    32
  0
VERTEX
  8
0
  5
D5D
 10
-5.94667
 20
-6.71328
 30
0.000000
  70
    32
  0
VERTEX
  8
0
  5
D5E
 10
-5.90621
 20
-6.73762
 30
0.000000
  70
    32
  0
VERTEX
  8
0
  5
D5F
 10
-5.86559
 20
-6.76181
 30
0.000000
  70
    32
  0
VERTEX
  8
0
  5
D60
 10
-5.82481
 20
-6.78583
 30
0.000000
  70
    32
  0
VERTEX
  8
0
  5
D61
 10
-5.78389
 20
-6.80968
 30
0.000000
  70
    32
  0
VERTEX
  8
0
  5
D62
 10
-5.74281
 20
-6.83337
 30
0.000000
  70
    32
  0
VERTEX
  8
0
  5
D63
 10
-5.70159
 20
-6.85690
 30
0.000000
  70
    32
  0
VERTEX
  8
0
  5
D64
 10
-5.66022
 20
-6.88026
 30
0.000000
  70
    32
  0
VERTEX
  8
0
  5
D65
 10
-5.61871
 20
-6.90346
 30
0.000000
  70
    32
  0
VERTEX
  8
0
  5
D66
 10
-5.57705
 20
-6.92649
 30
0.000000
  70
    32
  0
VERTEX
  8
0
  5
D67
 10
-5.53525
 20
-6.94935
 30
0.000000
  70
    32
  0
VERTEX
  8
0
  5
D68
 10
-5.49331
 20
-6.97204
 30
0.000000
  70
    32
  0
VERTEX
  8
0
  5
D69
 10
-5.45122
 20
-6.99456
 30
0.000000
  70
    32
  0
VERTEX
  8
0
  5
D6A
 10
-5.40900
 20
-7.01691
 30
0.000000
  70
    32
  0
VERTEX
  8
0
  5
D6B
 10
-5.36664
 20
-7.03910
 30
0.000000
  70
    32
  0
VERTEX
  8
0
  5
D6C
 10
-5.32413
 20
-7.06111
 30
0.000000
  70
    32
  0
VERTEX
  8
0
  5
D6D
 10
-5.28150
 20
-7.08295
 30
0.000000
  70
    32
  0
VERTEX
  8
0
  5
D6E
 10
-5.23872
 20
-7.10462
 30
0.000000
  70
    32
  0
VERTEX
  8
0
  5
D6F
 10
-5.19581
 20
-7.12612
 30
0.000000
  70
    32
  0
VERTEX
  8
0
  5
D70
 10
-5.15277
 20
-7.14745
 30
0.000000
  70
    32
  0
VERTEX
  8
0
  5
D71
 10
-5.10959
 20
-7.16860
 30
0.000000
  70
    32
  0
VERTEX
  8
0
  5
D72
 10
-5.06629
 20
-7.18957
 30
0.000000
  70
    32
  0
VERTEX
  8
0
  5
D73
 10
-5.02285
 20
-7.21037
 30
0.000000
  70
    32
  0
VERTEX
  8
0
  5
D74
 10
-4.97928
 20
-7.23100
 30
0.000000
  70
    32
  0
VERTEX
  8
0
  5
D75
 10
-4.93558
 20
-7.25145
 30
0.000000
  70
    32
  0
VERTEX
  8
0
  5
D76
 10
-4.89176
 20
-7.27172
 30
0.000000
  70
    32
  0
VERTEX
  8
0
  5
D77
 10
-4.84781
 20
-7.29182
 30
0.000000
  70
    32
  0
VERTEX
  8
0
  5
D78
 10
-4.80373
 20
-7.31174
 30
0.000000
  70
    32
  0
VERTEX
  8
0
  5
D79
 10
-4.75953
 20
-7.33148
 30
0.000000
  70
    32
  0
VERTEX
  8
0
  5
D7A
 10
-4.71521
 20
-7.35104
 30
0.000000
  70
    32
  0
VERTEX
  8
0
  5
D7B
 10
-4.67076
 20
-7.37042
 30
0.000000
  70
    32
  0
VERTEX
  8
0
  5
D7C
 10
-4.62619
 20
-7.38962
 30
0.000000
  70
    32
  0
VERTEX
  8
0
  5
D7D
 10
-4.58151
 20
-7.40864
 30
0.000000
  70
    32
  0
VERTEX
  8
0
  5
D7E
 10
-4.53670
 20
-7.42748
 30
0.000000
  70
    32
  0
VERTEX
  8
0
  5
D7F
 10
-4.49178
 20
-7.44614
 30
0.000000
  70
    32
  0
VERTEX
  8
0
  5
D80
 10
-4.44673
 20
-7.46461
 30
0.000000
  70
    32
  0
VERTEX
  8
0
  5
D81
 10
-4.40158
 20
-7.48290
 30
0.000000
  70
    32
  0
VERTEX
  8
0
  5
D82
 10
-4.35630
 20
-7.50101
 30
0.000000
  70
    32
  0
VERTEX
  8
0
  5
D83
 10
-4.31092
 20
-7.51893
 30
0.000000
  70
    32
  0
VERTEX
  8
0
  5
D84
 10
-4.26542
 20
-7.53666
 30
0.000000
  70
    32
  0
VERTEX
  8
0
  5
D85
 10
-4.21981
 20
-7.55421
 30
0.000000
  70
    32
  0
VERTEX
  8
0
  5
D86
 10
-4.17408
 20
-7.57158
 30
0.000000
  70
    32
  0
VERTEX
  8
0
  5
D87
 10
-4.12825
 20
-7.58876
 30
0.000000
  70
    32
  0
VERTEX
  8
0
  5
D88
 10
-4.08231
 20
-7.60575
 30
0.000000
  70
    32
  0
VERTEX
  8
0
  5
D89
 10
-4.03626
 20
-7.62255
 30
0.000000
  70
    32
  0
VERTEX
  8
0
  5
D8A
 10
-3.99011
 20
-7.63916
 30
0.000000
  70
    32
  0
VERTEX
  8
0
  5
D8B
 10
-3.94385
 20
-7.65559
 30
0.000000
  70
    32
  0
VERTEX
  8
0
  5
D8C
 10
-3.89749
 20
-7.67182
 30
0.000000
  70
    32
  0
VERTEX
  8
0
  5
D8D
 10
-3.85102
 20
-7.68786
 30
0.000000
  70
    32
  0
VERTEX
  8
0
  5
D8E
 10
-3.80445
 20
-7.70371
 30
0.000000
  70
    32
  0
VERTEX
  8
0
  5
D8F
 10
-3.75778
 20
-7.71938
 30
0.000000
  70
    32
  0
VERTEX
  8
0
  5
D90
 10
-3.71100
 20
-7.73484
 30
0.000000
  70
    32
  0
VERTEX
  8
0
  5
D91
 10
-3.66413
 20
-7.75012
 30
0.000000
  70
    32
  0
VERTEX
  8
0
  5
D92
 10
-3.61716
 20
-7.76520
 30
0.000000
  70
    32
  0
VERTEX
  8
0
  5
D93
 10
-3.57010
 20
-7.78009
 30
0.000000
  70
    32
  0
VERTEX
  8
0
  5
D94
 10
-3.52293
 20
-7.79478
 30
0.000000
  70
    32
  0
VERTEX
  8
0
  5
D95
 10
-3.47568
 20
-7.80928
 30
0.000000
  70
    32
  0
VERTEX
  8
0
  5
D96
 10
-3.42833
 20
-7.82358
 30
0.000000
  70
    32
  0
VERTEX
  8
0
  5
D97
 10
-3.38088
 20
-7.83768
 30
0.000000
  70
    32
  0
VERTEX
  8
0
  5
D98
 10
-3.33335
 20
-7.85159
 30
0.000000
  70
    32
  0
VERTEX
  8
0
  5
D99
 10
-3.28572
 20
-7.86530
 30
0.000000
  70
    32
  0
VERTEX
  8
0
  5
D9A
 10
-3.23800
 20
-7.87881
 30
0.000000
  70
    32
  0
VERTEX
  8
0
  5
D9B
 10
-3.19020
 20
-7.89212
 30
0.000000
  70
    32
  0
VERTEX
  8
0
  5
D9C
 10
-3.14231
 20
-7.90523
 30
0.000000
  70
    32
  0
VERTEX
  8
0
  5
D9D
 10
-3.09433
 20
-7.91815
 30
0.000000
  70
    32
  0
VERTEX
  8
0
  5
D9E
 10
-3.04628
 20
-7.93087
 30
0.000000
  70
    32
  0
VERTEX
  8
0
  5
D9F
 10
-2.99814
 20
-7.94340
 30
0.000000
  70
    32
  0
VERTEX
  8
0
  5
DA0
 10
-2.94993
 20
-7.95572
 30
0.000000
  70
    32
  0
VERTEX
  8
0
  5
DA1
 10
-2.90164
 20
-7.96785
 30
0.000000
  70
    32
  0
VERTEX
  8
0
  5
DA2
 10
-2.85327
 20
-7.97978
 30
0.000000
  70
    32
  0
VERTEX
  8
0
  5
DA3
 10
-2.80483
 20
-7.99151
 30
0.000000
  70
    32
  0
VERTEX
  8
0
  5
DA4
 10
-2.75632
 20
-8.00304
 30
0.000000
  70
    32
  0
VERTEX
  8
0
  5
DA5
 10
-2.70773
 20
-8.01437
 30
0.000000
  70
    32
  0
VERTEX
  8
0
  5
DA6
 10
-2.65907
 20
-8.02550
 30
0.000000
  70
    32
  0
VERTEX
  8
0
  5
DA7
 10
-2.61035
 20
-8.03644
 30
0.000000
  70
    32
  0
VERTEX
  8
0
  5
DA8
 10
-2.56155
 20
-8.04717
 30
0.000000
  70
    32
  0
VERTEX
  8
0
  5
DA9
 10
-2.51269
 20
-8.05770
 30
0.000000
  70
    32
  0
VERTEX
  8
0
  5
DAA
 10
-2.46376
 20
-8.06803
 30
0.000000
  70
    32
  0
VERTEX
  8
0
  5
DAB
 10
-2.41477
 20
-8.07816
 30
0.000000
  70
    32
  0
VERTEX
  8
0
  5
DAC
 10
-2.36572
 20
-8.08809
 30
0.000000
  70
    32
  0
VERTEX
  8
0
  5
DAD
 10
-2.31660
 20
-8.09782
 30
0.000000
  70
    32
  0
VERTEX
  8
0
  5
DAE
 10
-2.26742
 20
-8.10735
 30
0.000000
  70
    32
  0
VERTEX
  8
0
  5
DAF
 10
-2.21819
 20
-8.11667
 30
0.000000
  70
    32
  0
VERTEX
  8
0
  5
DB0
 10
-2.16889
 20
-8.12579
 30
0.000000
  70
    32
  0
VERTEX
  8
0
  5
DB1
 10
-2.11954
 20
-8.13471
 30
0.000000
  70
    32
  0
VERTEX
  8
0
  5
DB2
 10
-2.07014
 20
-8.14342
 30
0.000000
  70
    32
  0
VERTEX
  8
0
  5
DB3
 10
-2.02068
 20
-8.15193
 30
0.000000
  70
    32
  0
VERTEX
  8
0
  5
DB4
 10
-1.97117
 20
-8.16024
 30
0.000000
  70
    32
  0
VERTEX
  8
0
  5
DB5
 10
-1.92161
 20
-8.16834
 30
0.000000
  70
    32
  0
VERTEX
  8
0
  5
DB6
 10
-1.87200
 20
-8.17624
 30
0.000000
  70
    32
  0
VERTEX
  8
0
  5
DB7
 10
-1.82233
 20
-8.18394
 30
0.000000
  70
    32
  0
VERTEX
  8
0
  5
DB8
 10
-1.77263
 20
-8.19142
 30
0.000000
  70
    32
  0
VERTEX
  8
0
  5
DB9
 10
-1.72287
 20
-8.19871
 30
0.000000
  70
    32
  0
VERTEX
  8
0
  5
DBA
 10
-1.67307
 20
-8.20578
 30
0.000000
  70
    32
  0
VERTEX
  8
0
  5
DBB
 10
-1.62323
 20
-8.21266
 30
0.000000
  70
    32
  0
VERTEX
  8
0
  5
DBC
 10
-1.57335
 20
-8.21932
 30
0.000000
  70
    32
  0
VERTEX
  8
0
  5
DBD
 10
-1.52342
 20
-8.22578
 30
0.000000
  70
    32
  0
VERTEX
  8
0
  5
DBE
 10
-1.47346
 20
-8.23203
 30
0.000000
  70
    32
  0
VERTEX
  8
0
  5
DBF
 10
-1.42345
 20
-8.23807
 30
0.000000
  70
    32
  0
VERTEX
  8
0
  5
DC0
 10
-1.37341
 20
-8.24391
 30
0.000000
  70
    32
  0
VERTEX
  8
0
  5
DC1
 10
-1.32334
 20
-8.24954
 30
0.000000
  70
    32
  0
VERTEX
  8
0
  5
DC2
 10
-1.27323
 20
-8.25496
 30
0.000000
  70
    32
  0
VERTEX
  8
0
  5
DC3
 10
-1.22308
 20
-8.26017
 30
0.000000
  70
    32
  0
VERTEX
  8
0
  5
DC4
 10
-1.17291
 20
-8.26517
 30
0.000000
  70
    32
  0
VERTEX
  8
0
  5
DC5
 10
-1.12270
 20
-8.26997
 30
0.000000
  70
    32
  0
VERTEX
  8
0
  5
DC6
 10
-1.07247
 20
-8.27455
 30
0.000000
  70
    32
  0
VERTEX
  8
0
  5
DC7
 10
-1.02221
 20
-8.27893
 30
0.000000
  70
    32
  0
VERTEX
  8
0
  5
DC8
 10
-0.971919
 20
-8.28309
 30
0.000000
  70
    32
  0
VERTEX
  8
0
  5
DC9
 10
-0.921605
 20
-8.28705
 30
0.000000
  70
    32
  0
VERTEX
  8
0
  5
DCA
 10
-0.871268
 20
-8.29079
 30
0.000000
  70
    32
  0
VERTEX
  8
0
  5
DCB
 10
-0.820908
 20
-8.29432
 30
0.000000
  70
    32
  0
VERTEX
  8
0
  5
DCC
 10
-0.770526
 20
-8.29764
 30
0.000000
  70
    32
  0
VERTEX
  8
0
  5
DCD
 10
-0.720125
 20
-8.30075
 30
0.000000
  70
    32
  0
VERTEX
  8
0
  5
DCE
 10
-0.669705
 20
-8.30365
 30
0.000000
  70
    32
  0
VERTEX
  8
0
  5
DCF
 10
-0.619267
 20
-8.30634
 30
0.000000
  70
    32
  0
VERTEX
  8
0
  5
DD0
 10
-0.568814
 20
-8.30881
 30
0.000000
  70
    32
  0
VERTEX
  8
0
  5
DD1
 10
-0.518346
 20
-8.31107
 30
0.000000
  70
    32
  0
VERTEX
  8
0
  5
DD2
 10
-0.467864
 20
-8.31312
 30
0.000000
  70
    32
  0
VERTEX
  8
0
  5
DD3
 10
-0.417370
 20
-8.31495
 30
0.000000
  70
    32
  0
VERTEX
  8
0
  5
DD4
 10
-0.366865
 20
-8.31657
 30
0.000000
  70
    32
  0
VERTEX
  8
0
  5
DD5
 10
-0.316351
 20
-8.31798
 30
0.000000
  70
    32
  0
VERTEX
  8
0
  5
DD6
 10
-0.265828
 20
-8.31917
 30
0.000000
  70
    32
  0
VERTEX
  8
0
  5
DD7
 10
-0.215297
 20
-8.32015
 30
0.000000
  70
    32
  0
VERTEX
  8
0
  5
DD8
 10
-0.164757
 20
-8.32091
 30
0.000000
  70
    32
  0
VERTEX
  8
0
  5
DD9
 10
-0.114210
 20
-8.32147
 30
0.000000
  70
    32
  0
VERTEX
  8
0
  5
DDA
 10
-0.0636576
 20
-8.32181
 30
0.000000
  70
    32
  0
VERTEX
  8
0
  5
DDB
 10
-0.0131006
 20
-8.32195
 30
0.000000
  70
    32
  0
VERTEX
  8
0
  5
DDC
 10
0.0374594
 20
-8.32187
 30
0.000000
  70
    32
  0
VERTEX
  8
0
  5
DDD
 10
0.0880207
 20
-8.32159
 30
0.000000
  70
    32
  0
VERTEX
  8
0
  5
DDE
 10
0.138582
 20
-8.32109
 30
0.000000
  70
    32
  0
VERTEX
  8
0
  5
DDF
 10
0.189142
 20
-8.32038
 30
0.000000
  70
    32
  0
VERTEX
  8
0
  5
DE0
 10
0.239699
 20
-8.31946
 30
0.000000
  70
    32
  0
VERTEX
  8
0
  5
DE1
 10
0.290252
 20
-8.31834
 30
0.000000
  70
    32
  0
VERTEX
  8
0
  5
DE2
 10
0.340799
 20
-8.31700
 30
0.000000
  70
    32
  0
VERTEX
  8
0
  5
DE3
 10
0.391339
 20
-8.31545
 30
0.000000
  70
    32
  0
VERTEX
  8
0
  5
DE4
 10
0.441870
 20
-8.31370
 30
0.000000
  70
    32
  0
VERTEX
  8
0
  5
DE5
 10
0.492391
 20
-8.31173
 30
0.000000
  70
    32
  0
VERTEX
  8
0
  5
DE6
 10
0.542901
 20
-8.30956
 30
0.000000
  70
    32
  0
VERTEX
  8
0
  5
DE7
 10
0.593397
 20
-8.30718
 30
0.000000
  70
    32
  0
VERTEX
  8
0
  5
DE8
 10
0.643880
 20
-8.30459
 30
0.000000
  70
    32
  0
VERTEX
  8
0
  5
DE9
 10
0.694346
 20
-8.30179
 30
0.000000
  70
    32
  0
VERTEX
  8
0
  5
DEA
 10
0.744796
 20
-8.29878
 30
0.000000
  70
    32
  0
VERTEX
  8
0
  5
DEB
 10
0.795226
 20
-8.29556
 30
0.000000
  70
    32
  0
VERTEX
  8
0
  5
DEC
 10
0.845636
 20
-8.29214
 30
0.000000
  70
    32
  0
VERTEX
  8
0
  5
DED
 10
0.896025
 20
-8.28850
 30
0.000000
  70
    32
  0
VERTEX
  8
0
  5
DEE
 10
0.946391
 20
-8.28466
 30
0.000000
  70
    32
  0
VERTEX
  8
0
  5
DEF
 10
0.996733
 20
-8.28061
 30
0.000000
  70
    32
  0
VERTEX
  8
0
  5
DF0
 10
1.04705
 20
-8.27636
 30
0.000000
  70
    32
  0
VERTEX
  8
0
  5
DF1
 10
1.09734
 20
-8.27189
 30
0.000000
  70
    32
  0
VERTEX
  8
0
  5
DF2
 10
1.14760
 20
-8.26722
 30
0.000000
  70
    32
  0
VERTEX
  8
0
  5
DF3
 10
1.19782
 20
-8.26235
 30
0.000000
  70
    32
  0
VERTEX
  8
0
  5
DF4
 10
1.24802
 20
-8.25726
 30
0.000000
  70
    32
  0
VERTEX
  8
0
  5
DF5
 10
1.29819
 20
-8.25197
 30
0.000000
  70
    32
  0
VERTEX
  8
0
  5
DF6
 10
1.34832
 20
-8.24647
 30
0.000000
  70
    32
  0
VERTEX
  8
0
  5
DF7
 10
1.39841
 20
-8.24077
 30
0.000000
  70
    32
  0
VERTEX
  8
0
  5
DF8
 10
1.44847
 20
-8.23486
 30
0.000000
  70
    32
  0
VERTEX
  8
0
  5
DF9
 10
1.49849
 20
-8.22875
 30
0.000000
  70
    32
  0
VERTEX
  8
0
  5
DFA
 10
1.54846
 20
-8.22242
 30
0.000000
  70
    32
  0
VERTEX
  8
0
  5
DFB
 10
1.59840
 20
-8.21590
 30
0.000000
  70
    32
  0
VERTEX
  8
0
  5
DFC
 10
1.64829
 20
-8.20916
 30
0.000000
  70
    32
  0
VERTEX
  8
0
  5
DFD
 10
1.69814
 20
-8.20222
 30
0.000000
  70
    32
  0
VERTEX
  8
0
  5
DFE
 10
1.74794
 20
-8.19508
 30
0.000000
  70
    32
  0
VERTEX
  8
0
  5
DFF
 10
1.79770
 20
-8.18773
 30
0.000000
  70
    32
  0
VERTEX
  8
0
  5
E00
 10
1.84740
 20
-8.18018
 30
0.000000
  70
    32
  0
VERTEX
  8
0
  5
E01
 10
1.89706
 20
-8.17242
 30
0.000000
  70
    32
  0
VERTEX
  8
0
  5
E02
 10
1.94666
 20
-8.16445
 30
0.000000
  70
    32
  0
VERTEX
  8
0
  5
E03
 10
1.99621
 20
-8.15629
 30
0.000000
  70
    32
  0
VERTEX
  8
0
  5
E04
 10
2.04571
 20
-8.14791
 30
0.000000
  70
    32
  0
VERTEX
  8
0
  5
E05
 10
2.09515
 20
-8.13934
 30
0.000000
  70
    32
  0
VERTEX
  8
0
  5
E06
 10
2.14453
 20
-8.13056
 30
0.000000
  70
    32
  0
VERTEX
  8
0
  5
E07
 10
2.19385
 20
-8.12157
 30
0.000000
  70
    32
  0
VERTEX
  8
0
  5
E08
 10
2.24311
 20
-8.11238
 30
0.000000
  70
    32
  0
VERTEX
  8
0
  5
E09
 10
2.29232
 20
-8.10299
 30
0.000000
  70
    32
  0
VERTEX
  8
0
  5
E0A
 10
2.34145
 20
-8.09339
 30
0.000000
  70
    32
  0
VERTEX
  8
0
  5
E0B
 10
2.39053
 20
-8.08360
 30
0.000000
  70
    32
  0
VERTEX
  8
0
  5
E0C
 10
2.43953
 20
-8.07359
 30
0.000000
  70
    32
  0
VERTEX
  8
0
  5
E0D
 10
2.48847
 20
-8.06339
 30
0.000000
  70
    32
  0
VERTEX
  8
0
  5
E0E
 10
2.53734
 20
-8.05298
 30
0.000000
  70
    32
  0
VERTEX
  8
0
  5
E0F
 10
2.58614
 20
-8.04237
 30
0.000000
  70
    32
  0
VERTEX
  8
0
  5
E10
 10
2.63487
 20
-8.03156
 30
0.000000
  70
    32
  0
VERTEX
  8
0
  5
E11
 10
2.68352
 20
-8.02054
 30
0.000000
  70
    32
  0
VERTEX
  8
0
  5
E12
 10
2.73211
 20
-8.00933
 30
0.000000
  70
    32
  0
VERTEX
  8
0
  5
E13
 10
2.78062
 20
-7.99790
 30
0.000000
  70
    32
  0
VERTEX
  8
0
  5
E14
 10
2.82905
 20
-7.98628
 30
0.000000
  70
    32
  0
VERTEX
  8
0
  5
E15
 10
2.87742
 20
-7.97444
 30
0.000000
  70
    32
  0
VERTEX
  8
0
  5
E16
 10
2.92570
 20
-7.96241
 30
0.000000
  70
    32
  0
VERTEX
  8
0
  5
E17
 10
2.97392
 20
-7.95017
 30
0.000000
  70
    32
  0
VERTEX
  8
0
  5
E18
 10
3.02205
 20
-7.93773
 30
0.000000
  70
    32
  0
VERTEX
  8
0
  5
E19
 10
3.07011
 20
-7.92509
 30
0.000000
  70
    32
  0
VERTEX
  8
0
  5
E1A
 10
3.11808
 20
-7.91225
 30
0.000000
  70
    32
  0
VERTEX
  8
0
  5
E1B
 10
3.16598
 20
-7.89921
 30
0.000000
  70
    32
  0
VERTEX
  8
0
  5
E1C
 10
3.21379
 20
-7.88597
 30
0.000000
  70
    32
  0
VERTEX
  8
0
  5
E1D
 10
3.26152
 20
-7.87253
 30
0.000000
  70
    32
  0
VERTEX
  8
0
  5
E1E
 10
3.30916
 20
-7.85890
 30
0.000000
  70
    32
  0
VERTEX
  8
0
  5
E1F
 10
3.35672
 20
-7.84506
 30
0.000000
  70
    32
  0
VERTEX
  8
0
  5
E20
 10
3.40419
 20
-7.83103
 30
0.000000
  70
    32
  0
VERTEX
  8
0
  5
E21
 10
3.45157
 20
-7.81680
 30
0.000000
  70
    32
  0
VERTEX
  8
0
  5
E22
 10
3.49886
 20
-7.80238
 30
0.000000
  70
    32
  0
VERTEX
  8
0
  5
E23
 10
3.54606
 20
-7.78776
 30
0.000000
  70
    32
  0
VERTEX
  8
0
  5
E24
 10
3.59317
 20
-7.77295
 30
0.000000
  70
    32
  0
VERTEX
  8
0
  5
E25
 10
3.64019
 20
-7.75794
 30
0.000000
  70
    32
  0
VERTEX
  8
0
  5
E26
 10
3.68711
 20
-7.74274
 30
0.000000
  70
    32
  0
VERTEX
  8
0
  5
E27
 10
3.73394
 20
-7.72735
 30
0.000000
  70
    32
  0
VERTEX
  8
0
  5
E28
 10
3.78067
 20
-7.71177
 30
0.000000
  70
    32
  0
VERTEX
  8
0
  5
E29
 10
3.82730
 20
-7.69599
 30
0.000000
  70
    32
  0
VERTEX
  8
0
  5
E2A
 10
3.87383
 20
-7.68002
 30
0.000000
  70
    32
  0
VERTEX
  8
0
  5
E2B
 10
3.92026
 20
-7.66387
 30
0.000000
  70
    32
  0
VERTEX
  8
0
  5
E2C
 10
3.96659
 20
-7.64752
 30
0.000000
  70
    32
  0
VERTEX
  8
0
  5
E2D
 10
4.01282
 20
-7.63099
 30
0.000000
  70
    32
  0
VERTEX
  8
0
  5
E2E
 10
4.05895
 20
-7.61427
 30
0.000000
  70
    32
  0
VERTEX
  8
0
  5
E2F
 10
4.10497
 20
-7.59735
 30
0.000000
  70
    32
  0
VERTEX
  8
0
  5
E30
 10
4.15088
 20
-7.58026
 30
0.000000
  70
    32
  0
VERTEX
  8
0
  5
E31
 10
4.19668
 20
-7.56297
 30
0.000000
  70
    32
  0
VERTEX
  8
0
  5
E32
 10
4.24238
 20
-7.54550
 30
0.000000
  70
    32
  0
VERTEX
  8
0
  5
E33
 10
4.28797
 20
-7.52785
 30
0.000000
  70
    32
  0
VERTEX
  8
0
  5
E34
 10
4.33344
 20
-7.51001
 30
0.000000
  70
    32
  0
VERTEX
  8
0
  5
E35
 10
4.37881
 20
-7.49199
 30
0.000000
  70
    32
  0
VERTEX
  8
0
  5
E36
 10
4.42405
 20
-7.47378
 30
0.000000
  70
    32
  0
VERTEX
  8
0
  5
E37
 10
4.46919
 20
-7.45539
 30
0.000000
  70
    32
  0
VERTEX
  8
0
  5
E38
 10
4.51421
 20
-7.43682
 30
0.000000
  70
    32
  0
VERTEX
  8
0
  5
E39
 10
4.55911
 20
-7.41807
 30
0.000000
  70
    32
  0
VERTEX
  8
0
  5
E3A
 10
4.60389
 20
-7.39913
 30
0.000000
  70
    32
  0
VERTEX
  8
0
  5
E3B
 10
4.64856
 20
-7.38002
 30
0.000000
  70
    32
  0
VERTEX
  8
0
  5
E3C
 10
4.69310
 20
-7.36073
 30
0.000000
  70
    32
  0
VERTEX
  8
0
  5
E3D
 10
4.73752
 20
-7.34126
 30
0.000000
  70
    32
  0
VERTEX
  8
0
  5
E3E
 10
4.78182
 20
-7.32161
 30
0.000000
  70
    32
  0
VERTEX
  8
0
  5
E3F
 10
4.82600
 20
-7.30178
 30
0.000000
  70
    32
  0
VERTEX
  8
0
  5
E40
 10
4.87004
 20
-7.28177
 30
0.000000
  70
    32
  0
VERTEX
  8
0
  5
E41
 10
4.91397
 20
-7.26159
 30
0.000000
  70
    32
  0
VERTEX
  8
0
  5
E42
 10
4.95776
 20
-7.24123
 30
0.000000
  70
    32
  0
VERTEX
  8
0
  5
E43
 10
5.00143
 20
-7.22070
 30
0.000000
  70
    32
  0
VERTEX
  8
0
  5
E44
 10
5.04496
 20
-7.19999
 30
0.000000
  70
    32
  0
VERTEX
  8
0
  5
E45
 10
5.08836
 20
-7.17911
 30
0.000000
  70
    32
  0
VERTEX
  8
0
  5
E46
 10
5.13163
 20
-7.15806
 30
0.000000
  70
    32
  0
VERTEX
  8
0
  5
E47
 10
5.17477
 20
-7.13683
 30
0.000000
  70
    32
  0
VERTEX
  8
0
  5
E48
 10
5.21777
 20
-7.11543
 30
0.000000
  70
    32
  0
VERTEX
  8
0
  5
E49
 10
5.26064
 20
-7.09386
 30
0.000000
  70
    32
  0
VERTEX
  8
0
  5
E4A
 10
5.30337
 20
-7.07212
 30
0.000000
  70
    32
  0
VERTEX
  8
0
  5
E4B
 10
5.34596
 20
-7.05020
 30
0.000000
  70
    32
  0
VERTEX
  8
0
  5
E4C
 10
5.38840
 20
-7.02812
 30
0.000000
  70
    32
  0
VERTEX
  8
0
  5
E4D
 10
5.43071
 20
-7.00587
 30
0.000000
  70
    32
  0
VERTEX
  8
0
  5
E4E
 10
5.47288
 20
-6.98345
 30
0.000000
  70
    32
  0
VERTEX
  8
0
  5
E4F
 10
5.51490
 20
-6.96086
 30
0.000000
  70
    32
  0
VERTEX
  8
0
  5
E50
 10
5.55678
 20
-6.93811
 30
0.000000
  70
    32
  0
VERTEX
  8
0
  5
E51
 10
5.59851
 20
-6.91519
 30
0.000000
  70
    32
  0
VERTEX
  8
0
  5
E52
 10
5.64010
 20
-6.89210
 30
0.000000
  70
    32
  0
VERTEX
  8
0
  5
E53
 10
5.68154
 20
-6.86885
 30
0.000000
  70
    32
  0
VERTEX
  8
0
  5
E54
 10
5.72282
 20
-6.84543
 30
0.000000
  70
    32
  0
VERTEX
  8
0
  5
E55
 10
5.76396
 20
-6.82185
 30
0.000000
  70
    32
  0
VERTEX
  8
0
  5
E56
 10
5.80495
 20
-6.79810
 30
0.000000
  70
    32
  0
VERTEX
  8
0
  5
E57
 10
5.84578
 20
-6.77420
 30
0.000000
  70
    32
  0
VERTEX
  8
0
  5
E58
 10
5.88646
 20
-6.75013
 30
0.000000
  70
    32
  0
VERTEX
  8
0
  5
E59
 10
5.92698
 20
-6.72589
 30
0.000000
  70
    32
  0
VERTEX
  8
0
  5
E5A
 10
5.96734
 20
-6.70150
 30
0.000000
  70
    32
  0
VERTEX
  8
0
  5
E5B
 10
6.00755
 20
-6.67695
 30
0.000000
  70
    32
  0
VERTEX
  8
0
  5
E5C
 10
6.04761
 20
-6.65223
 30
0.000000
  70
    32
  0
VERTEX
  8
0
  5
E5D
 10
6.08750
 20
-6.62735
 30
0.000000
  70
    32
  0
VERTEX
  8
0
  5
E5E
 10
6.12724
 20
-6.60230
 30
0.000000
  70
    32
  0
VERTEX
  8
0
  5
E5F
 10
6.16681
 20
-6.57710
 30
0.000000
  70
    32
  0
VERTEX
  8
0
  5
E60
 10
6.20623
 20
-6.55174
 30
0.000000
  70
    32
  0
VERTEX
  8
0
  5
E61
 10
6.24549
 20
-6.52622
 30
0.000000
  70
    32
  0
VERTEX
  8
0
  5
E62
 10
6.28458
 20
-6.50054
 30
0.000000
  70
    32
  0
VERTEX
  8
0
  5
E63
 10
6.32351
 20
-6.47471
 30
0.000000
  70
    32
  0
VERTEX
  8
0
  5
E64
 10
6.36228
 20
-6.44872
 30
0.000000
  70
    32
  0
VERTEX
  8
0
  5
E65
 10
6.40089
 20
-6.42257
 30
0.000000
  70
    32
  0
VERTEX
  8
0
  5
E66
 10
6.43933
 20
-6.39627
 30
0.000000
  70
    32
  0
VERTEX
  8
0
  5
E67
 10
6.47760
 20
-6.36982
 30
0.000000
  70
    32
  0
VERTEX
  8
0
  5
E68
 10
6.51571
 20
-6.34321
 30
0.000000
  70
    32
  0
VERTEX
  8
0
  5
E69
 10
6.55365
 20
-6.31646
 30
0.000000
  70
    32
  0
VERTEX
  8
0
  5
E6A
 10
6.59143
 20
-6.28955
 30
0.000000
  70
    32
  0
VERTEX
  8
0
  5
E6B
 10
6.62904
 20
-6.26250
 30
0.000000
  70
    32
  0
VERTEX
  8
0
  5
E6C
 10
6.66647
 20
-6.23529
 30
0.000000
  70
    32
  0
VERTEX
  8
0
  5
E6D
 10
6.70374
 20
-6.20794
 30
0.000000
  70
    32
  0
VERTEX
  8
0
  5
E6E
 10
6.74084
 20
-6.18044
 30
0.000000
  70
    32
  0
VERTEX
  8
0
  5
E6F
 10
6.77776
 20
-6.15280
 30
0.000000
  70
    32
  0
VERTEX
  8
0
  5
E70
 10
6.81452
 20
-6.12501
 30
0.000000
  70
    32
  0
VERTEX
  8
0
  5
E71
 10
6.85110
 20
-6.09708
 30
0.000000
  70
    32
  0
VERTEX
  8
0
  5
E72
 10
6.88751
 20
-6.06900
 30
0.000000
  70
    32
  0
VERTEX
  8
0
  5
E73
 10
6.92374
 20
-6.04078
 30
0.000000
  70
    32
  0
VERTEX
  8
0
  5
E74
 10
6.95980
 20
-6.01243
 30
0.000000
  70
    32
  0
VERTEX
  8
0
  5
E75
 10
6.99568
 20
-5.98393
 30
0.000000
  70
    32
  0
VERTEX
  8
0
  5
E76
 10
7.03139
 20
-5.95529
 30
0.000000
  70
    32
  0
VERTEX
  8
0
  5
E77
 10
7.06691
 20
-5.92652
 30
0.000000
  70
    32
  0
VERTEX
  8
0
  5
E78
 10
7.10226
 20
-5.89760
 30
0.000000
  70
    32
  0
VERTEX
  8
0
  5
E79
 10
7.13744
 20
-5.86855
 30
0.000000
  70
    32
  0
VERTEX
  8
0
  5
E7A
 10
7.17243
 20
-5.83937
 30
0.000000
  70
    32
  0
VERTEX
  8
0
  5
E7B
 10
7.20724
 20
-5.81005
 30
0.000000
  70
    32
  0
VERTEX
  8
0
  5
E7C
 10
7.24187
 20
-5.78060
 30
0.000000
  70
    32
  0
VERTEX
  8
0
  5
E7D
 10
7.27632
 20
-5.75101
 30
0.000000
  70
    32
  0
VERTEX
  8
0
  5
E7E
 10
7.31058
 20
-5.72129
 30
0.000000
  70
    32
  0
VERTEX
  8
0
  5
E7F
 10
7.34467
 20
-5.69144
 30
0.000000
  70
    32
  0
VERTEX
  8
0
  5
E80
 10
7.37856
 20
-5.66147
 30
0.000000
  70
    32
  0
VERTEX
  8
0
  5
E81
 10
7.41228
 20
-5.63136
 30
0.000000
  70
    32
  0
VERTEX
  8
0
  5
E82
 10
7.44580
 20
-5.60112
 30
0.000000
  70
    32
  0
VERTEX
  8
0
  5
E83
 10
7.47915
 20
-5.57076
 30
0.000000
  70
    32
  0
VERTEX
  8
0
  5
E84
 10
7.51230
 20
-5.54027
 30
0.000000
  70
    32
  0
VERTEX
  8
0
  5
E85
 10
7.54527
 20
-5.50966
 30
0.000000
  70
    32
  0
VERTEX
  8
0
  5
E86
 10
7.57804
 20
-5.47892
 30
0.000000
  70
    32
  0
VERTEX
  8
0
  5
E87
 10
7.61063
 20
-5.44806
 30
0.000000
  70
    32
  0
VERTEX
  8
0
  5
E88
 10
7.64303
 20
-5.41708
 30
0.000000
  70
    32
  0
VERTEX
  8
0
  5
E89
 10
7.67523
 20
-5.38597
 30
0.000000
  70
    32
  0
VERTEX
  8
0
  5
E8A
 10
7.70725
 20
-5.35475
 30
0.000000
  70
    32
  0
VERTEX
  8
0
  5
E8B
 10
7.73907
 20
-5.32340
 30
0.000000
  70
    32
  0
VERTEX
  8
0
  5
E8C
 10
7.77070
 20
-5.29193
 30
0.000000
  70
    32
  0
VERTEX
  8
0
  5
E8D
 10
7.80214
 20
-5.26035
 30
0.000000
  70
    32
  0
VERTEX
  8
0
  5
E8E
 10
7.83338
 20
-5.22865
 30
0.000000
  70
    32
  0
VERTEX
  8
0
  5
E8F
 10
7.86442
 20
-5.19684
 30
0.000000
  70
    32
  0
VERTEX
  8
0
  5
E90
 10
7.89527
 20
-5.16491
 30
0.000000
  70
    32
  0
VERTEX
  8
0
  5
E91
 10
7.92592
 20
-5.13286
 30
0.000000
  70
    32
  0
VERTEX
  8
0
  5
E92
 10
7.95638
 20
-5.10070
 30
0.000000
  70
    32
  0
VERTEX
  8
0
  5
E93
 10
7.98663
 20
-5.06843
 30
0.000000
  70
    32
  0
VERTEX
  8
0
  5
E94
 10
8.01669
 20
-5.03605
 30
0.000000
  70
    32
  0
VERTEX
  8
0
  5
E95
 10
8.04655
 20
-5.00356
 30
0.000000
  70
    32
  0
VERTEX
  8
0
  5
E96
 10
8.07620
 20
-4.97096
 30
0.000000
  70
    32
  0
VERTEX
  8
0
  5
E97
 10
8.10566
 20
-4.93825
 30
0.000000
  70
    32
  0
VERTEX
  8
0
  5
E98
 10
8.13491
 20
-4.90543
 30
0.000000
  70
    32
  0
VERTEX
  8
0
  5
E99
 10
8.16396
 20
-4.87250
 30
0.000000
  70
    32
  0
VERTEX
  8
0
  5
E9A
 10
8.19280
 20
-4.83947
 30
0.000000
  70
    32
  0
VERTEX
  8
0
  5
E9B
 10
8.22145
 20
-4.80634
 30
0.000000
  70
    32
  0
VERTEX
  8
0
  5
E9C
 10
8.24988
 20
-4.77310
 30
0.000000
  70
    32
  0
VERTEX
  8
0
  5
E9D
 10
8.27811
 20
-4.73976
 30
0.000000
  70
    32
  0
VERTEX
  8
0
  5
E9E
 10
8.30613
 20
-4.70631
 30
0.000000
  70
    32
  0
VERTEX
  8
0
  5
E9F
 10
8.33395
 20
-4.67277
 30
0.000000
  70
    32
  0
VERTEX
  8
0
  5
EA0
 10
8.36155
 20
-4.63912
 30
0.000000
  70
    32
  0
VERTEX
  8
0
  5
EA1
 10
8.38895
 20
-4.60537
 30
0.000000
  70
    32
  0
VERTEX
  8
0
  5
EA2
 10
8.41614
 20
-4.57153
 30
0.000000
  70
    32
  0
VERTEX
  8
0
  5
EA3
 10
8.44312
 20
-4.53759
 30
0.000000
  70
    32
  0
VERTEX
  8
0
  5
EA4
 10
8.46988
 20
-4.50355
 30
0.000000
  70
    32
  0
VERTEX
  8
0
  5
EA5
 10
8.49644
 20
-4.46941
 30
0.000000
  70
    32
  0
VERTEX
  8
0
  5
EA6
 10
8.52278
 20
-4.43518
 30
0.000000
  70
    32
  0
VERTEX
  8
0
  5
EA7
 10
8.54891
 20
-4.40085
 30
0.000000
  70
    32
  0
VERTEX
  8
0
  5
EA8
 10
8.57483
 20
-4.36643
 30
0.000000
  70
    32
  0
VERTEX
  8
0
  5
EA9
 10
8.60053
 20
-4.33191
 30
0.000000
  70
    32
  0
VERTEX
  8
0
  5
EAA
 10
8.62602
 20
-4.29730
 30
0.000000
  70
    32
  0
VERTEX
  8
0
  5
EAB
 10
8.65130
 20
-4.26259
 30
0.000000
  70
    32
  0
VERTEX
  8
0
  5
EAC
 10
8.67636
 20
-4.22779
 30
0.000000
  70
    32
  0
VERTEX
  8
0
  5
EAD
 10
8.70121
 20
-4.19291
 30
0.000000
  70
    32
  0
VERTEX
  8
0
  5
EAE
 10
8.72585
 20
-4.15793
 30
0.000000
  70
    32
  0
VERTEX
  8
0
  5
EAF
 10
8.75027
 20
-4.12287
 30
0.000000
  70
    32
  0
VERTEX
  8
0
  5
EB0
 10
8.77448
 20
-4.08771
 30
0.000000
  70
    32
  0
VERTEX
  8
0
  5
EB1
 10
8.79847
 20
-4.05247
 30
0.000000
  70
    32
  0
VERTEX
  8
0
  5
EB2
 10
8.82225
 20
-4.01715
 30
0.000000
  70
    32
  0
VERTEX
  8
0
  5
EB3
 10
8.84581
 20
-3.98174
 30
0.000000
  70
    32
  0
VERTEX
  8
0
  5
EB4
 10
8.86916
 20
-3.94624
 30
0.000000
  70
    32
  0
VERTEX
  8
0
  5
EB5
 10
8.89229
 20
-3.91066
 30
0.000000
  70
    32
  0
VERTEX
  8
0
  5
EB6
 10
8.91521
 20
-3.87500
 30
0.000000
  70
    32
  0
VERTEX
  8
0
  5
EB7
 10
8.93791
 20
-3.83925
 30
0.000000
  70
    32
  0
VERTEX
  8
0
  5
EB8
 10
8.96039
 20
-3.80343
 30
0.000000
  70
    32
  0
VERTEX
  8
0
  5
EB9
 10
8.98266
 20
-3.76752
 30
0.000000
  70
    32
  0
VERTEX
  8
0
  5
EBA
 10
9.00471
 20
-3.73154
 30
0.000000
  70
    32
  0
VERTEX
  8
0
  5
EBB
 10
9.02654
 20
-3.69547
 30
0.000000
  70
    32
  0
VERTEX
  8
0
  5
EBC
 10
9.04816
 20
-3.65933
 30
0.000000
  70
    32
  0
VERTEX
  8
0
  5
EBD
 10
9.06955
 20
-3.62311
 30
0.000000
  70
    32
  0
VERTEX
  8
0
  5
EBE
 10
9.09074
 20
-3.58682
 30
0.000000
  70
    32
  0
VERTEX
  8
0
  5
EBF
 10
9.11170
 20
-3.55045
 30
0.000000
  70
    32
  0
VERTEX
  8
0
  5
EC0
 10
9.13244
 20
-3.51401
 30
0.000000
  70
    32
  0
VERTEX
  8
0
  5
EC1
 10
9.15297
 20
-3.47750
 30
0.000000
  70
    32
  0
VERTEX
  8
0
  5
EC2
 10
9.17328
 20
-3.44091
 30
0.000000
  70
    32
  0
VERTEX
  8
0
  5
EC3
 10
9.19337
 20
-3.40425
 30
0.000000
  70
    32
  0
VERTEX
  8
0
  5
EC4
 10
9.21324
 20
-3.36752
 30
0.000000
  70
    32
  0
VERTEX
  8
0
  5
EC5
 10
9.23289
 20
-3.33073
 30
0.000000
  70
    32
  0
VERTEX
  8
0
  5
EC6
 10
9.25232
 20
-3.29386
 30
0.000000
  70
    32
  0
VERTEX
  8
0
  5
EC7
 10
9.27153
 20
-3.25692
 30
0.000000
  70
    32
  0
VERTEX
  8
0
  5
EC8
 10
9.29052
 20
-3.21992
 30
0.000000
  70
    32
  0
VERTEX
  8
0
  5
EC9
 10
9.30929
 20
-3.18285
 30
0.000000
  70
    32
  0
VERTEX
  8
0
  5
ECA
 10
9.32784
 20
-3.14572
 30
0.000000
  70
    32
  0
VERTEX
  8
0
  5
ECB
 10
9.34617
 20
-3.10852
 30
0.000000
  70
    32
  0
VERTEX
  8
0
  5
ECC
 10
9.36428
 20
-3.07126
 30
0.000000
  70
    32
  0
VERTEX
  8
0
  5
ECD
 10
9.38217
 20
-3.03394
 30
0.000000
  70
    32
  0
VERTEX
  8
0
  5
ECE
 10
9.39983
 20
-2.99656
 30
0.000000
  70
    32
  0
VERTEX
  8
0
  5
ECF
 10
9.41728
 20
-2.95911
 30
0.000000
  70
    32
  0
VERTEX
  8
0
  5
ED0
 10
9.43450
 20
-2.92161
 30
0.000000
  70
    32
  0
VERTEX
  8
0
  5
ED1
 10
9.45150
 20
-2.88404
 30
0.000000
  70
    32
  0
VERTEX
  8
0
  5
ED2
 10
9.46828
 20
-2.84642
 30
0.000000
  70
    32
  0
VERTEX
  8
0
  5
ED3
 10
9.48484
 20
-2.80874
 30
0.000000
  70
    32
  0
VERTEX
  8
0
  5
ED4
 10
9.50117
 20
-2.77100
 30
0.000000
  70
    32
  0
VERTEX
  8
0
  5
ED5
 10
9.51728
 20
-2.73321
 30
0.000000
  70
    32
  0
VERTEX
  8
0
  5
ED6
 10
9.53317
 20
-2.69537
 30
0.000000
  70
    32
  0
VERTEX
  8
0
  5
ED7
 10
9.54883
 20
-2.65747
 30
0.000000
  70
    32
  0
VERTEX
  8
0
  5
ED8
 10
9.56427
 20
-2.61951
 30
0.000000
  70
    32
  0
VERTEX
  8
0
  5
ED9
 10
9.57949
 20
-2.58151
 30
0.000000
  70
    32
  0
VERTEX
  8
0
  5
EDA
 10
9.59448
 20
-2.54345
 30
0.000000
  70
    32
  0
VERTEX
  8
0
  5
EDB
 10
9.60925
 20
-2.50535
 30
0.000000
  70
    32
  0
VERTEX
  8
0
  5
EDC
 10
9.62379
 20
-2.46719
 30
0.000000
  70
    32
  0
VERTEX
  8
0
  5
EDD
 10
9.63811
 20
-2.42899
 30
0.000000
  70
    32
  0
VERTEX
  8
0
  5
EDE
 10
9.65221
 20
-2.39073
 30
0.000000
  70
    32
  0
VERTEX
  8
0
  5
EDF
 10
9.66607
 20
-2.35244
 30
0.000000
  70
    32
  0
VERTEX
  8
0
  5
EE0
 10
9.67972
 20
-2.31409
 30
0.000000
  70
    32
  0
VERTEX
  8
0
  5
EE1
 10
9.69313
 20
-2.27570
 30
0.000000
  70
    32
  0
VERTEX
  8
0
  5
EE2
 10
9.70633
 20
-2.23727
 30
0.000000
  70
    32
  0
VERTEX
  8
0
  5
EE3
 10
9.71929
 20
-2.19879
 30
0.000000
  70
    32
  0
VERTEX
  8
0
  5
EE4
 10
9.73203
 20
-2.16028
 30
0.000000
  70
    32
  0
VERTEX
  8
0
  5
EE5
 10
9.74454
 20
-2.12172
 30
0.000000
  70
    32
  0
VERTEX
  8
0
  5
EE6
 10
9.75683
 20
-2.08312
 30
0.000000
  70
    32
  0
VERTEX
  8
0
  5
EE7
 10
9.76888
 20
-2.04448
 30
0.000000
  70
    32
  0
VERTEX
  8
0
  5
EE8
 10
9.78071
 20
-2.00580
 30
0.000000
  70
    32
  0
VERTEX
  8
0
  5
EE9
 10
9.79232
 20
-1.96708
 30
0.000000
  70
    32
  0
VERTEX
  8
0
  5
EEA
 10
9.80369
 20
-1.92833
 30
0.000000
  70
    32
  0
VERTEX
  8
0
  5
EEB
 10
9.81484
 20
-1.88954
 30
0.000000
  70
    32
  0
VERTEX
  8
0
  5
EEC
 10
9.82576
 20
-1.85071
 30
0.000000
  70
    32
  0
VERTEX
  8
0
  5
EED
 10
9.83645
 20
-1.81185
 30
0.000000
  70
    32
  0
VERTEX
  8
0
  5
EEE
 10
9.84691
 20
-1.77296
 30
0.000000
  70
    32
  0
VERTEX
  8
0
  5
EEF
 10
9.85714
 20
-1.73403
 30
0.000000
  70
    32
  0
VERTEX
  8
0
  5
EF0
 10
9.86714
 20
-1.69507
 30
0.000000
  70
    32
  0
VERTEX
  8
0
  5
EF1
 10
9.87691
 20
-1.65608
 30
0.000000
  70
    32
  0
VERTEX
  8
0
  5
EF2
 10
9.88645
 20
-1.61705
 30
0.000000
  70
    32
  0
VERTEX
  8
0
  5
EF3
 10
9.89576
 20
-1.57800
 30
0.000000
  70
    32
  0
VERTEX
  8
0
  5
EF4
 10
9.90484
 20
-1.53892
 30
0.000000
  70
    32
  0
VERTEX
  8
0
  5
EF5
 10
9.91369
 20
-1.49980
 30
0.000000
  70
    32
  0
VERTEX
  8
0
  5
EF6
 10
9.92231
 20
-1.46066
 30
0.000000
  70
    32
  0
VERTEX
  8
0
  5
EF7
 10
9.93070
 20
-1.42150
 30
0.000000
  70
    32
  0
VERTEX
  8
0
  5
EF8
 10
9.93886
 20
-1.38230
 30
0.000000
  70
    32
  0
VERTEX
  8
0
  5
EF9
 10
9.94679
 20
-1.34309
 30
0.000000
  70
    32
  0
VERTEX
  8
0
  5
EFA
 10
9.95449
 20
-1.30384
 30
0.000000
  70
    32
  0
VERTEX
  8
0
  5
EFB
 10
9.96196
 20
-1.26458
 30
0.000000
  70
    32
  0
VERTEX
  8
0
  5
EFC
 10
9.96920
 20
-1.22528
 30
0.000000
  70
    32
  0
VERTEX
  8
0
  5
EFD
 10
9.97621
 20
-1.18597
 30
0.000000
  70
    32
  0
VERTEX
  8
0
  5
EFE
 10
9.98299
 20
-1.14664
 30
0.000000
  70
    32
  0
VERTEX
  8
0
  5
EFF
 10
9.98954
 20
-1.10728
 30
0.000000
  70
    32
  0
VERTEX
  8
0
  5
F00
 10
9.99587
 20
-1.06790
 30
0.000000
  70
    32
  0
VERTEX
  8
0
  5
F01
 10
10.0020
 20
-1.02851
 30
0.000000
  70
    32
  0
VERTEX
  8
0
  5
F02
 10
10.0078
 20
-0.989095
 30
0.000000
  70
    32
  0
VERTEX
  8
0
  5
F03
 10
10.0135
 20
-0.949663
 30
0.000000
  70
    32
  0
VERTEX
  8
0
  5
F04
 10
10.0189
 20
-0.910215
 30
0.000000
  70
    32
  0
VERTEX
  8
0
  5
F05
 10
10.0240
 20
-0.870750
 30
0.000000
  70
    32
  0
VERTEX
  8
0
  5
F06
 10
10.0290
 20
-0.831270
 30
0.000000
  70
    32
  0
VERTEX
  8
0
  5
F07
 10
10.0337
 20
-0.791775
 30
0.000000
  70
    32
  0
VERTEX
  8
0
  5
F08
 10
10.0382
 20
-0.752266
 30
0.000000
  70
    32
  0
VERTEX
  8
0
  5
F09
 10
10.0424
 20
-0.712744
 30
0.000000
  70
    32
  0
VERTEX
  8
0
  5
F0A
 10
10.0464
 20
-0.673210
 30
0.000000
  70
    32
  0
VERTEX
  8
0
  5
F0B
 10
10.0502
 20
-0.633664
 30
0.000000
  70
    32
  0
VERTEX
  8
0
  5
F0C
 10
10.0538
 20
-0.594107
 30
0.000000
  70
    32
  0
VERTEX
  8
0
  5
F0D
 10
10.0571
 20
-0.554541
 30
0.000000
  70
    32
  0
VERTEX
  8
0
  5
F0E
 10
10.0602
 20
-0.514965
 30
0.000000
  70
    32
  0
VERTEX
  8
0
  5
F0F
 10
10.0631
 20
-0.475381
 30
0.000000
  70
    32
  0
VERTEX
  8
0
  5
F10
 10
10.0657
 20
-0.435789
 30
0.000000
  70
    32
  0
VERTEX
  8
0
  5
F11
 10
10.0682
 20
-0.396191
 30
0.000000
  70
    32
  0
VERTEX
  8
0
  5
F12
 10
10.0703
 20
-0.356586
 30
0.000000
  70
    32
  0
VERTEX
  8
0
  5
F13
 10
10.0723
 20
-0.316976
 30
0.000000
  70
    32
  0
VERTEX
  8
0
  5
F14
 10
10.0740
 20
-0.277362
 30
0.000000
  70
    32
  0
VERTEX
  8
0
  5
F15
 10
10.0755
 20
-0.237744
 30
0.000000
  70
    32
  0
VERTEX
  8
0
  5
F16
 10
10.0768
 20
-0.198122
 30
0.000000
  70
    32
  0
VERTEX
  8
0
  5
F17
 10
10.0778
 20
-0.158499
 30
0.000000
  70
    32
  0
VERTEX
  8
0
  5
F18
 10
10.0786
 20
-0.118874
 30
0.000000
  70
    32
  0
VERTEX
  8
0
  5
F19
 10
10.0792
 20
-0.0792492
 30
0.000000
  70
    32
  0
VERTEX
  8
0
  5
F1A
 10
10.0795
 20
-0.0396241
 30
0.000000
  70
    32
  0
VERTEX
  8
0
  5
F1B
 10
10.0797
 20
-8.06569e-011
 30
0.000000
  70
    32
  0
SEQEND
  8
0
  5
F1C
  0
POLYLINE
  8
0
  5
F1D
  66
     1
 10
0.000000
 20
0.000000
 30
0.000000
  70
     8
  0
VERTEX
  8
0
  5
F1E
 10
8.47034
 20
3.92960
 30
0.000000
  70
    32
  0
VERTEX
  8
0
  5
F1F
 10
8.45096
 20
3.95746
 30
0.000000
  70
    32
  0
VERTEX
  8
0
  5
F20
 10
8.43145
 20
3.98526
 30
0.000000
  70
    32
  0
VERTEX
  8
0
  5
F21
 10
8.41180
 20
4.01301
 30
0.000000
  70
    32
  0
VERTEX
  8
0
  5
F22
 10
8.39200
 20
4.04069
 30
0.000000
  70
    32
  0
VERTEX
  8
0
  5
F23
 10
8.37207
 20
4.06832
 30
0.000000
  70
    32
  0
VERTEX
  8
0
  5
F24
 10
8.35200
 20
4.09589
 30
0.000000
  70
    32
  0
VERTEX
  8
0
  5
F25
 10
8.33178
 20
4.12340
 30
0.000000
  70
    32
  0
VERTEX
  8
0
  5
F26
 10
8.31143
 20
4.15084
 30
0.000000
  70
    32
  0
VERTEX
  8
0
  5
F27
 10
8.29093
 20
4.17823
 30
0.000000
  70
    32
  0
VERTEX
  8
0
  5
F28
 10
8.27030
 20
4.20555
 30
0.000000
  70
    32
  0
VERTEX
  8
0
  5
F29
 10
8.24953
 20
4.23281
 30
0.000000
  70
    32
  0
VERTEX
  8
0
  5
F2A
 10
8.22862
 20
4.26001
 30
0.000000
  70
    32
  0
VERTEX
  8
0
  5
F2B
 10
8.20756
 20
4.28715
 30
0.000000
  70
    32
  0
VERTEX
  8
0
  5
F2C
 10
8.18637
 20
4.31422
 30
0.000000
  70
    32
  0
VERTEX
  8
0
  5
F2D
 10
8.16505
 20
4.34122
 30
0.000000
  70
    32
  0
VERTEX
  8
0
  5
F2E
 10
8.14358
 20
4.36816
 30
0.000000
  70
    32
  0
VERTEX
  8
0
  5
F2F
 10
8.12197
 20
4.39504
 30
0.000000
  70
    32
  0
VERTEX
  8
0
  5
F30
 10
8.10022
 20
4.42185
 30
0.000000
  70
    32
  0
VERTEX
  8
0
  5
F31
 10
8.07833
 20
4.44860
 30
0.000000
  70
    32
  0
VERTEX
  8
0
  5
F32
 10
8.05630
 20
4.47529
 30
0.000000
  70
    32
  0
VERTEX
  8
0
  5
F33
 10
8.03412
 20
4.50191
 30
0.000000
  70
    32
  0
VERTEX
  8
0
  5
F34
 10
8.01180
 20
4.52848
 30
0.000000
  70
    32
  0
VERTEX
  8
0
  5
F35
 10
7.98934
 20
4.55498
 30
0.000000
  70
    32
  0
VERTEX
  8
0
  5
F36
 10
7.96674
 20
4.58141
 30
0.000000
  70
    32
  0
VERTEX
  8
0
  5
F37
 10
7.94400
 20
4.60778
 30
0.000000
  70
    32
  0
VERTEX
  8
0
  5
F38
 10
7.92112
 20
4.63408
 30
0.000000
  70
    32
  0
VERTEX
  8
0
  5
F39
 10
7.89810
 20
4.66032
 30
0.000000
  70
    32
  0
VERTEX
  8
0
  5
F3A
 10
7.87494
 20
4.68650
 30
0.000000
  70
    32
  0
VERTEX
  8
0
  5
F3B
 10
7.85164
 20
4.71260
 30
0.000000
  70
    32
  0
VERTEX
  8
0
  5
F3C
 10
7.82820
 20
4.73864
 30
0.000000
  70
    32
  0
VERTEX
  8
0
  5
F3D
 10
7.80463
 20
4.76461
 30
0.000000
  70
    32
  0
VERTEX
  8
0
  5
F3E
 10
7.78091
 20
4.79051
 30
0.000000
  70
    32
  0
VERTEX
  8
0
  5
F3F
 10
7.75707
 20
4.81634
 30
0.000000
  70
    32
  0
VERTEX
  8
0
  5
F40
 10
7.73308
 20
4.84210
 30
0.000000
  70
    32
  0
VERTEX
  8
0
  5
F41
 10
7.70896
 20
4.86779
 30
0.000000
  70
    32
  0
VERTEX
  8
0
  5
F42
 10
7.68470
 20
4.89341
 30
0.000000
  70
    32
  0
VERTEX
  8
0
  5
F43
 10
7.66031
 20
4.91896
 30
0.000000
  70
    32
  0
VERTEX
  8
0
  5
F44
 10
7.63579
 20
4.94444
 30
0.000000
  70
    32
  0
VERTEX
  8
0
  5
F45
 10
7.61113
 20
4.96984
 30
0.000000
  70
    32
  0
VERTEX
  8
0
  5
F46
 10
7.58634
 20
4.99517
 30
0.000000
  70
    32
  0
VERTEX
  8
0
  5
F47
 10
7.56141
 20
5.02043
 30
0.000000
  70
    32
  0
VERTEX
  8
0
  5
F48
 10
7.53636
 20
5.04562
 30
0.000000
  70
    32
  0
VERTEX
  8
0
  5
F49
 10
7.51117
 20
5.07073
 30
0.000000
  70
    32
  0
VERTEX
  8
0
  5
F4A
 10
7.48585
 20
5.09576
 30
0.000000
  70
    32
  0
VERTEX
  8
0
  5
F4B
 10
7.46040
 20
5.12072
 30
0.000000
  70
    32
  0
VERTEX
  8
0
  5
F4C
 10
7.43481
 20
5.14560
 30
0.000000
  70
    32
  0
VERTEX
  8
0
  5
F4D
 10
7.40910
 20
5.17040
 30
0.000000
  70
    32
  0
VERTEX
  8
0
  5
F4E
 10
7.38326
 20
5.19513
 30
0.000000
  70
    32
  0
VERTEX
  8
0
  5
F4F
 10
7.35729
 20
5.21978
 30
0.000000
  70
    32
  0
VERTEX
  8
0
  5
F50
 10
7.33119
 20
5.24435
 30
0.000000
  70
    32
  0
VERTEX
  8
0
  5
F51
 10
7.30496
 20
5.26884
 30
0.000000
  70
    32
  0
VERTEX
  8
0
  5
F52
 10
7.27861
 20
5.29325
 30
0.000000
  70
    32
  0
VERTEX
  8
0
  5
F53
 10
7.25213
 20
5.31758
 30
0.000000
  70
    32
  0
VERTEX
  8
0
  5
F54
 10
7.22552
 20
5.34183
 30
0.000000
  70
    32
  0
VERTEX
  8
0
  5
F55
 10
7.19878
 20
5.36600
 30
0.000000
  70
    32
  0
VERTEX
  8
0
  5
F56
 10
7.17192
 20
5.39009
 30
0.000000
  70
    32
  0
VERTEX
  8
0
  5
F57
 10
7.14494
 20
5.41410
 30
0.000000
  70
    32
  0
VERTEX
  8
0
  5
F58
 10
7.11782
 20
5.43802
 30
0.000000
  70
    32
  0
VERTEX
  8
0
  5
F59
 10
7.09059
 20
5.46186
 30
0.000000
  70
    32
  0
VERTEX
  8
0
  5
F5A
 10
7.06323
 20
5.48561
 30
0.000000
  70
    32
  0
VERTEX
  8
0
  5
F5B
 10
7.03575
 20
5.50928
 30
0.000000
  70
    32
  0
VERTEX
  8
0
  5
F5C
 10
7.00814
 20
5.53286
 30
0.000000
  70
    32
  0
VERTEX
  8
0
  5
F5D
 10
6.98042
 20
5.55636
 30
0.000000
  70
    32
  0
VERTEX
  8
0
  5
F5E
 10
6.95257
 20
5.57978
 30
0.000000
  70
    32
  0
VERTEX
  8
0
  5
F5F
 10
6.92459
 20
5.60310
 30
0.000000
  70
    32
  0
VERTEX
  8
0
  5
F60
 10
6.89650
 20
5.62634
 30
0.000000
  70
    32
  0
VERTEX
  8
0
  5
F61
 10
6.86829
 20
5.64949
 30
0.000000
  70
    32
  0
VERTEX
  8
0
  5
F62
 10
6.83996
 20
5.67255
 30
0.000000
  70
    32
  0
VERTEX
  8
0
  5
F63
 10
6.81151
 20
5.69553
 30
0.000000
  70
    32
  0
VERTEX
  8
0
  5
F64
 10
6.78293
 20
5.71841
 30
0.000000
  70
    32
  0
VERTEX
  8
0
  5
F65
 10
6.75424
 20
5.74120
 30
0.000000
  70
    32
  0
VERTEX
  8
0
  5
F66
 10
6.72544
 20
5.76391
 30
0.000000
  70
    32
  0
VERTEX
  8
0
  5
F67
 10
6.69651
 20
5.78652
 30
0.000000
  70
    32
  0
VERTEX
  8
0
  5
F68
 10
6.66747
 20
5.80904
 30
0.000000
  70
    32
  0
VERTEX
  8
0
  5
F69
 10
6.63831
 20
5.83146
 30
0.000000
  70
    32
  0
VERTEX
  8
0
  5
F6A
 10
6.60903
 20
5.85380
 30
0.000000
  70
    32
  0
VERTEX
  8
0
  5
F6B
 10
6.57964
 20
5.87604
 30
0.000000
  70
    32
  0
VERTEX
  8
0
  5
F6C
 10
6.55013
 20
5.89819
 30
0.000000
  70
    32
  0
VERTEX
  8
0
  5
F6D
 10
6.52051
 20
5.92024
 30
0.000000
  70
    32
  0
VERTEX
  8
0
  5
F6E
 10
6.49078
 20
5.94220
 30
0.000000
  70
    32
  0
VERTEX
  8
0
  5
F6F
 10
6.46093
 20
5.96406
 30
0.000000
  70
    32
  0
VERTEX
  8
0
  5
F70
 10
6.43096
 20
5.98583
 30
0.000000
  70
    32
  0
VERTEX
  8
0
  5
F71
 10
6.40089
 20
6.00749
 30
0.000000
  70
    32
  0
VERTEX
  8
0
  5
F72
 10
6.37070
 20
6.02907
 30
0.000000
  70
    32
  0
VERTEX
  8
0
  5
F73
 10
6.34040
 20
6.05054
 30
0.000000
  70
    32
  0
VERTEX
  8
0
  5
F74
 10
6.30999
 20
6.07192
 30
0.000000
  70
    32
  0
VERTEX
  8
0
  5
F75
 10
6.27947
 20
6.09319
 30
0.000000
  70
    32
  0
VERTEX
  8
0
  5
F76
 10
6.24883
 20
6.11437
 30
0.000000
  70
    32
  0
VERTEX
  8
0
  5
F77
 10
6.21809
 20
6.13545
 30
0.000000
  70
    32
  0
VERTEX
  8
0
  5
F78
 10
6.18724
 20
6.15642
 30
0.000000
  70
    32
  0
VERTEX
  8
0
  5
F79
 10
6.15627
 20
6.17730
 30
0.000000
  70
    32
  0
VERTEX
  8
0
  5
F7A
 10
6.12520
 20
6.19807
 30
0.000000
  70
    32
  0
VERTEX
  8
0
  5
F7B
 10
6.09402
 20
6.21875
 30
0.000000
  70
    32
  0
VERTEX
  8
0
  5
F7C
 10
6.06274
 20
6.23931
 30
0.000000
  70
    32
  0
VERTEX
  8
0
  5
F7D
 10
6.03134
 20
6.25978
 30
0.000000
  70
    32
  0
VERTEX
  8
0
  5
F7E
 10
5.99984
 20
6.28014
 30
0.000000
  70
    32
  0
VERTEX
  8
0
  5
F7F
 10
5.96824
 20
6.30040
 30
0.000000
  70
    32
  0
VERTEX
  8
0
  5
F80
 10
5.93653
 20
6.32055
 30
0.000000
  70
    32
  0
VERTEX
  8
0
  5
F81
 10
5.90471
 20
6.34060
 30
0.000000
  70
    32
  0
VERTEX
  8
0
  5
F82
 10
5.87279
 20
6.36054
 30
0.000000
  70
    32
  0
VERTEX
  8
0
  5
F83
 10
5.84076
 20
6.38037
 30
0.000000
  70
    32
  0
VERTEX
  8
0
  5
F84
 10
5.80863
 20
6.40010
 30
0.000000
  70
    32
  0
VERTEX
  8
0
  5
F85
 10
5.77639
 20
6.41972
 30
0.000000
  70
    32
  0
VERTEX
  8
0
  5
F86
 10
5.74406
 20
6.43923
 30
0.000000
  70
    32
  0
VERTEX
  8
0
  5
F87
 10
5.71162
 20
6.45864
 30
0.000000
  70
    32
  0
VERTEX
  8
0
  5
F88
 10
5.67907
 20
6.47793
 30
0.000000
  70
    32
  0
VERTEX
  8
0
  5
F89
 10
5.64641
 20
6.49712
 30
0.000000
  70
    32
  0
VERTEX
  8
0
  5
F8A
 10
5.61365
 20
6.51620
 30
0.000000
  70
    32
  0
VERTEX
  8
0
  5
F8B
 10
5.58078
 20
6.53518
 30
0.000000
  70
    32
  0
VERTEX
  8
0
  5
F8C
 10
5.54780
 20
6.55404
 30
0.000000
  70
    32
  0
VERTEX
  8
0
  5
F8D
 10
5.51473
 20
6.57280
 30
0.000000
  70
    32
  0
VERTEX
  8
0
  5
F8E
 10
5.48154
 20
6.59145
 30
0.000000
  70
    32
  0
VERTEX
  8
0
  5
F8F
 10
5.44826
 20
6.60999
 30
0.000000
  70
    32
  0
VERTEX
  8
0
  5
F90
 10
5.41487
 20
6.62842
 30
0.000000
  70
    32
  0
VERTEX
  8
0
  5
F91
 10
5.38138
 20
6.64675
 30
0.000000
  70
    32
  0
VERTEX
  8
0
  5
F92
 10
5.34778
 20
6.66496
 30
0.000000
  70
    32
  0
VERTEX
  8
0
  5
F93
 10
5.31409
 20
6.68306
 30
0.000000
  70
    32
  0
VERTEX
  8
0
  5
F94
 10
5.28030
 20
6.70105
 30
0.000000
  70
    32
  0
VERTEX
  8
0
  5
F95
 10
5.24641
 20
6.71893
 30
0.000000
  70
    32
  0
VERTEX
  8
0
  5
F96
 10
5.21242
 20
6.73670
 30
0.000000
  70
    32
  0
VERTEX
  8
0
  5
F97
 10
5.17834
 20
6.75435
 30
0.000000
  70
    32
  0
VERTEX
  8
0
  5
F98
 10
5.14415
 20
6.77190
 30
0.000000
  70
    32
  0
VERTEX
  8
0
  5
F99
 10
5.10988
 20
6.78933
 30
0.000000
  70
    32
  0
VERTEX
  8
0
  5
F9A
 10
5.07550
 20
6.80665
 30
0.000000
  70
    32
  0
VERTEX
  8
0
  5
F9B
 10
5.04103
 20
6.82386
 30
0.000000
  70
    32
  0
VERTEX
  8
0
  5
F9C
 10
5.00647
 20
6.84095
 30
0.000000
  70
    32
  0
VERTEX
  8
0
  5
F9D
 10
4.97182
 20
6.85793
 30
0.000000
  70
    32
  0
VERTEX
  8
0
  5
F9E
 10
4.93707
 20
6.87479
 30
0.000000
  70
    32
  0
VERTEX
  8
0
  5
F9F
 10
4.90223
 20
6.89154
 30
0.000000
  70
    32
  0
VERTEX
  8
0
  5
FA0
 10
4.86730
 20
6.90818
 30
0.000000
  70
    32
  0
VERTEX
  8
0
  5
FA1
 10
4.83228
 20
6.92470
 30
0.000000
  70
    32
  0
VERTEX
  8
0
  5
FA2
 10
4.79717
 20
6.94110
 30
0.000000
  70
    32
  0
VERTEX
  8
0
  5
FA3
 10
4.76198
 20
6.95739
 30
0.000000
  70
    32
  0
VERTEX
  8
0
  5
FA4
 10
4.72669
 20
6.97357
 30
0.000000
  70
    32
  0
VERTEX
  8
0
  5
FA5
 10
4.69132
 20
6.98962
 30
0.000000
  70
    32
  0
VERTEX
  8
0
  5
FA6
 10
4.65586
 20
7.00556
 30
0.000000
  70
    32
  0
VERTEX
  8
0
  5
FA7
 10
4.62031
 20
7.02138
 30
0.000000
  70
    32
  0
VERTEX
  8
0
  5
FA8
 10
4.58468
 20
7.03709
 30
0.000000
  70
    32
  0
VERTEX
  8
0
  5
FA9
 10
4.54897
 20
7.05268
 30
0.000000
  70
    32
  0
VERTEX
  8
0
  5
FAA
 10
4.51317
 20
7.06815
 30
0.000000
  70
    32
  0
VERTEX
  8
0
  5
FAB
 10
4.47729
 20
7.08350
 30
0.000000
  70
    32
  0
VERTEX
  8
0
  5
FAC
 10
4.44133
 20
7.09873
 30
0.000000
  70
    32
  0
VERTEX
  8
0
  5
FAD
 10
4.40528
 20
7.11384
 30
0.000000
  70
    32
  0
VERTEX
  8
0
  5
FAE
 10
4.36916
 20
7.12883
 30
0.000000
  70
    32
  0
VERTEX
  8
0
  5
FAF
 10
4.33296
 20
7.14371
 30
0.000000
  70
    32
  0
VERTEX
  8
0
  5
FB0
 10
4.29667
 20
7.15846
 30
0.000000
  70
    32
  0
VERTEX
  8
0
  5
FB1
 10
4.26031
 20
7.17309
 30
0.000000
  70
    32
  0
VERTEX
  8
0
  5
FB2
 10
4.22387
 20
7.18760
 30
0.000000
  70
    32
  0
VERTEX
  8
0
  5
FB3
 10
4.18735
 20
7.20199
 30
0.000000
  70
    32
  0
VERTEX
  8
0
  5
FB4
 10
4.15076
 20
7.21626
 30
0.000000
  70
    32
  0
VERTEX
  8
0
  5
FB5
 10
4.11409
 20
7.23040
 30
0.000000
  70
    32
  0
VERTEX
  8
0
  5
FB6
 10
4.07734
 20
7.24443
 30
0.000000
  70
    32
  0
VERTEX
  8
0
  5
FB7
 10
4.04053
 20
7.25833
 30
0.000000
  70
    32
  0
VERTEX
  8
0
  5
FB8
 10
4.00363
 20
7.27211
 30
0.000000
  70
    32
  0
VERTEX
  8
0
  5
FB9
 10
3.96667
 20
7.28576
 30
0.000000
  70
    32
  0
VERTEX
  8
0
  5
FBA
 10
3.92963
 20
7.29929
 30
0.000000
  70
    32
  0
VERTEX
  8
0
  5
FBB
 10
3.89253
 20
7.31270
 30
0.000000
  70
    32
  0
VERTEX
  8
0
  5
FBC
 10
3.85535
 20
7.32598
 30
0.000000
  70
    32
  0
VERTEX
  8
0
  5
FBD
 10
3.81810
 20
7.33914
 30
0.000000
  70
    32
  0
VERTEX
  8
0
  5
FBE
 10
3.78078
 20
7.35217
 30
0.000000
  70
    32
  0
VERTEX
  8
0
  5
FBF
 10
3.74340
 20
7.36508
 30
0.000000
  70
    32
  0
VERTEX
  8
0
  5
FC0
 10
3.70595
 20
7.37786
 30
0.000000
  70
    32
  0
VERTEX
  8
0
  5
FC1
 10
3.66843
 20
7.39052
 30
0.000000
  70
    32
  0
VERTEX
  8
0
  5
FC2
 10
3.63084
 20
7.40305
 30
0.000000
  70
    32
  0
VERTEX
  8
0
  5
FC3
 10
3.59319
 20
7.41545
 30
0.000000
  70
    32
  0
VERTEX
  8
0
  5
FC4
 10
3.55547
 20
7.42773
 30
0.000000
  70
    32
  0
VERTEX
  8
0
  5
FC5
 10
3.51769
 20
7.43987
 30
0.000000
  70
    32
  0
VERTEX
  8
0
  5
FC6
 10
3.47985
 20
7.45189
 30
0.000000
  70
    32
  0
VERTEX
  8
0
  5
FC7
 10
3.44194
 20
7.46379
 30
0.000000
  70
    32
  0
VERTEX
  8
0
  5
FC8
 10
3.40398
 20
7.47555
 30
0.000000
  70
    32
  0
VERTEX
  8
0
  5
FC9
 10
3.36595
 20
7.48719
 30
0.000000
  70
    32
  0
VERTEX
  8
0
  5
FCA
 10
3.32786
 20
7.49869
 30
0.000000
  70
    32
  0
VERTEX
  8
0
  5
FCB
 10
3.28971
 20
7.51007
 30
0.000000
  70
    32
  0
VERTEX
  8
0
  5
FCC
 10
3.25150
 20
7.52131
 30
0.000000
  70
    32
  0
VERTEX
  8
0
  5
FCD
 10
3.21324
 20
7.53243
 30
0.000000
  70
    32
  0
VERTEX
  8
0
  5
FCE
 10
3.17492
 20
7.54342
 30
0.000000
  70
    32
  0
VERTEX
  8
0
  5
FCF
 10
3.13654
 20
7.55427
 30
0.000000
  70
    32
  0
VERTEX
  8
0
  5
FD0
 10
3.09810
 20
7.56499
 30
0.000000
  70
    32
  0
VERTEX
  8
0
  5
FD1
 10
3.05961
 20
7.57559
 30
0.000000
  70
    32
  0
VERTEX
  8
0
  5
FD2
 10
3.02107
 20
7.58605
 30
0.000000
  70
    32
  0
VERTEX
  8
0
  5
FD3
 10
2.98247
 20
7.59638
 30
0.000000
  70
    32
  0
VERTEX
  8
0
  5
FD4
 10
2.94381
 20
7.60657
 30
0.000000
  70
    32
  0
VERTEX
  8
0
  5
FD5
 10
2.90511
 20
7.61663
 30
0.000000
  70
    32
  0
VERTEX
  8
0
  5
FD6
 10
2.86635
 20
7.62656
 30
0.000000
  70
    32
  0
VERTEX
  8
0
  5
FD7
 10
2.82755
 20
7.63636
 30
0.000000
  70
    32
  0
VERTEX
  8
0
  5
FD8
 10
2.78869
 20
7.64602
 30
0.000000
  70
    32
  0
VERTEX
  8
0
  5
FD9
 10
2.74978
 20
7.65555
 30
0.000000
  70
    32
  0
VERTEX
  8
0
  5
FDA
 10
2.71083
 20
7.66494
 30
0.000000
  70
    32
  0
VERTEX
  8
0
  5
FDB
 10
2.67183
 20
7.67420
 30
0.000000
  70
    32
  0
VERTEX
  8
0
  5
FDC
 10
2.63278
 20
7.68332
 30
0.000000
  70
    32
  0
VERTEX
  8
0
  5
FDD
 10
2.59368
 20
7.69231
 30
0.000000
  70
    32
  0
VERTEX
  8
0
  5
FDE
 10
2.55454
 20
7.70116
 30
0.000000
  70
    32
  0
VERTEX
  8
0
  5
FDF
 10
2.51534
 20
7.70987
 30
0.000000
  70
    32
  0
VERTEX
  8
0
  5
FE0
 10
2.47610
 20
7.71845
 30
0.000000
  70
    32
  0
VERTEX
  8
0
  5
FE1
 10
2.43681
 20
7.72689
 30
0.000000
  70
    32
  0
VERTEX
  8
0
  5
FE2
 10
2.39747
 20
7.73520
 30
0.000000
  70
    32
  0
VERTEX
  8
0
  5
FE3
 10
2.35809
 20
7.74337
 30
0.000000
  70
    32
  0
VERTEX
  8
0
  5
FE4
 10
2.31866
 20
7.75140
 30
0.000000
  70
    32
  0
VERTEX
  8
0
  5
FE5
 10
2.27918
 20
7.75929
 30
0.000000
  70
    32
  0
VERTEX
  8
0
  5
FE6
 10
2.23965
 20
7.76705
 30
0.000000
  70
    32
  0
VERTEX
  8
0
  5
FE7
 10
2.20009
 20
7.77467
 30
0.000000
  70
    32
  0
VERTEX
  8
0
  5
FE8
 10
2.16047
 20
7.78216
 30
0.000000
  70
    32
  0
VERTEX
  8
0
  5
FE9
 10
2.12082
 20
7.78950
 30
0.000000
  70
    32
  0
VERTEX
  8
0
  5
FEA
 10
2.08112
 20
7.79671
 30
0.000000
  70
    32
  0
VERTEX
  8
0
  5
FEB
 10
2.04139
 20
7.80378
 30
0.000000
  70
    32
  0
VERTEX
  8
0
  5
FEC
 10
2.00161
 20
7.81072
 30
0.000000
  70
    32
  0
VERTEX
  8
0
  5
FED
 10
1.96180
 20
7.81752
 30
0.000000
  70
    32
  0
VERTEX
  8
0
  5
FEE
 10
1.92194
 20
7.82418
 30
0.000000
  70
    32
  0
VERTEX
  8
0
  5
FEF
 10
1.88205
 20
7.83070
 30
0.000000
  70
    32
  0
VERTEX
  8
0
  5
FF0
 10
1.84212
 20
7.83709
 30
0.000000
  70
    32
  0
VERTEX
  8
0
  5
FF1
 10
1.80215
 20
7.84334
 30
0.000000
  70
    32
  0
VERTEX
  8
0
  5
FF2
 10
1.76215
 20
7.84945
 30
0.000000
  70
    32
  0
VERTEX
  8
0
  5
FF3
 10
1.72212
 20
7.85543
 30
0.000000
  70
    32
  0
VERTEX
  8
0
  5
FF4
 10
1.68205
 20
7.86126
 30
0.000000
  70
    32
  0
VERTEX
  8
0
  5
FF5
 10
1.64195
 20
7.86696
 30
0.000000
  70
    32
  0
VERTEX
  8
0
  5
FF6
 10
1.60182
 20
7.87252
 30
0.000000
  70
    32
  0
VERTEX
  8
0
  5
FF7
 10
1.56165
 20
7.87795
 30
0.000000
  70
    32
  0
VERTEX
  8
0
  5
FF8
 10
1.52146
 20
7.88323
 30
0.000000
  70
    32
  0
VERTEX
  8
0
  5
FF9
 10
1.48123
 20
7.88838
 30
0.000000
  70
    32
  0
VERTEX
  8
0
  5
FFA
 10
1.44098
 20
7.89339
 30
0.000000
  70
    32
  0
VERTEX
  8
0
  5
FFB
 10
1.40070
 20
7.89827
 30
0.000000
  70
    32
  0
VERTEX
  8
0
  5
FFC
 10
1.36039
 20
7.90300
 30
0.000000
  70
    32
  0
VERTEX
  8
0
  5
FFD
 10
1.32006
 20
7.90760
 30
0.000000
  70
    32
  0
VERTEX
  8
0
  5
FFE
 10
1.27970
 20
7.91206
 30
0.000000
  70
    32
  0
VERTEX
  8
0
  5
FFF
 10
1.23932
 20
7.91638
 30
0.000000
  70
    32
  0
VERTEX
  8
0
  5
1000
 10
1.19891
 20
7.92056
 30
0.000000
  70
    32
  0
VERTEX
  8
0
  5
1001
 10
1.15848
 20
7.92461
 30
0.000000
  70
    32
  0
VERTEX
  8
0
  5
1002
 10
1.11802
 20
7.92851
 30
0.000000
  70
    32
  0
VERTEX
  8
0
  5
1003
 10
1.07755
 20
7.93228
 30
0.000000
  70
    32
  0
VERTEX
  8
0
  5
1004
 10
1.03706
 20
7.93591
 30
0.000000
  70
    32
  0
VERTEX
  8
0
  5
1005
 10
0.996541
 20
7.93940
 30
0.000000
  70
    32
  0
VERTEX
  8
0
  5
1006
 10
0.956007
 20
7.94276
 30
0.000000
  70
    32
  0
VERTEX
  8
0
  5
1007
 10
0.915456
 20
7.94597
 30
0.000000
  70
    32
  0
VERTEX
  8
0
  5
1008
 10
0.874887
 20
7.94905
 30
0.000000
  70
    32
  0
VERTEX
  8
0
  5
1009
 10
0.834302
 20
7.95199
 30
0.000000
  70
    32
  0
VERTEX
  8
0
  5
100A
 10
0.793701
 20
7.95479
 30
0.000000
  70
    32
  0
VERTEX
  8
0
  5
100B
 10
0.753086
 20
7.95745
 30
0.000000
  70
    32
  0
VERTEX
  8
0
  5
100C
 10
0.712456
 20
7.95997
 30
0.000000
  70
    32
  0
VERTEX
  8
0
  5
100D
 10
0.671813
 20
7.96235
 30
0.000000
  70
    32
  0
VERTEX
  8
0
  5
100E
 10
0.631158
 20
7.96460
 30
0.000000
  70
    32
  0
VERTEX
  8
0
  5
100F
 10
0.590492
 20
7.96671
 30
0.000000
  70
    32
  0
VERTEX
  8
0
  5
1010
 10
0.549814
 20
7.96867
 30
0.000000
  70
    32
  0
VERTEX
  8
0
  5
1011
 10
0.509127
 20
7.97050
 30
0.000000
  70
    32
  0
VERTEX
  8
0
  5
1012
 10
0.468431
 20
7.97219
 30
0.000000
  70
    32
  0
VERTEX
  8
0
  5
1013
 10
0.427726
 20
7.97374
 30
0.000000
  70
    32
  0
VERTEX
  8
0
  5
1014
 10
0.387014
 20
7.97515
 30
0.000000
  70
    32
  0
VERTEX
  8
0
  5
1015
 10
0.346295
 20
7.97642
 30
0.000000
  70
    32
  0
VERTEX
  8
0
  5
1016
 10
0.305571
 20
7.97756
 30
0.000000
  70
    32
  0
VERTEX
  8
0
  5
1017
 10
0.264841
 20
7.97855
 30
0.000000
  70
    32
  0
VERTEX
  8
0
  5
1018
 10
0.224107
 20
7.97941
 30
0.000000
  70
    32
  0
VERTEX
  8
0
  5
1019
 10
0.183370
 20
7.98012
 30
0.000000
  70
    32
  0
VERTEX
  8
0
  5
101A
 10
0.142631
 20
7.98070
 30
0.000000
  70
    32
  0
VERTEX
  8
0
  5
101B
 10
0.101889
 20
7.98113
 30
0.000000
  70
    32
  0
VERTEX
  8
0
  5
101C
 10
0.0611471
 20
7.98143
 30
0.000000
  70
    32
  0
VERTEX
  8
0
  5
101D
 10
0.0204048
 20
7.98159
 30
0.000000
  70
    32
  0
VERTEX
  8
0
  5
101E
 10
-0.0203369
 20
7.98161
 30
0.000000
  70
    32
  0
VERTEX
  8
0
  5
101F
 10
-0.0610770
 20
7.98149
 30
0.000000
  70
    32
  0
VERTEX
  8
0
  5
1020
 10
-0.101815
 20
7.98123
 30
0.000000
  70
    32
  0
VERTEX
  8
0
  5
1021
 10
-0.142549
 20
7.98083
 30
0.000000
  70
    32
  0
VERTEX
  8
0
  5
1022
 10
-0.183280
 20
7.98029
 30
0.000000
  70
    32
  0
VERTEX
  8
0
  5
1023
 10
-0.224006
 20
7.97961
 30
0.000000
  70
    32
  0
VERTEX
  8
0
  5
1024
 10
-0.264726
 20
7.97879
 30
0.000000
  70
    32
  0
VERTEX
  8
0
  5
1025
 10
-0.305440
 20
7.97783
 30
0.000000
  70
    32
  0
VERTEX
  8
0
  5
1026
 10
-0.346146
 20
7.97673
 30
0.000000
  70
    32
  0
VERTEX
  8
0
  5
1027
 10
-0.386845
 20
7.97549
 30
0.000000
  70
    32
  0
VERTEX
  8
0
  5
1028
 10
-0.427534
 20
7.97411
 30
0.000000
  70
    32
  0
VERTEX
  8
0
  5
1029
 10
-0.468214
 20
7.97259
 30
0.000000
  70
    32
  0
VERTEX
  8
0
  5
102A
 10
-0.508883
 20
7.97093
 30
0.000000
  70
    32
  0
VERTEX
  8
0
  5
102B
 10
-0.549541
 20
7.96913
 30
0.000000
  70
    32
  0
VERTEX
  8
0
  5
102C
 10
-0.590187
 20
7.96719
 30
0.000000
  70
    32
  0
VERTEX
  8
0
  5
102D
 10
-0.630820
 20
7.96511
 30
0.000000
  70
    32
  0
VERTEX
  8
0
  5
102E
 10
-0.671439
 20
7.96289
 30
0.000000
  70
    32
  0
VERTEX
  8
0
  5
102F
 10
-0.712043
 20
7.96053
 30
0.000000
  70
    32
  0
VERTEX
  8
0
  5
1030
 10
-0.752632
 20
7.95803
 30
0.000000
  70
    32
  0
VERTEX
  8
0
  5
1031
 10
-0.793205
 20
7.95539
 30
0.000000
  70
    32
  0
VERTEX
  8
0
  5
1032
 10
-0.833760
 20
7.95261
 30
0.000000
  70
    32
  0
VERTEX
  8
0
  5
1033
 10
-0.874298
 20
7.94968
 30
0.000000
  70
    32
  0
VERTEX
  8
0
  5
1034
 10
-0.914817
 20
7.94662
 30
0.000000
  70
    32
  0
VERTEX
  8
0
  5
1035
 10
-0.955317
 20
7.94342
 30
0.000000
  70
    32
  0
VERTEX
  8
0
  5
1036
 10
-0.995797
 20
7.94007
 30
0.000000
  70
    32
  0
VERTEX
  8
0
  5
1037
 10
-1.03626
 20
7.93659
 30
0.000000
  70
    32
  0
VERTEX
  8
0
  5
1038
 10
-1.07670
 20
7.93296
 30
0.000000
  70
    32
  0
VERTEX
  8
0
  5
1039
 10
-1.11713
 20
7.92919
 30
0.000000
  70
    32
  0
VERTEX
  8
0
  5
103A
 10
-1.15753
 20
7.92527
 30
0.000000
  70
    32
  0
VERTEX
  8
0
  5
103B
 10
-1.19792
 20
7.92122
 30
0.000000
  70
    32
  0
VERTEX
  8
0
  5
103C
 10
-1.23828
 20
7.91702
 30
0.000000
  70
    32
  0
VERTEX
  8
0
  5
103D
 10
-1.27863
 20
7.91268
 30
0.000000
  70
    32
  0
VERTEX
  8
0
  5
103E
 10
-1.31895
 20
7.90820
 30
0.000000
  70
    32
  0
VERTEX
  8
0
  5
103F
 10
-1.35924
 20
7.90358
 30
0.000000
  70
    32
  0
VERTEX
  8
0
  5
1040
 10
-1.39952
 20
7.89882
 30
0.000000
  70
    32
  0
VERTEX
  8
0
  5
1041
 10
-1.43976
 20
7.89392
 30
0.000000
  70
    32
  0
VERTEX
  8
0
  5
1042
 10
-1.47999
 20
7.88888
 30
0.000000
  70
    32
  0
VERTEX
  8
0
  5
1043
 10
-1.52018
 20
7.88370
 30
0.000000
  70
    32
  0
VERTEX
  8
0
  5
1044
 10
-1.56035
 20
7.87838
 30
0.000000
  70
    32
  0
VERTEX
  8
0
  5
1045
 10
-1.60050
 20
7.87292
 30
0.000000
  70
    32
  0
VERTEX
  8
0
  5
1046
 10
-1.64061
 20
7.86732
 30
0.000000
  70
    32
  0
VERTEX
  8
0
  5
1047
 10
-1.68069
 20
7.86158
 30
0.000000
  70
    32
  0
VERTEX
  8
0
  5
1048
 10
-1.72075
 20
7.85571
 30
0.000000
  70
    32
  0
VERTEX
  8
0
  5
1049
 10
-1.76077
 20
7.84969
 30
0.000000
  70
    32
  0
VERTEX
  8
0
  5
104A
 10
-1.80076
 20
7.84354
 30
0.000000
  70
    32
  0
VERTEX
  8
0
  5
104B
 10
-1.84072
 20
7.83725
 30
0.000000
  70
    32
  0
VERTEX
  8
0
  5
104C
 10
-1.88065
 20
7.83082
 30
0.000000
  70
    32
  0
VERTEX
  8
0
  5
104D
 10
-1.92054
 20
7.82425
 30
0.000000
  70
    32
  0
VERTEX
  8
0
  5
104E
 10
-1.96040
 20
7.81755
 30
0.000000
  70
    32
  0
VERTEX
  8
0
  5
104F
 10
-2.00022
 20
7.81071
 30
0.000000
  70
    32
  0
VERTEX
  8
0
  5
1050
 10
-2.04000
 20
7.80374
 30
0.000000
  70
    32
  0
VERTEX
  8
0
  5
1051
 10
-2.07975
 20
7.79662
 30
0.000000
  70
    32
  0
VERTEX
  8
0
  5
1052
 10
-2.11947
 20
7.78937
 30
0.000000
  70
    32
  0
VERTEX
  8
0
  5
1053
 10
-2.15914
 20
7.78199
 30
0.000000
  70
    32
  0
VERTEX
  8
0
  5
1054
 10
-2.19877
 20
7.77447
 30
0.000000
  70
    32
  0
VERTEX
  8
0
  5
1055
 10
-2.23837
 20
7.76681
 30
0.000000
  70
    32
  0
VERTEX
  8
0
  5
1056
 10
-2.27792
 20
7.75902
 30
0.000000
  70
    32
  0
VERTEX
  8
0
  5
1057
 10
-2.31743
 20
7.75110
 30
0.000000
  70
    32
  0
VERTEX
  8
0
  5
1058
 10
-2.35690
 20
7.74304
 30
0.000000
  70
    32
  0
VERTEX
  8
0
  5
1059
 10
-2.39633
 20
7.73484
 30
0.000000
  70
    32
  0
VERTEX
  8
0
  5
105A
 10
-2.43572
 20
7.72651
 30
0.000000
  70
    32
  0
VERTEX
  8
0
  5
105B
 10
-2.47506
 20
7.71805
 30
0.000000
  70
    32
  0
VERTEX
  8
0
  5
105C
 10
-2.51435
 20
7.70946
 30
0.000000
  70
    32
  0
VERTEX
  8
0
  5
105D
 10
-2.55360
 20
7.70073
 30
0.000000
  70
    32
  0
VERTEX
  8
0
  5
105E
 10
-2.59280
 20
7.69186
 30
0.000000
  70
    32
  0
VERTEX
  8
0
  5
105F
 10
-2.63196
 20
7.68287
 30
0.000000
  70
    32
  0
VERTEX
  8
0
  5
1060
 10
-2.67106
 20
7.67374
 30
0.000000
  70
    32
  0
VERTEX
  8
0
  5
1061
 10
-2.71012
 20
7.66448
 30
0.000000
  70
    32
  0
VERTEX
  8
0
  5
1062
 10
-2.74913
 20
7.65508
 30
0.000000
  70
    32
  0
VERTEX
  8
0
  5
1063
 10
-2.78809
 20
7.64556
 30
0.000000
  70
    32
  0
VERTEX
  8
0
  5
1064
 10
-2.82699
 20
7.63590
 30
0.000000
  70
    32
  0
VERTEX
  8
0
  5
1065
 10
-2.86585
 20
7.62612
 30
0.000000
  70
    32
  0
VERTEX
  8
0
  5
1066
 10
-2.90465
 20
7.61620
 30
0.000000
  70
    32
  0
VERTEX
  8
0
  5
1067
 10
-2.94340
 20
7.60615
 30
0.000000
  70
    32
  0
VERTEX
  8
0
  5
1068
 10
-2.98209
 20
7.59597
 30
0.000000
  70
    32
  0
VERTEX
  8
0
  5
1069
 10
-3.02073
 20
7.58565
 30
0.000000
  70
    32
  0
VERTEX
  8
0
  5
106A
 10
-3.05931
 20
7.57521
 30
0.000000
  70
    32
  0
VERTEX
  8
0
  5
106B
 10
-3.09784
 20
7.56464
 30
0.000000
  70
    32
  0
VERTEX
  8
0
  5
106C
 10
-3.13631
 20
7.55394
 30
0.000000
  70
    32
  0
VERTEX
  8
0
  5
106D
 10
-3.17472
 20
7.54311
 30
0.000000
  70
    32
  0
VERTEX
  8
0
  5
106E
 10
-3.21308
 20
7.53215
 30
0.000000
  70
    32
  0
VERTEX
  8
0
  5
106F
 10
-3.25137
 20
7.52106
 30
0.000000
  70
    32
  0
VERTEX
  8
0
  5
1070
 10
-3.28960
 20
7.50984
 30
0.000000
  70
    32
  0
VERTEX
  8
0
  5
1071
 10
-3.32778
 20
7.49850
 30
0.000000
  70
    32
  0
VERTEX
  8
0
  5
1072
 10
-3.36589
 20
7.48702
 30
0.000000
  70
    32
  0
VERTEX
  8
0
  5
1073
 10
-3.40394
 20
7.47542
 30
0.000000
  70
    32
  0
VERTEX
  8
0
  5
1074
 10
-3.44192
 20
7.46369
 30
0.000000
  70
    32
  0
VERTEX
  8
0
  5
1075
 10
-3.47984
 20
7.45183
 30
0.000000
  70
    32
  0
VERTEX
  8
0
  5
1076
 10
-3.51770
 20
7.43985
 30
0.000000
  70
    32
  0
VERTEX
  8
0
  5
1077
 10
-3.55549
 20
7.42774
 30
0.000000
  70
    32
  0
VERTEX
  8
0
  5
1078
 10
-3.59321
 20
7.41550
 30
0.000000
  70
    32
  0
VERTEX
  8
0
  5
1079
 10
-3.63087
 20
7.40314
 30
0.000000
  70
    32
  0
VERTEX
  8
0
  5
107A
 10
-3.66846
 20
7.39065
 30
0.000000
  70
    32
  0
VERTEX
  8
0
  5
107B
 10
-3.70598
 20
7.37803
 30
0.000000
  70
    32
  0
VERTEX
  8
0
  5
107C
 10
-3.74344
 20
7.36529
 30
0.000000
  70
    32
  0
VERTEX
  8
0
  5
107D
 10
-3.78082
 20
7.35242
 30
0.000000
  70
    32
  0
VERTEX
  8
0
  5
107E
 10
-3.81813
 20
7.33942
 30
0.000000
  70
    32
  0
VERTEX
  8
0
  5
107F
 10
-3.85537
 20
7.32631
 30
0.000000
  70
    32
  0
VERTEX
  8
0
  5
1080
 10
-3.89254
 20
7.31306
 30
0.000000
  70
    32
  0
VERTEX
  8
0
  5
1081
 10
-3.92963
 20
7.29970
 30
0.000000
  70
    32
  0
VERTEX
  8
0
  5
1082
 10
-3.96665
 20
7.28620
 30
0.000000
  70
    32
  0
VERTEX
  8
0
  5
1083
 10
-4.00360
 20
7.27259
 30
0.000000
  70
    32
  0
VERTEX
  8
0
  5
1084
 10
-4.04047
 20
7.25885
 30
0.000000
  70
    32
  0
VERTEX
  8
0
  5
1085
 10
-4.07726
 20
7.24499
 30
0.000000
  70
    32
  0
VERTEX
  8
0
  5
1086
 10
-4.11398
 20
7.23100
 30
0.000000
  70
    32
  0
VERTEX
  8
0
  5
1087
 10
-4.15062
 20
7.21689
 30
0.000000
  70
    32
  0
VERTEX
  8
0
  5
1088
 10
-4.18719
 20
7.20266
 30
0.000000
  70
    32
  0
VERTEX
  8
0
  5
1089
 10
-4.22367
 20
7.18830
 30
0.000000
  70
    32
  0
VERTEX
  8
0
  5
108A
 10
-4.26007
 20
7.17383
 30
0.000000
  70
    32
  0
VERTEX
  8
0
  5
108B
 10
-4.29640
 20
7.15923
 30
0.000000
  70
    32
  0
VERTEX
  8
0
  5
108C
 10
-4.33264
 20
7.14451
 30
0.000000
  70
    32
  0
VERTEX
  8
0
  5
108D
 10
-4.36880
 20
7.12966
 30
0.000000
  70
    32
  0
VERTEX
  8
0
  5
108E
 10
-4.40487
 20
7.11470
 30
0.000000
  70
    32
  0
VERTEX
  8
0
  5
108F
 10
-4.44087
 20
7.09961
 30
0.000000
  70
    32
  0
VERTEX
  8
0
  5
1090
 10
-4.47678
 20
7.08440
 30
0.000000
  70
    32
  0
VERTEX
  8
0
  5
1091
 10
-4.51261
 20
7.06906
 30
0.000000
  70
    32
  0
VERTEX
  8
0
  5
1092
 10
-4.54836
 20
7.05360
 30
0.000000
  70
    32
  0
VERTEX
  8
0
  5
1093
 10
-4.58403
 20
7.03802
 30
0.000000
  70
    32
  0
VERTEX
  8
0
  5
1094
 10
-4.61961
 20
7.02232
 30
0.000000
  70
    32
  0
VERTEX
  8
0
  5
1095
 10
-4.65510
 20
7.00650
 30
0.000000
  70
    32
  0
VERTEX
  8
0
  5
1096
 10
-4.69051
 20
6.99056
 30
0.000000
  70
    32
  0
VERTEX
  8
0
  5
1097
 10
-4.72584
 20
6.97450
 30
0.000000
  70
    32
  0
VERTEX
  8
0
  5
1098
 10
-4.76107
 20
6.95831
 30
0.000000
  70
    32
  0
VERTEX
  8
0
  5
1099
 10
-4.79623
 20
6.94201
 30
0.000000
  70
    32
  0
VERTEX
  8
0
  5
109A
 10
-4.83129
 20
6.92559
 30
0.000000
  70
    32
  0
VERTEX
  8
0
  5
109B
 10
-4.86626
 20
6.90905
 30
0.000000
  70
    32
  0
VERTEX
  8
0
  5
109C
 10
-4.90115
 20
6.89240
 30
0.000000
  70
    32
  0
VERTEX
  8
0
  5
109D
 10
-4.93595
 20
6.87562
 30
0.000000
  70
    32
  0
VERTEX
  8
0
  5
109E
 10
-4.97066
 20
6.85873
 30
0.000000
  70
    32
  0
VERTEX
  8
0
  5
109F
 10
-5.00527
 20
6.84173
 30
0.000000
  70
    32
  0
VERTEX
  8
0
  5
10A0
 10
-5.03980
 20
6.82460
 30
0.000000
  70
    32
  0
VERTEX
  8
0
  5
10A1
 10
-5.07424
 20
6.80737
 30
0.000000
  70
    32
  0
VERTEX
  8
0
  5
10A2
 10
-5.10858
 20
6.79001
 30
0.000000
  70
    32
  0
VERTEX
  8
0
  5
10A3
 10
-5.14283
 20
6.77255
 30
0.000000
  70
    32
  0
VERTEX
  8
0
  5
10A4
 10
-5.17699
 20
6.75497
 30
0.000000
  70
    32
  0
VERTEX
  8
0
  5
10A5
 10
-5.21106
 20
6.73727
 30
0.000000
  70
    32
  0
VERTEX
  8
0
  5
10A6
 10
-5.24503
 20
6.71946
 30
0.000000
  70
    32
  0
VERTEX
  8
0
  5
10A7
 10
-5.27890
 20
6.70155
 30
0.000000
  70
    32
  0
VERTEX
  8
0
  5
10A8
 10
-5.31269
 20
6.68351
 30
0.000000
  70
    32
  0
VERTEX
  8
0
  5
10A9
 10
-5.34637
 20
6.66537
 30
0.000000
  70
    32
  0
VERTEX
  8
0
  5
10AA
 10
-5.37996
 20
6.64712
 30
0.000000
  70
    32
  0
VERTEX
  8
0
  5
10AB
 10
-5.41345
 20
6.62875
 30
0.000000
  70
    32
  0
VERTEX
  8
0
  5
10AC
 10
-5.44685
 20
6.61028
 30
0.000000
  70
    32
  0
VERTEX
  8
0
  5
10AD
 10
-5.48015
 20
6.59169
 30
0.000000
  70
    32
  0
VERTEX
  8
0
  5
10AE
 10
-5.51335
 20
6.57300
 30
0.000000
  70
    32
  0
VERTEX
  8
0
  5
10AF
 10
-5.54645
 20
6.55420
 30
0.000000
  70
    32
  0
VERTEX
  8
0
  5
10B0
 10
-5.57945
 20
6.53529
 30
0.000000
  70
    32
  0
VERTEX
  8
0
  5
10B1
 10
-5.61235
 20
6.51627
 30
0.000000
  70
    32
  0
VERTEX
  8
0
  5
10B2
 10
-5.64515
 20
6.49714
 30
0.000000
  70
    32
  0
VERTEX
  8
0
  5
10B3
 10
-5.67785
 20
6.47791
 30
0.000000
  70
    32
  0
VERTEX
  8
0
  5
10B4
 10
-5.71045
 20
6.45857
 30
0.000000
  70
    32
  0
VERTEX
  8
0
  5
10B5
 10
-5.74295
 20
6.43913
 30
0.000000
  70
    32
  0
VERTEX
  8
0
  5
10B6
 10
-5.77534
 20
6.41958
 30
0.000000
  70
    32
  0
VERTEX
  8
0
  5
10B7
 10
-5.80763
 20
6.39993
 30
0.000000
  70
    32
  0
VERTEX
  8
0
  5
10B8
 10
-5.83982
 20
6.38017
 30
0.000000
  70
    32
  0
VERTEX
  8
0
  5
10B9
 10
-5.87190
 20
6.36031
 30
0.000000
  70
    32
  0
VERTEX
  8
0
  5
10BA
 10
-5.90388
 20
6.34034
 30
0.000000
  70
    32
  0
VERTEX
  8
0
  5
10BB
 10
-5.93575
 20
6.32027
 30
0.000000
  70
    32
  0
VERTEX
  8
0
  5
10BC
 10
-5.96752
 20
6.30010
 30
0.000000
  70
    32
  0
VERTEX
  8
0
  5
10BD
 10
-5.99918
 20
6.27983
 30
0.000000
  70
    32
  0
VERTEX
  8
0
  5
10BE
 10
-6.03073
 20
6.25946
 30
0.000000
  70
    32
  0
VERTEX
  8
0
  5
10BF
 10
-6.06217
 20
6.23898
 30
0.000000
  70
    32
  0
VERTEX
  8
0
  5
10C0
 10
-6.09351
 20
6.21841
 30
0.000000
  70
    32
  0
VERTEX
  8
0
  5
10C1
 10
-6.12474
 20
6.19773
 30
0.000000
  70
    32
  0
VERTEX
  8
0
  5
10C2
 10
-6.15586
 20
6.17695
 30
0.000000
  70
    32
  0
VERTEX
  8
0
  5
10C3
 10
-6.18687
 20
6.15608
 30
0.000000
  70
    32
  0
VERTEX
  8
0
  5
10C4
 10
-6.21777
 20
6.13511
 30
0.000000
  70
    32
  0
VERTEX
  8
0
  5
10C5
 10
-6.24856
 20
6.11404
 30
0.000000
  70
    32
  0
VERTEX
  8
0
  5
10C6
 10
-6.27923
 20
6.09287
 30
0.000000
  70
    32
  0
VERTEX
  8
0
  5
10C7
 10
-6.30980
 20
6.07160
 30
0.000000
  70
    32
  0
VERTEX
  8
0
  5
10C8
 10
-6.34025
 20
6.05024
 30
0.000000
  70
    32
  0
VERTEX
  8
0
  5
10C9
 10
-6.37059
 20
6.02878
 30
0.000000
  70
    32
  0
VERTEX
  8
0
  5
10CA
 10
-6.40082
 20
6.00723
 30
0.000000
  70
    32
  0
VERTEX
  8
0
  5
10CB
 10
-6.43093
 20
5.98558
 30
0.000000
  70
    32
  0
VERTEX
  8
0
  5
10CC
 10
-6.46093
 20
5.96383
 30
0.000000
  70
    32
  0
VERTEX
  8
0
  5
10CD
 10
-6.49081
 20
5.94199
 30
0.000000
  70
    32
  0
VERTEX
  8
0
  5
10CE
 10
-6.52057
 20
5.92006
 30
0.000000
  70
    32
  0
VERTEX
  8
0
  5
10CF
 10
-6.55023
 20
5.89803
 30
0.000000
  70
    32
  0
VERTEX
  8
0
  5
10D0
 10
-6.57976
 20
5.87591
 30
0.000000
  70
    32
  0
VERTEX
  8
0
  5
10D1
 10
-6.60918
 20
5.85370
 30
0.000000
  70
    32
  0
VERTEX
  8
0
  5
10D2
 10
-6.63847
 20
5.83140
 30
0.000000
  70
    32
  0
VERTEX
  8
0
  5
10D3
 10
-6.66765
 20
5.80901
 30
0.000000
  70
    32
  0
VERTEX
  8
0
  5
10D4
 10
-6.69671
 20
5.78652
 30
0.000000
  70
    32
  0
VERTEX
  8
0
  5
10D5
 10
-6.72566
 20
5.76394
 30
0.000000
  70
    32
  0
VERTEX
  8
0
  5
10D6
 10
-6.75448
 20
5.74128
 30
0.000000
  70
    32
  0
VERTEX
  8
0
  5
10D7
 10
-6.78318
 20
5.71852
 30
0.000000
  70
    32
  0
VERTEX
  8
0
  5
10D8
 10
-6.81176
 20
5.69568
 30
0.000000
  70
    32
  0
VERTEX
  8
0
  5
10D9
 10
-6.84022
 20
5.67275
 30
0.000000
  70
    32
  0
VERTEX
  8
0
  5
10DA
 10
-6.86855
 20
5.64972
 30
0.000000
  70
    32
  0
VERTEX
  8
0
  5
10DB
 10
-6.89677
 20
5.62662
 30
0.000000
  70
    32
  0
VERTEX
  8
0
  5
10DC
 10
-6.92486
 20
5.60342
 30
0.000000
  70
    32
  0
VERTEX
  8
0
  5
10DD
 10
-6.95282
 20
5.58014
 30
0.000000
  70
    32
  0
VERTEX
  8
0
  5
10DE
 10
-6.98066
 20
5.55677
 30
0.000000
  70
    32
  0
VERTEX
  8
0
  5
10DF
 10
-7.00838
 20
5.53331
 30
0.000000
  70
    32
  0
VERTEX
  8
0
  5
10E0
 10
-7.03597
 20
5.50977
 30
0.000000
  70
    32
  0
VERTEX
  8
0
  5
10E1
 10
-7.06344
 20
5.48615
 30
0.000000
  70
    32
  0
VERTEX
  8
0
  5
10E2
 10
-7.09078
 20
5.46244
 30
0.000000
  70
    32
  0
VERTEX
  8
0
  5
10E3
 10
-7.11799
 20
5.43865
 30
0.000000
  70
    32
  0
VERTEX
  8
0
  5
10E4
 10
-7.14507
 20
5.41477
 30
0.000000
  70
    32
  0
VERTEX
  8
0
  5
10E5
 10
-7.17203
 20
5.39081
 30
0.000000
  70
    32
  0
VERTEX
  8
0
  5
10E6
 10
-7.19886
 20
5.36677
 30
0.000000
  70
    32
  0
VERTEX
  8
0
  5
10E7
 10
-7.22556
 20
5.34264
 30
0.000000
  70
    32
  0
VERTEX
  8
0
  5
10E8
 10
-7.25213
 20
5.31843
 30
0.000000
  70
    32
  0
VERTEX
  8
0
  5
10E9
 10
-7.27857
 20
5.29414
 30
0.000000
  70
    32
  0
VERTEX
  8
0
  5
10EA
 10
-7.30488
 20
5.26976
 30
0.000000
  70
    32
  0
VERTEX
  8
0
  5
10EB
 10
-7.33106
 20
5.24531
 30
0.000000
  70
    32
  0
VERTEX
  8
0
  5
10EC
 10
-7.35711
 20
5.22077
 30
0.000000
  70
    32
  0
VERTEX
  8
0
  5
10ED
 10
-7.38303
 20
5.19614
 30
0.000000
  70
    32
  0
VERTEX
  8
0
  5
10EE
 10
-7.40882
 20
5.17144
 30
0.000000
  70
    32
  0
VERTEX
  8
0
  5
10EF
 10
-7.43448
 20
5.14666
 30
0.000000
  70
    32
  0
VERTEX
  8
0
  5
10F0
 10
-7.46001
 20
5.12180
 30
0.000000
  70
    32
  0
VERTEX
  8
0
  5
10F1
 10
-7.48541
 20
5.09686
 30
0.000000
  70
    32
  0
VERTEX
  8
0
  5
10F2
 10
-7.51068
 20
5.07184
 30
0.000000
  70
    32
  0
VERTEX
  8
0
  5
10F3
 10
-7.53581
 20
5.04675
 30
0.000000
  70
    32
  0
VERTEX
  8
0
  5
10F4
 10
-7.56082
 20
5.02158
 30
0.000000
  70
    32
  0
VERTEX
  8
0
  5
10F5
 10
-7.58569
 20
4.99633
 30
0.000000
  70
    32
  0
VERTEX
  8
0
  5
10F6
 10
-7.61043
 20
4.97100
 30
0.000000
  70
    32
  0
VERTEX
  8
0
  5
10F7
 10
-7.63504
 20
4.94560
 30
0.000000
  70
    32
  0
VERTEX
  8
0
  5
10F8
 10
-7.65951
 20
4.92012
 30
0.000000
  70
    32
  0
VERTEX
  8
0
  5
10F9
 10
-7.68385
 20
4.89457
 30
0.000000
  70
    32
  0
VERTEX
  8
0
  5
10FA
 10
-7.70806
 20
4.86895
 30
0.000000
  70
    32
  0
VERTEX
  8
0
  5
10FB
 10
-7.73214
 20
4.84325
 30
0.000000
  70
    32
  0
VERTEX
  8
0
  5
10FC
 10
-7.75608
 20
4.81748
 30
0.000000
  70
    32
  0
VERTEX
  8
0
  5
10FD
 10
-7.77989
 20
4.79164
 30
0.000000
  70
    32
  0
VERTEX
  8
0
  5
10FE
 10
-7.80356
 20
4.76572
 30
0.000000
  70
    32
  0
VERTEX
  8
0
  5
10FF
 10
-7.82710
 20
4.73973
 30
0.000000
  70
    32
  0
VERTEX
  8
0
  5
1100
 10
-7.85051
 20
4.71368
 30
0.000000
  70
    32
  0
VERTEX
  8
0
  5
1101
 10
-7.87378
 20
4.68755
 30
0.000000
  70
    32
  0
VERTEX
  8
0
  5
1102
 10
-7.89691
 20
4.66135
 30
0.000000
  70
    32
  0
VERTEX
  8
0
  5
1103
 10
-7.91991
 20
4.63509
 30
0.000000
  70
    32
  0
VERTEX
  8
0
  5
1104
 10
-7.94278
 20
4.60875
 30
0.000000
  70
    32
  0
VERTEX
  8
0
  5
1105
 10
-7.96551
 20
4.58235
 30
0.000000
  70
    32
  0
VERTEX
  8
0
  5
1106
 10
-7.98810
 20
4.55588
 30
0.000000
  70
    32
  0
VERTEX
  8
0
  5
1107
 10
-8.01056
 20
4.52934
 30
0.000000
  70
    32
  0
VERTEX
  8
0
  5
1108
 10
-8.03288
 20
4.50273
 30
0.000000
  70
    32
  0
VERTEX
  8
0
  5
1109
 10
-8.05507
 20
4.47606
 30
0.000000
  70
    32
  0
VERTEX
  8
0
  5
110A
 10
-8.07712
 20
4.44933
 30
0.000000
  70
    32
  0
VERTEX
  8
0
  5
110B
 10
-8.09903
 20
4.42253
 30
0.000000
  70
    32
  0
VERTEX
  8
0
  5
110C
 10
-8.12081
 20
4.39566
 30
0.000000
  70
    32
  0
VERTEX
  8
0
  5
110D
 10
-8.14244
 20
4.36873
 30
0.000000
  70
    32
  0
VERTEX
  8
0
  5
110E
 10
-8.16394
 20
4.34174
 30
0.000000
  70
    32
  0
VERTEX
  8
0
  5
110F
 10
-8.18530
 20
4.31468
 30
0.000000
  70
    32
  0
VERTEX
  8
0
  5
1110
 10
-8.20653
 20
4.28757
 30
0.000000
  70
    32
  0
VERTEX
  8
0
  5
1111
 10
-8.22761
 20
4.26039
 30
0.000000
  70
    32
  0
VERTEX
  8
0
  5
1112
 10
-8.24856
 20
4.23315
 30
0.000000
  70
    32
  0
VERTEX
  8
0
  5
1113
 10
-8.26937
 20
4.20585
 30
0.000000
  70
    32
  0
VERTEX
  8
0
  5
1114
 10
-8.29004
 20
4.17849
 30
0.000000
  70
    32
  0
VERTEX
  8
0
  5
1115
 10
-8.31057
 20
4.15107
 30
0.000000
  70
    32
  0
VERTEX
  8
0
  5
1116
 10
-8.33096
 20
4.12359
 30
0.000000
  70
    32
  0
VERTEX
  8
0
  5
1117
 10
-8.35121
 20
4.09605
 30
0.000000
  70
    32
  0
VERTEX
  8
0
  5
1118
 10
-8.37133
 20
4.06845
 30
0.000000
  70
    32
  0
VERTEX
  8
0
  5
1119
 10
-8.39130
 20
4.04080
 30
0.000000
  70
    32
  0
VERTEX
  8
0
  5
111A
 10
-8.41113
 20
4.01309
 30
0.000000
  70
    32
  0
VERTEX
  8
0
  5
111B
 10
-8.43082
 20
3.98533
 30
0.000000
  70
    32
  0
VERTEX
  8
0
  5
111C
 10
-8.45037
 20
3.95750
 30
0.000000
  70
    32
  0
VERTEX
  8
0
  5
111D
 10
-8.46978
 20
3.92963
 30
0.000000
  70
    32
  0
SEQEND
  8
0
  5
111E
  0
CIRCLE
  5
413
  8
0
 10
0.0
 20
0.0
 30
0.0
 40
0.875
  0
CIRCLE
  5
414
  8
0
 10
0.0
 20
0.0
 30
0.0
 40
1.375
  0
ATTDEF
  5
416
  8
DEFPOINTS
 10
0.0
 20
-0.005
 30
0.0
 40
0.001
  1
VITREOUS CHINA
  3

  2
MATERIAL
 70
     8
1001
ACDBATTR
1070
     0
1070
     1
  0
ATTDEF
  5
417
  8
DEFPOINTS
 10
0.0
 20
-0.0033333333333333
 30
0.0
 40
0.001
  1
DROP-IN BATHROOM SINK
  3

  2
PRODUCT
 70
     8
1001
ACDBATTR
1070
     0
1070
     1
  0
ATTDEF
  5
418
  8
DEFPOINTS
 10
0.0
 20
-0.0016666666666667
 30
0.0
 40
0.001
  1
TRESHAM
  3

  2
TRADENAME
 70
     8
1001
ACDBATTR
1070
     0
1070
     1
  0
ATTDEF
  5
419
  8
DEFPOINTS
 10
0.0
 20
0.0
 30
0.0
 40
0.001
  1
K-2992
  3

  2
MODELNUMBER
 70
     8
1001
ACDBATTR
1070
     0
1070
     1
  0
ENDSEC
  0
EOF
