  0
SECTION
  2
HEADER
  9
$ACADVER
  1
AC1021
  9
$ACADMAINTVER
 70
    50
  9
$DWGCODEPAGE
  3
ANSI_936
  9
$LASTSAVEDBY
  1
ko37019
  9
$INSBASE
 10
0.0
 20
0.0
 30
0.0
  9
$EXTMIN
 10
70.01889836686517
 20
23.0697468941699
 30
0.0
  9
$EXTMAX
 10
103.369571336266
 20
31.82626960719972
 30
0.0
  9
$LIMMIN
 10
0.0
 20
0.0
  9
$LIMMAX
 10
1200.0
 20
900.0
  9
$ORTHOMODE
 70
     1
  9
$REGENMODE
 70
     1
  9
$FILLMODE
 70
     1
  9
$QTEXTMODE
 70
     0
  9
$MIRRTEXT
 70
     0
  9
$LTSCALE
 40
1.87
  9
$ATTMODE
 70
     1
  9
$TEXTSIZE
 40
0.2
  9
$TRACEWID
 40
0.05
  9
$TEXTSTYLE
  7
STANDARD
  9
$CLAYER
  8
0
  9
$CELTYPE
  6
BYLAYER
  9
$CECOLOR
 62
   256
  9
$CELTSCALE
 40
1.0
  9
$DISPSILH
 70
     0
  9
$DIMSCALE
 40
1.0
  9
$DIMASZ
 40
0.12
  9
$DIMEXO
 40
0.05
  9
$DIMDLI
 40
0.5
  9
$DIMRND
 40
0.0
  9
$DIMDLE
 40
0.0
  9
$DIMEXE
 40
0.1
  9
$DIMTP
 40
0.1
  9
$DIMTM
 40
0.1
  9
$DIMTXT
 40
0.12
  9
$DIMCEN
 40
0.0
  9
$DIMTSZ
 40
0.0
  9
$DIMTOL
 70
     0
  9
$DIMLIM
 70
     0
  9
$DIMTIH
 70
     1
  9
$DIMTOH
 70
     1
  9
$DIMSE1
 70
     0
  9
$DIMSE2
 70
     0
  9
$DIMTAD
 70
     0
  9
$DIMZIN
 70
     7
  9
$DIMBLK
  1

  9
$DIMASO
 70
     1
  9
$DIMSHO
 70
     1
  9
$DIMPOST
  1

  9
$DIMAPOST
  1
mm
  9
$DIMALT
 70
     0
  9
$DIMALTD
 70
     2
  9
$DIMALTF
 40
25.4
  9
$DIMLFAC
 40
1.0
  9
$DIMTOFL
 70
     0
  9
$DIMTVP
 40
0.0
  9
$DIMTIX
 70
     0
  9
$DIMSOXD
 70
     0
  9
$DIMSAH
 70
     0
  9
$DIMBLK1
  1

  9
$DIMBLK2
  1

  9
$DIMSTYLE
  2
AM_ANSI
  9
$DIMCLRD
 70
   256
  9
$DIMCLRE
 70
   256
  9
$DIMCLRT
 70
     2
  9
$DIMTFAC
 40
0.71
  9
$DIMGAP
 40
0.06
  9
$DIMJUST
 70
     0
  9
$DIMSD1
 70
     0
  9
$DIMSD2
 70
     0
  9
$DIMTOLJ
 70
     1
  9
$DIMTZIN
 70
     7
  9
$DIMALTZ
 70
     0
  9
$DIMALTTZ
 70
     0
  9
$DIMUPT
 70
     0
  9
$DIMDEC
 70
     4
  9
$DIMTDEC
 70
     4
  9
$DIMALTU
 70
     2
  9
$DIMALTTD
 70
     4
  9
$DIMTXSTY
  7
STANDARD
  9
$DIMAUNIT
 70
     0
  9
$DIMADEC
 70
     0
  9
$DIMALTRND
 40
0.0
  9
$DIMAZIN
 70
     2
  9
$DIMDSEP
 70
    46
  9
$DIMATFIT
 70
     3
  9
$DIMFRAC
 70
     0
  9
$DIMLDRBLK
  1

  9
$DIMLUNIT
 70
     2
  9
$DIMLWD
 70
    -1
  9
$DIMLWE
 70
    -1
  9
$DIMTMOVE
 70
     0
  9
$DIMFXL
 40
1.0
  9
$DIMFXLON
 70
     0
  9
$DIMJOGANG
 40
0.7853981633974483
  9
$DIMTFILL
 70
     0
  9
$DIMTFILLCLR
 70
     0
  9
$DIMARCSYM
 70
     1
  9
$DIMLTYPE
  6
BYBLOCK
  9
$DIMLTEX1
  6
BYBLOCK
  9
$DIMLTEX2
  6
BYBLOCK
  9
$LUNITS
 70
     2
  9
$LUPREC
 70
     4
  9
$SKETCHINC
 40
0.1
  9
$FILLETRAD
 40
0.0
  9
$AUNITS
 70
     0
  9
$AUPREC
 70
     0
  9
$MENU
  1
.
  9
$ELEVATION
 40
0.0
  9
$PELEVATION
 40
0.0
  9
$THICKNESS
 40
0.0
  9
$LIMCHECK
 70
     0
  9
$CHAMFERA
 40
0.0
  9
$CHAMFERB
 40
0.0
  9
$CHAMFERC
 40
0.0
  9
$CHAMFERD
 40
0.0
  9
$SKPOLY
 70
     0
  9
$TDCREATE
 40
2455755.353018519
  9
$TDUCREATE
 40
2455755.019685185
  9
$TDUPDATE
 40
2455755.378074178
  9
$TDUUPDATE
 40
2455755.044740845
  9
$TDINDWG
 40
0.0188600000
  9
$TDUSRTIMER
 40
0.0188600000
  9
$USRTIMER
 70
     1
  9
$ANGBASE
 50
0.0
  9
$ANGDIR
 70
     0
  9
$PDMODE
 70
     3
  9
$PDSIZE
 40
0.3125
  9
$PLINEWID
 40
0.0
  9
$SPLFRAME
 70
     0
  9
$SPLINETYPE
 70
     6
  9
$SPLINESEGS
 70
     8
  9
$HANDSEED
  5
2C56
  9
$SURFTAB1
 70
     6
  9
$SURFTAB2
 70
     6
  9
$SURFTYPE
 70
     6
  9
$SURFU
 70
     6
  9
$SURFV
 70
     6
  9
$UCSBASE
  2

  9
$UCSNAME
  2

  9
$UCSORG
 10
0.0
 20
0.0
 30
0.0
  9
$UCSXDIR
 10
1.0
 20
0.0
 30
0.0
  9
$UCSYDIR
 10
0.0
 20
1.0
 30
0.0
  9
$UCSORTHOREF
  2

  9
$UCSORTHOVIEW
 70
     0
  9
$UCSORGTOP
 10
0.0
 20
0.0
 30
0.0
  9
$UCSORGBOTTOM
 10
0.0
 20
0.0
 30
0.0
  9
$UCSORGLEFT
 10
0.0
 20
0.0
 30
0.0
  9
$UCSORGRIGHT
 10
0.0
 20
0.0
 30
0.0
  9
$UCSORGFRONT
 10
0.0
 20
0.0
 30
0.0
  9
$UCSORGBACK
 10
0.0
 20
0.0
 30
0.0
  9
$PUCSBASE
  2

  9
$PUCSNAME
  2

  9
$PUCSORG
 10
0.0
 20
0.0
 30
0.0
  9
$PUCSXDIR
 10
1.0
 20
0.0
 30
0.0
  9
$PUCSYDIR
 10
0.0
 20
1.0
 30
0.0
  9
$PUCSORTHOREF
  2

  9
$PUCSORTHOVIEW
 70
     0
  9
$PUCSORGTOP
 10
0.0
 20
0.0
 30
0.0
  9
$PUCSORGBOTTOM
 10
0.0
 20
0.0
 30
0.0
  9
$PUCSORGLEFT
 10
0.0
 20
0.0
 30
0.0
  9
$PUCSORGRIGHT
 10
0.0
 20
0.0
 30
0.0
  9
$PUCSORGFRONT
 10
0.0
 20
0.0
 30
0.0
  9
$PUCSORGBACK
 10
0.0
 20
0.0
 30
0.0
  9
$USERI1
 70
     0
  9
$USERI2
 70
     0
  9
$USERI3
 70
     0
  9
$USERI4
 70
     0
  9
$USERI5
 70
     0
  9
$USERR1
 40
0.0
  9
$USERR2
 40
0.0
  9
$USERR3
 40
0.0
  9
$USERR4
 40
0.0
  9
$USERR5
 40
0.0
  9
$WORLDVIEW
 70
     1
  9
$SHADEDGE
 70
     3
  9
$SHADEDIF
 70
    70
  9
$TILEMODE
 70
     1
  9
$MAXACTVP
 70
    64
  9
$PINSBASE
 10
0.0
 20
0.0
 30
0.0
  9
$PLIMCHECK
 70
     0
  9
$PEXTMIN
 10
1.000000000000000E+20
 20
1.000000000000000E+20
 30
1.000000000000000E+20
  9
$PEXTMAX
 10
-1.000000000000000E+20
 20
-1.000000000000000E+20
 30
-1.000000000000000E+20
  9
$PLIMMIN
 10
0.0
 20
0.0
  9
$PLIMMAX
 10
12.0
 20
9.0
  9
$UNITMODE
 70
     0
  9
$VISRETAIN
 70
     1
  9
$PLINEGEN
 70
     0
  9
$PSLTSCALE
 70
     1
  9
$TREEDEPTH
 70
  3020
  9
$CMLSTYLE
  2
Standard
  9
$CMLJUST
 70
     0
  9
$CMLSCALE
 40
1.0
  9
$PROXYGRAPHICS
 70
     1
  9
$MEASUREMENT
 70
     0
  9
$CELWEIGHT
370
    -1
  9
$ENDCAPS
280
     0
  9
$JOINSTYLE
280
     0
  9
$LWDISPLAY
290
     0
  9
$INSUNITS
 70
     1
  9
$HYPERLINKBASE
  1

  9
$STYLESHEET
  1

  9
$XEDIT
290
     1
  9
$CEPSNTYPE
380
     0
  9
$PSTYLEMODE
290
     1
  9
$FINGERPRINTGUID
  2
{BD14EF79-AAE6-4867-BCE5-96FEE40E8C2A}
  9
$VERSIONGUID
  2
{E23F3402-28FE-4438-A11A-5EC7D743824E}
  9
$EXTNAMES
290
     1
  9
$PSVPSCALE
 40
0.0
  9
$OLESTARTUP
290
     0
  9
$SORTENTS
280
   127
  9
$INDEXCTL
280
     0
  9
$HIDETEXT
280
     1
  9
$XCLIPFRAME
290
     0
  9
$HALOGAP
280
     0
  9
$OBSCOLOR
 70
   257
  9
$OBSLTYPE
280
     0
  9
$INTERSECTIONDISPLAY
280
     0
  9
$INTERSECTIONCOLOR
 70
   257
  9
$DIMASSOC
280
     2
  9
$PROJECTNAME
  1

  9
$CAMERADISPLAY
290
     0
  9
$LENSLENGTH
 40
50.0
  9
$CAMERAHEIGHT
 40
0.0
  9
$STEPSPERSEC
 40
2.0
  9
$STEPSIZE
 40
6.0
  9
$3DDWFPREC
 40
2.0
  9
$PSOLWIDTH
 40
0.25
  9
$PSOLHEIGHT
 40
4.0
  9
$LOFTANG1
 40
1.570796326794896
  9
$LOFTANG2
 40
1.570796326794896
  9
$LOFTMAG1
 40
0.0
  9
$LOFTMAG2
 40
0.0
  9
$LOFTPARAM
 70
     7
  9
$LOFTNORMALS
280
     1
  9
$LATITUDE
 40
37.795
  9
$LONGITUDE
 40
-122.394
  9
$NORTHDIRECTION
 40
0.0
  9
$TIMEZONE
 70
 -8000
  9
$LIGHTGLYPHDISPLAY
280
     1
  9
$TILEMODELIGHTSYNCH
280
     1
  9
$CMATERIAL
347
CDE
  9
$SOLIDHIST
280
     1
  9
$SHOWHIST
280
     1
  9
$DWFFRAME
280
     2
  9
$DGNFRAME
280
     0
  9
$REALWORLDSCALE
290
     1
  9
$INTERFERECOLOR
 62
     1
  9
$INTERFEREOBJVS
345
D00
  9
$INTERFEREVPVS
346
CFD
  9
$CSHADOW
280
     0
  9
$SHADOWPLANELOCATION
 40
0.0
  0
ENDSEC
  0
SECTION
  2
CLASSES
  0
CLASS
  1
ACDBDICTIONARYWDFLT
  2
AcDbDictionaryWithDefault
  3
ObjectDBX Classes
 90
        0
 91
        1
280
     0
281
     0
  0
CLASS
  1
TABLESTYLE
  2
AcDbTableStyle
  3
ObjectDBX Classes
 90
     4095
 91
        1
280
     0
281
     0
  0
CLASS
  1
ACAD_TABLE
  2
AcDbTable
  3
ObjectDBX Classes
 90
     1025
 91
        0
280
     0
281
     1
  0
CLASS
  1
MATERIAL
  2
AcDbMaterial
  3
ObjectDBX Classes
 90
     1153
 91
        3
280
     0
281
     0
  0
CLASS
  1
VISUALSTYLE
  2
AcDbVisualStyle
  3
ObjectDBX Classes
 90
     4095
 91
       16
280
     0
281
     0
  0
CLASS
  1
SCALE
  2
AcDbScale
  3
ObjectDBX Classes
 90
     1153
 91
       33
280
     0
281
     0
  0
CLASS
  1
MLEADERSTYLE
  2
AcDbMLeaderStyle
  3
ACDB_MLEADERSTYLE_CLASS
 90
     4095
 91
        1
280
     0
281
     0
  0
CLASS
  1
TABLECONTENT
  2
AcDbTableContent
  3
ObjectDBX Classes
 90
     1152
 91
        0
280
     0
281
     0
  0
CLASS
  1
TABLEGEOMETRY
  2
AcDbTableGeometry
  3
ObjectDBX Classes
 90
     1152
 91
        0
280
     0
281
     0
  0
CLASS
  1
CELLSTYLEMAP
  2
AcDbCellStyleMap
  3
ObjectDBX Classes
 90
     1152
 91
        6
280
     0
281
     0
  0
CLASS
  1
DICTIONARYVAR
  2
AcDbDictionaryVar
  3
ObjectDBX Classes
 90
        0
 91
        5
280
     0
281
     0
  0
CLASS
  1
ACME_DOCUMENT
  2
AcMeDbDoc
  3
AcMeServices
 90
     1024
 91
        2
280
     0
281
     0
  0
CLASS
  1
AMGSETTINGSOBJ
  2
AmgSettingsObj
  3
"AcadM|Product Description: AutoCAD Mechanical|Company: Autodesk, Inc."
 90
     1024
 91
        2
280
     0
281
     0
  0
CLASS
  1
ACMESCOPE
  2
AcMeScope
  3
AcMeServices
 90
     1024
 91
        1
280
     0
281
     0
  0
CLASS
  1
ACMECOMMANDHISTORY
  2
AcMeCommandHistory
  3
AcMeServices
 90
     1024
 91
        1
280
     0
281
     0
  0
CLASS
  1
ACIMSYSVARMAN
  2
AcImSysVarManager
  3
AcMeServices
 90
     1024
 91
        5
280
     0
281
     0
  0
CLASS
  1
ACIMINTSYSVAR
  2
AcImIntSysVar
  3
AcMeServices
 90
     1024
 91
       52
280
     0
281
     0
  0
CLASS
  1
ACMEDRAWINGMAN
  2
AcMeDrawingMan
  3
AcMeServices
 90
     1024
 91
        1
280
     0
281
     0
  0
CLASS
  1
ACMEVIEW
  2
AcMeView
  3
AcMeServices
 90
     1024
 91
        1
280
     0
281
     0
  0
CLASS
  1
ACDBENTITYCACHE
  2
AcMeEntityCache
  3
AcMeServices
 90
     1024
 91
        1
280
     0
281
     0
  0
CLASS
  1
GSMANAGER
  2
AcMeGSManager
  3
AcMeServices
 90
     1024
 91
        1
280
     0
281
     0
  0
CLASS
  1
AMDTINTERNALREACTOR
  2
AmdtInternalReactor
  3
AcMeServices
 90
     1024
 91
        2
280
     0
281
     0
  0
CLASS
  1
ACMESTATEMGR
  2
AcMeStateMgr
  3
AcMeServices
 90
     1024
 91
        1
280
     0
281
     0
  0
CLASS
  1
ACGREFMASTER
  2
AcGrefMaster
  3
AcAttribServices
 90
     1024
 91
        1
280
     0
281
     0
  0
CLASS
  1
AM_DRAWING_MGR
  2
AcDmDwgMgr
  3
AcMechDwgViewMgmt
 90
     1024
 91
        1
280
     0
281
     0
  0
CLASS
  1
AM_DWG_DOCUMENT
  2
AcDmDwgDocument
  3
AcMechDwgViewMgmt
 90
     1024
 91
        1
280
     0
281
     0
  0
CLASS
  1
AM_DWG_SHEET
  2
AcDmSheet
  3
AcMechDwgViewMgmt
 90
     1024
 91
        1
280
     0
281
     0
  0
CLASS
  1
AM_VIEWDIMPARMAP
  2
AcDmViewDimParMap
  3
AcMechDwgViewMgmt
 90
     1024
 91
        1
280
     0
281
     0
  0
CLASS
  1
ACIMREALSYSVAR
  2
AcImRealSysVar
  3
AcMeServices
 90
     1024
 91
        2
280
     0
281
     0
  0
CLASS
  1
AM_DWGMGR_NAME
  2
AcDmDwgMgrName
  3
AcMechDwgViewMgmt
 90
     1024
 91
        1
280
     0
281
     0
  0
CLASS
  1
ACME_DATABASE
  2
AcMeDbDatabase
  3
AcMeServices
 90
     1024
 91
        2
280
     0
281
     0
  0
CLASS
  1
ACRFINSADJUSTERMGR
  2
AcRfInsAdjusterMgr
  3
AcMeServices
 90
     1024
 91
        1
280
     0
281
     0
  0
CLASS
  1
ACGREFACADMASTER
  2
AcGrefacadMaster
  3
AcGrefServices
 90
     1024
 91
        1
280
     0
281
     0
  0
CLASS
  1
AMDTMENUSTATEMGR
  2
AmdtMenuStateMgr
  3
McadcomServices
 90
     1024
 91
        1
280
     0
281
     0
  0
CLASS
  1
AMDTMCOMMENUSTATE
  2
AmdtMcomMenuState
  3
McadcomServices
 90
     1024
 91
        1
280
     0
281
     0
  0
CLASS
  1
AMIMASTER
  2
AmiMaster
  3
AmiServices
 90
     1024
 91
        1
280
     0
281
     0
  0
CLASS
  1
MAPIAMMOUDLE
  2
MApiAmModule
  3
MApiAmServices
 90
     1024
 91
        1
280
     0
281
     0
  0
CLASS
  1
ACIMSTRSYSVAR
  2
AcImStrSysVar
  3
AcMeServices
 90
     1024
 91
        5
280
     0
281
     0
  0
CLASS
  1
AMDTADMENUSTATE
  2
AmdtAdMenuState
  3
DesignerServices
 90
     1024
 91
        1
280
     0
281
     0
  0
CLASS
  1
ADAPPL
  2
AcAdAppl
  3
DesignerServices
 90
     1024
 91
        1
280
     0
281
     0
  0
CLASS
  1
DEPMGR
  2
AcAdDepMgr
  3
DesignerServices
 90
     1024
 91
        1
280
     0
281
     0
  0
CLASS
  1
PARAMMGR
  2
AcAdParamMgr
  3
DesignerServices
 90
     1024
 91
        1
280
     0
281
     0
  0
CLASS
  1
PARAMSCOPE
  2
AcAdParamScope
  3
DesignerServices
 90
     1024
 91
        1
280
     0
281
     0
  0
CLASS
  1
NAMEDAPPL
  2
AcAdNamedAppl
  3
DesignerServices
 90
     1024
 91
        1
280
     0
281
     0
  0
CLASS
  1
AMDTDMMENUSTATE
  2
AmdtDmMenuState
  3
AcMechDwgViewMgmt
 90
     1024
 91
        1
280
     0
281
     0
  0
CLASS
  1
AMDTAMMENUSTATE
  2
AmdtAmMenuState
  3
DesignerAssemblies
 90
     1024
 91
        1
280
     0
281
     0
  0
CLASS
  1
ACAMPROJECT
  2
AcAmProject
  3
DesignerAssemblies
 90
     1024
 91
        1
280
     0
281
     0
  0
CLASS
  1
ACAMGRCOMPDEF
  2
AcAmGrCompDef
  3
DesignerAssemblies
 90
     1024
 91
        1
280
     0
281
     0
  0
CLASS
  1
ACCMCONTEXT
  2
AcCmContext
  3
DesignerAssemblies
 90
     1024
 91
        1
280
     0
281
     0
  0
CLASS
  1
ACAMCOMPDEF
  2
AcAmCompDef
  3
DesignerAssemblies
 90
     1024
 91
        1
280
     0
281
     0
  0
CLASS
  1
ACAMCOMPDEFMGR
  2
AcAmCompDefMgr
  3
DesignerAssemblies
 90
     1024
 91
        1
280
     0
281
     0
  0
CLASS
  1
AMCONTEXTMGR
  2
AcAmContextMgr
  3
DesignerAssemblies
 90
     1024
 91
        1
280
     0
281
     0
  0
CLASS
  1
ACAMCONTEXTMODELER
  2
AcAmContextModeler
  3
DesignerAssemblies
 90
     1024
 91
        1
280
     0
281
     0
  0
CLASS
  1
ACMDATADICTIONARY
  2
AcmDataDictionary
  3
"AcmSymBB|Product Description: AutoCAD Mechanical|Company: Autodesk, Inc."
 90
     1024
 91
        1
280
     0
281
     0
  0
CLASS
  1
CATALOGSTATE
  2
AcAmCatalogState
  3
DesignerAssemblies
 90
     1024
 91
        1
280
     0
281
     0
  0
CLASS
  1
ACAMGRCOMPDEFSET
  2
AcAmGrCompDefSet
  3
DesignerAssemblies
 90
     1024
 91
        1
280
     0
281
     0
  0
CLASS
  1
AMDTBROWSERDBTAB
  2
AmdtBrowserDbTab
  3
McadcomServices
 90
     1024
 91
        1
280
     0
281
     0
  0
CLASS
  1
CBROWSERAPPOBJECT
  2
CBrowserAppObject
  3
McadcomServices
 90
     1024
 91
        3
280
     0
281
     0
  0
CLASS
  1
DM_PLACEHOLDER
  2
AcDmSelsetPlaceholder
  3
AcMechDwgViewMgmt
 90
     1024
 91
        1
280
     0
281
     0
  0
CLASS
  1
EXACXREFPANELOBJECT
  2
ExAcXREFPanelObject
  3
EXAC_ESW
 90
     1025
 91
        1
280
     0
281
     0
  0
CLASS
  1
NPOCOLLECTION
  2
AcDbImpNonPersistentObjectsCollection
  3
ObjectDBX Classes
 90
     1153
 91
        1
280
     0
281
     0
  0
CLASS
  1
ACMSTANDARDANSI
  2
AcmStandardANSI
  3
"Amdt_StdImp|Product Description: AutoCAD Mechanical|Company: Autodesk, Inc."
 90
     1024
 91
        1
280
     0
281
     0
  0
CLASS
  1
ACMSURFSTANDARDANSI
  2
AcmSurfTextStdANSI
  3
"Amdt_StdImp|Product Description: AutoCAD Mechanical|Company: Autodesk, Inc."
 90
     1024
 91
        1
280
     0
281
     0
  0
CLASS
  1
ACMFCFSTANDARDANSI
  2
AcmFCFStdANSI
  3
"Amdt_StdImp|Product Description: AutoCAD Mechanical|Company: Autodesk, Inc."
 90
     1024
 91
        1
280
     0
281
     0
  0
CLASS
  1
ACMWELDSTANDARDANSI
  2
AcmWeldingStdANSI
  3
"Amdt_StdImp|Product Description: AutoCAD Mechanical|Company: Autodesk, Inc."
 90
     1024
 91
        1
280
     0
281
     0
  0
CLASS
  1
ACMIDSTANDARDANSI
  2
AcmIdStdANSI
  3
"Amdt_StdImp|Product Description: AutoCAD Mechanical|Company: Autodesk, Inc."
 90
     1024
 91
        1
280
     0
281
     0
  0
CLASS
  1
ACMDATUMSTANDARDANSI
  2
AcmDatumStdANSI
  3
"Amdt_StdImp|Product Description: AutoCAD Mechanical|Company: Autodesk, Inc."
 90
     1024
 91
        1
280
     0
281
     0
  0
CLASS
  1
ACMBOMSTANDARDANSI
  2
AcmBOMStdANSI
  3
"Amdt_StdImp|Product Description: AutoCAD Mechanical|Company: Autodesk, Inc."
 90
     1024
 91
        1
280
     0
281
     0
  0
CLASS
  1
ACMDETAILSTANDARDANSI
  2
AmdtDetailSymStdANSI
  3
"Amdt_StdImp|Product Description: AutoCAD Mechanical|Company: Autodesk, Inc."
 90
     1024
 91
        1
280
     0
281
     0
  0
CLASS
  1
ACMSECTIONSTANDARDANSI
  2
AmdtSectionSymStdANSI
  3
"Amdt_StdImp|Product Description: AutoCAD Mechanical|Company: Autodesk, Inc."
 90
     1024
 91
        1
280
     0
281
     0
  0
CLASS
  1
ACMCENTERLINESTANDARDANSI
  2
AmdtCenterLineStdANSI
  3
"Amdt_StdImp|Product Description: AutoCAD Mechanical|Company: Autodesk, Inc."
 90
     1024
 91
        1
280
     0
281
     0
  0
CLASS
  1
ACMTHREADLINESTANDARDANSI
  2
AmdtThreadLineStdANSI
  3
"Amdt_StdImp|Product Description: AutoCAD Mechanical|Company: Autodesk, Inc."
 90
     1024
 91
        1
280
     0
281
     0
  0
CLASS
  1
ACMNOTESTANDARDANSI
  2
AmdtNoteStdANSI
  3
"Amdt_StdImp|Product Description: AutoCAD Mechanical|Company: Autodesk, Inc."
 90
     1024
 91
        1
280
     0
281
     0
  0
CLASS
  1
ACMTAPERSTANDARDANSI
  2
AcmTaperStdANSI
  3
"Amdt_StdImp|Product Description: AutoCAD Mechanical|Company: Autodesk, Inc."
 90
     1024
 91
        1
280
     0
281
     0
  0
CLASS
  1
ACMANOOTATIONVIEWSTANDARDANSI
  2
AmdtAnViewStdANSI
  3
"Amdt_StdImp|Product Description: AutoCAD Mechanical|Company: Autodesk, Inc."
 90
     1024
 91
        1
280
     0
281
     0
  0
CLASS
  1
ACAMGLAYSTD
  2
AcAmgLayStd
  3
"AmgLay|Product Description: AutoCAD Mechanical|Company: Autodesk, Inc."
 90
     1024
 91
        1
280
     0
281
     0
  0
CLASS
  1
ACAMGDIMSTD
  2
AcAmgDimStd
  3
"AmgDim|Product Description: AutoCAD Mechanical|Company: Autodesk, Inc."
 90
     1024
 91
        1
280
     0
281
     0
  0
CLASS
  1
AMGOBJPROPCFG
  2
AmgObjPropCfg
  3
"AmgLay|Product Description: AutoCAD Mechanical|Company: Autodesk, Inc."
 90
     1025
 91
        1
280
     0
281
     0
  0
CLASS
  1
ACAMGHOLECHARTSTDANSI
  2
AcAmgHoleChartStdANSI
  3
AmgDim|Product Description: AutoCAD Mechanical|Company: Autodesk, Inc.
 90
     1024
 91
        1
280
     0
281
     0
  0
CLASS
  1
ACAMGTITLESTD
  2
AcAmgTitleStd
  3
"AmgTitle|Product Description: AutoCAD Mechanical|Company: Autodesk, Inc."
 90
     4095
 91
        1
280
     0
281
     0
  0
CLASS
  1
AMDTNOTETEMPLATEDB
  2
AmdtNoteTemplateDB
  3
AcmSymBB|Product Description: AutoCAD Mechanical|Company: Autodesk, Inc.
 90
     1024
 91
        6
280
     0
281
     0
  0
CLASS
  1
CAMSSTRUCTBTNSTATE
  2
StructBtnState
  3
DesignerAssemblies
 90
     1024
 91
        1
280
     0
281
     0
  0
CLASS
  1
ACAMGFILTERDAT
  2
AcAmgFilterDat
  3
"AcadM|Product Description: AutoCAD Mechanical|Company: Autodesk, Inc."
 90
     1024
 91
        6
280
     0
281
     0
  0
CLASS
  1
SORTENTSTABLE
  2
AcDbSortentsTable
  3
ObjectDBX Classes
 90
        0
 91
        1
280
     0
281
     0
  0
ENDSEC
  0
SECTION
  2
TABLES
  0
TABLE
  2
VPORT
  5
8
330
0
100
AcDbSymbolTable
 70
     1
  0
VPORT
  5
1F4
330
8
100
AcDbSymbolTableRecord
100
AcDbViewportTableRecord
  2
*ACTIVE
 70
     0
 10
0.0
 20
0.0
 11
1.0
 21
1.0
 12
90.817633887861
 22
31.48264506252922
 13
0.0
 23
0.0
 14
1.0
 24
1.0
 15
0.0
 25
0.0
 16
0.0
 26
0.0
 36
1.0
 17
0.0
 27
0.0
 37
0.0
 40
55.32399302070992
 41
1.379629629629629
 42
50.0
 43
0.0
 44
0.0
 50
0.0
 51
0.0
 71
     0
 72
   100
 73
     1
 74
     1
 75
     0
 76
     0
 77
     0
 78
     0
281
     0
 65
     1
110
0.0
120
0.0
130
0.0
111
1.0
121
0.0
131
0.0
112
0.0
122
1.0
132
0.0
 79
     0
146
0.0
348
CFC
 60
     3
 61
     5
292
     1
282
     1
141
0.0
142
0.0
 63
   250
421
  3355443
  0
ENDTAB
  0
TABLE
  2
LTYPE
  5
5
330
0
100
AcDbSymbolTable
 70
    12
  0
LTYPE
  5
14
330
5
100
AcDbSymbolTableRecord
100
AcDbLinetypeTableRecord
  2
BYBLOCK
 70
     0
  3

 72
    65
 73
     0
 40
0.0
  0
LTYPE
  5
15
330
5
100
AcDbSymbolTableRecord
100
AcDbLinetypeTableRecord
  2
BYLAYER
 70
     0
  3

 72
    65
 73
     0
 40
0.0
  0
LTYPE
  5
16
330
5
100
AcDbSymbolTableRecord
100
AcDbLinetypeTableRecord
  2
CONTINUOUS
 70
     0
  3
Solid line
 72
    65
 73
     0
 40
0.0
  0
LTYPE
  5
1F5
330
5
100
AcDbSymbolTableRecord
100
AcDbLinetypeTableRecord
  2
CENTER
 70
     0
  3
____ _ ____ _ ____ _ ____ _ ____ _ ____ _ ____
 72
    65
 73
     4
 40
0.6
 49
0.375
 74
     0
 49
-0.075
 74
     0
 49
0.075
 74
     0
 49
-0.075
 74
     0
  0
LTYPE
  5
1F6
330
5
100
AcDbSymbolTableRecord
100
AcDbLinetypeTableRecord
  2
HIDDEN
 70
     0
  3
- - - - - - - - - - - - - - - - - - - -
 72
    65
 73
     2
 40
0.2
 49
0.1
 74
     0
 49
-0.1
 74
     0
  0
LTYPE
  5
1F7
330
5
100
AcDbSymbolTableRecord
100
AcDbLinetypeTableRecord
  2
PHANTOM
 70
     0
  3
_____ _ _ _____ _ _ _____ _ _ _____
 72
    65
 73
     6
 40
0.8
 49
0.45
 74
     0
 49
-0.05
 74
     0
 49
0.1
 74
     0
 49
-0.05
 74
     0
 49
0.1
 74
     0
 49
-0.05
 74
     0
  0
LTYPE
  5
D76
330
5
100
AcDbSymbolTableRecord
100
AcDbLinetypeTableRecord
  2
PHANTOM2
 70
     0
  3
Phantom (.5x) ___ _ _ ___ _ _ ___ _ _ ___ _ _
 72
    65
 73
     6
 40
1.25
 49
0.625
 74
     0
 49
-0.125
 74
     0
 49
0.125
 74
     0
 49
-0.125
 74
     0
 49
0.125
 74
     0
 49
-0.125
 74
     0
  0
LTYPE
  5
DC0
330
5
100
AcDbSymbolTableRecord
100
AcDbLinetypeTableRecord
  2
Amconstr
 70
     0
  3
_______________________
 72
    65
 73
     2
 40
9999.0
 49
9999.0
 74
     0
 49
0.0
 74
     0
  0
LTYPE
  5
DC6
330
5
100
AcDbSymbolTableRecord
100
AcDbLinetypeTableRecord
  2
CENTER2
 70
     0
  3
Center (.5x) ___ _ ___ _ ___ _ ___ _ ___ _ ___
 72
    65
 73
     4
 40
1.125
 49
0.75
 74
     0
 49
-0.125
 74
     0
 49
0.125
 74
     0
 49
-0.125
 74
     0
  0
LTYPE
  5
DC7
330
5
100
AcDbSymbolTableRecord
100
AcDbLinetypeTableRecord
  2
HIDDEN2
 70
     0
  3
Hidden (.5x) _ _ _ _ _ _ _ _ _ _ _ _ _ _ _ _ _
 72
    65
 73
     2
 40
0.1875
 49
0.125
 74
     0
 49
-0.0625
 74
     0
  0
LTYPE
  5
DC8
330
5
100
AcDbSymbolTableRecord
100
AcDbLinetypeTableRecord
  2
Amzigzag2
 70
     0
  3
/\/-/\/-/\/-/\/-/\/-/\/
 72
    65
 73
     2
 40
0.4401
 49
0.0001
 74
     4
 75
   136
340
DC4
 46
0.0016
 50
0.0
 44
0.0
 45
0.0
 49
-0.4400000000000001
 74
     0
  0
LTYPE
  5
DD6
330
5
100
AcDbSymbolTableRecord
100
AcDbLinetypeTableRecord
  2
ACANSTGB
 70
     0
  3
__ . . __ . .
 72
    65
 73
     6
 40
0.35433070866
 49
0.15748031496
 74
     0
 49
-0.03937007874
 74
     0
 49
0.03937007874
 74
     0
 49
-0.03937007874
 74
     0
 49
0.03937007874
 74
     0
 49
-0.03937007874
 74
     0
  0
LTYPE
  5
DD7
330
5
100
AcDbSymbolTableRecord
100
AcDbLinetypeTableRecord
  2
ACANSTGL
 70
     0
  3
_ _ _ _ _
 72
    65
 73
     2
 40
0.11811023622
 49
0.07874015748
 74
     0
 49
-0.03937007874
 74
     0
  0
ENDTAB
  0
TABLE
  2
LAYER
  5
2
330
0
100
AcDbSymbolTable
 70
     3
  0
LAYER
  5
10
102
{ACAD_XDICTIONARY
360
DDE
102
}
330
2
100
AcDbSymbolTableRecord
100
AcDbLayerTableRecord
  2
0
 70
     0
 62
     7
  6
CONTINUOUS
370
    -3
390
F
347
CEE
  0
LAYER
  5
209
102
{ACAD_XDICTIONARY
360
DFE
102
}
330
2
100
AcDbSymbolTableRecord
100
AcDbLayerTableRecord
  2
___COSMETIC_SKETCH
 70
     0
 62
     7
  6
CONTINUOUS
370
    -3
390
F
347
CEE
  0
LAYER
  5
18FF
330
2
100
AcDbSymbolTableRecord
100
AcDbLayerTableRecord
  2
Defpoints
 70
     0
 62
     7
  6
CONTINUOUS
290
     0
370
    -3
390
F
347
CEE
  0
ENDTAB
  0
TABLE
  2
STYLE
  5
3
330
0
100
AcDbSymbolTable
 70
     3
  0
STYLE
  5
11
330
3
100
AcDbSymbolTableRecord
100
AcDbTextStyleTableRecord
  2
STANDARD
 70
     0
 40
0.0
 41
0.8
 50
0.0
 71
     0
 42
0.2
  3
txt
  4

  0
STYLE
  5
DC4
330
3
100
AcDbSymbolTableRecord
100
AcDbTextStyleTableRecord
  2

 70
     1
 40
0.0
 41
1.0
 50
0.0
 71
     0
 42
0.2
  3
genltshp.shx
  4

  0
STYLE
  5
DD5
330
3
100
AcDbSymbolTableRecord
100
AcDbTextStyleTableRecord
  2
ACANSGDT
 70
     0
 40
0.0
 41
1.0
 50
0.0
 71
     0
 42
0.2
  3
amgdt.shx
  4

  0
ENDTAB
  0
TABLE
  2
VIEW
  5
6
330
0
100
AcDbSymbolTable
 70
     0
  0
ENDTAB
  0
TABLE
  2
UCS
  5
7
330
0
100
AcDbSymbolTable
 70
     0
  0
ENDTAB
  0
TABLE
  2
APPID
  5
9
330
0
100
AcDbSymbolTable
 70
    10
  0
APPID
  5
21F
330
9
100
AcDbSymbolTableRecord
100
AcDbRegAppTableRecord
  2
ACAD
 70
     0
  0
APPID
  5
D2C
330
9
100
AcDbSymbolTableRecord
100
AcDbRegAppTableRecord
  2
ACAD_MLEADERVER
 70
     0
  0
APPID
  5
D49
330
9
100
AcDbSymbolTableRecord
100
AcDbRegAppTableRecord
  2
MCAD_NO_VIS
 70
     0
  0
APPID
  5
D4A
330
9
100
AcDbSymbolTableRecord
100
AcDbRegAppTableRecord
  2
ACAD_TEMP_GRAPHIC
 70
     0
  0
APPID
  5
D78
330
9
100
AcDbSymbolTableRecord
100
AcDbRegAppTableRecord
  2
AD_DRAW
 70
     0
  0
APPID
  5
D7B
330
9
100
AcDbSymbolTableRecord
100
AcDbRegAppTableRecord
  2
ACATTRIBSERVICES
 70
     0
  0
APPID
  5
D9C
330
9
100
AcDbSymbolTableRecord
100
AcDbRegAppTableRecord
  2
DESIGNERASSEMBLIES
 70
     0
  0
APPID
  5
DA2
330
9
100
AcDbSymbolTableRecord
100
AcDbRegAppTableRecord
  2
ACADM_DIM_EDIT
 70
     0
  0
APPID
  5
DA3
330
9
100
AcDbSymbolTableRecord
100
AcDbRegAppTableRecord
  2
AMDT_DM_ADJ
 70
     0
  0
APPID
  5
2843
330
9
100
AcDbSymbolTableRecord
100
AcDbRegAppTableRecord
  2
ACAD_EXEMPT_FROM_CAD_STANDARDS
 70
     0
  0
ENDTAB
  0
TABLE
  2
DIMSTYLE
  5
A
330
0
100
AcDbSymbolTable
 70
     8
100
AcDbDimStyleTable
 71
     1
340
DBB
  0
DIMSTYLE
105
230
330
A
100
AcDbSymbolTableRecord
100
AcDbDimStyleTableRecord
  2
STANDARD
 70
     0
 41
0.1875
 47
0.01
 48
0.01
 71
     1
 78
     4
140
0.15625
271
     3
272
     3
284
     4
340
11
341
222
342
222
343
222
344
222
  0
DIMSTYLE
105
DBB
102
{ACAD_REACTORS
330
DAB
102
}
330
A
100
AcDbSymbolTableRecord
100
AcDbDimStyleTableRecord
  2
AM_ANSI
 70
     0
  4
mm
 41
0.12
 42
0.05
 43
0.5
 44
0.1
 47
0.1
 48
0.1
 78
     7
 79
     2
 90
     1
140
0.12
141
0.0
146
0.71
147
0.06
176
   256
177
   256
178
     2
274
     4
284
     7
340
11
345
14
346
14
347
14
371
    -1
372
    -1
  0
DIMSTYLE
105
DC9
330
A
100
AcDbSymbolTableRecord
100
AcDbDimStyleTableRecord
  2
AM_ANSI$3
 70
     0
  4
mm
 41
0.12
 42
0.05
 43
0.5
 44
0.1
 47
0.1
 48
0.1
 78
     7
 79
     2
 90
     1
140
0.12
141
0.0
146
0.71
147
0.06
176
   256
177
   256
178
     2
274
     4
284
     7
288
     1
289
     0
340
11
345
14
346
14
347
14
371
    -1
372
    -1
  0
DIMSTYLE
105
DCA
330
A
100
AcDbSymbolTableRecord
100
AcDbDimStyleTableRecord
  2
AM_ANSI$4
 70
     0
  4
mm
 41
0.12
 42
0.05
 43
0.5
 44
0.1
 47
0.1
 48
0.1
 78
     7
 79
     2
 90
     1
140
0.12
141
0.0
146
0.71
147
0.06
176
   256
177
   256
178
     2
274
     4
284
     7
340
11
345
14
346
14
347
14
371
    -1
372
    -1
  0
DIMSTYLE
105
DCB
330
A
100
AcDbSymbolTableRecord
100
AcDbDimStyleTableRecord
  2
AM_ANSI$7
 70
     0
  4
mm
 41
0.12
 42
0.05
 43
0.5
 44
0.1
 47
0.1
 48
0.1
 78
     7
 79
     2
 90
     1
140
0.12
141
0.0
146
0.71
147
0.06
176
   256
177
   256
178
     2
274
     4
284
     7
340
11
345
14
346
14
347
14
371
    -1
372
    -1
  0
DIMSTYLE
105
DCC
330
A
100
AcDbSymbolTableRecord
100
AcDbDimStyleTableRecord
  2
AM_ANSI$SF
 70
     0
  4
mm
 41
0.12
 42
0.05
 43
0.5
 44
0.1
 47
0.1
 48
0.1
 75
     1
 76
     1
 78
     7
 79
     2
 90
     1
140
0.12
141
0.0
146
0.71
147
0.06
176
   256
177
   256
178
     2
274
     4
284
     7
340
11
345
14
346
14
347
14
371
    -1
372
    -1
  0
DIMSTYLE
105
DD1
330
A
100
AcDbSymbolTableRecord
100
AcDbDimStyleTableRecord
  2
AM_ANSI$SH
 70
     0
  4
mm
 41
0.12
 42
0.05
 43
0.5
 44
0.1
 47
0.1
 48
0.1
 75
     1
 76
     1
 78
     7
 79
     2
 90
     1
140
0.12
141
0.0
146
0.71
147
0.06
173
     1
176
   256
177
   256
178
     2
274
     4
284
     7
340
11
343
DCD
345
14
346
14
347
14
371
    -1
372
    -1
  0
ENDTAB
  0
TABLE
  2
BLOCK_RECORD
  5
1
330
0
100
AcDbSymbolTable
 70
     5
  0
BLOCK_RECORD
  5
220
102
{ACAD_XDICTIONARY
360
2922
102
}
330
1
100
AcDbSymbolTableRecord
100
AcDbBlockTableRecord
  2
*Model_Space
340
CD7
 70
     0
280
     1
281
     0
  0
BLOCK_RECORD
  5
221
330
1
100
AcDbSymbolTableRecord
100
AcDbBlockTableRecord
  2
*Paper_Space
340
CD8
 70
     0
280
     1
281
     0
  0
BLOCK_RECORD
  5
222
330
1
100
AcDbSymbolTableRecord
100
AcDbBlockTableRecord
  2
_FILLED
340
0
 70
     0
280
     1
281
     0
  0
BLOCK_RECORD
  5
DCD
330
1
100
AcDbSymbolTableRecord
100
AcDbBlockTableRecord
  2
GENAXEH
340
0
 70
     0
280
     1
281
     0
  0
ENDTAB
  0
ENDSEC
  0
SECTION
  2
BLOCKS
  0
BLOCK
  5
20
330
220
100
AcDbEntity
  8
0
100
AcDbBlockBegin
  2
*Model_Space
 70
     0
 10
0.0
 20
0.0
 30
0.0
  3
*Model_Space
  1

  0
ENDBLK
  5
21
330
220
100
AcDbEntity
  8
0
100
AcDbBlockEnd
  0
BLOCK
  5
1C
330
221
100
AcDbEntity
 67
     1
  8
0
100
AcDbBlockBegin
  2
*Paper_Space
 70
     0
 10
0.0
 20
0.0
 30
0.0
  3
*Paper_Space
  1

  0
ENDBLK
  5
1D
330
221
100
AcDbEntity
 67
     1
  8
0
100
AcDbBlockEnd
  0
BLOCK
  5
2DC
330
222
100
AcDbEntity
  8
0
100
AcDbBlockBegin
  2
_FILLED
 70
     0
 10
0.0
 20
0.0
 30
0.0
  3
_FILLED
  1

  0
SOLID
  5
2DD
330
222
100
AcDbEntity
  8
0
  6
ByBlock
 62
     0
100
AcDbTrace
 10
0.0
 20
0.0
 30
0.0
 11
-1.0
 21
0.1666666667
 31
0.0
 12
-1.0
 22
-0.1666666667
 32
0.0
 13
-1.0
 23
-0.1666666667
 33
0.0
  0
ENDBLK
  5
2DE
330
222
100
AcDbEntity
  8
0
  6
ByBlock
 62
     0
100
AcDbBlockEnd
  0
BLOCK
  5
DCF
330
DCD
100
AcDbEntity
  8
0
100
AcDbBlockBegin
  2
GENAXEH
 70
     0
 10
0.0
 20
0.0
 30
0.0
  3
GENAXEH
  1

  0
LINE
  5
DCE
330
DCD
100
AcDbEntity
  8
0
100
AcDbLine
 10
-1.0
 20
0.0
 30
0.0
 11
1.0
 21
0.0
 31
0.0
  0
ENDBLK
  5
DD0
330
DCD
100
AcDbEntity
  8
0
100
AcDbBlockEnd
  0
ENDSEC
  0
SECTION
  2
ENTITIES
  0
LINE
  5
2AD1
330
220
100
AcDbEntity
  8
0
  6
Continuous
 62
     7
100
AcDbLine
 10
79.08445061075468
 20
30.75288562954752
 30
0.0
 11
79.08026011845469
 21
30.87288562954752
 31
0.0
  0
LINE
  5
2AD6
330
220
100
AcDbEntity
  8
0
  6
Continuous
 62
     7
100
AcDbLine
 10
80.24687382625469
 20
29.81522451544752
 30
0.0
 11
80.24687382625469
 21
30.04002800764752
 31
0.0
  0
LINE
  5
2AD8
330
220
100
AcDbEntity
  8
0
  6
Continuous
 62
     7
100
AcDbLine
 10
80.18225635915468
 20
29.73136429914752
 30
0.0
 11
80.18225073205469
 21
29.73138092534752
 31
0.0
  0
LINE
  5
2AD9
330
220
100
AcDbEntity
  8
0
  6
Continuous
 62
     7
100
AcDbLine
 10
79.59396458775469
 20
30.64190277964752
 30
0.0
 11
79.59381721605469
 21
30.64210850424752
 31
0.0
  0
LINE
  5
2ADE
330
220
100
AcDbEntity
  8
0
  6
Continuous
 62
     7
100
AcDbLine
 10
84.2429110517547
 20
26.62515409684752
 30
0.0
 11
83.62997257805469
 21
26.62515409684752
 31
0.0
  0
LINE
  5
2AE3
330
220
100
AcDbEntity
  8
___COSMETIC_SKETCH
  6
PHANTOM
 62
     8
100
AcDbLine
 10
81.99291105175468
 20
27.68460449494752
 30
0.0
 11
81.99689978015468
 21
27.68297796664752
 31
0.0
  0
LINE
  5
2AE6
330
220
100
AcDbEntity
  8
0
  6
Continuous
 62
     7
100
AcDbLine
 10
83.07097200625468
 20
30.69015409684752
 30
0.0
 11
83.07097212985468
 21
30.64262406774752
 31
0.0
  0
LINE
  5
2AEA
330
220
100
AcDbEntity
  8
___COSMETIC_SKETCH
  6
PHANTOM
 62
     8
100
AcDbLine
 10
83.24291105175468
 20
27.38280727814752
 30
0.0
 11
83.24111771095468
 21
27.38302736644752
 31
0.0
  0
LINE
  5
2AEB
330
220
100
AcDbEntity
  8
0
  6
Continuous
 62
     7
100
AcDbLine
 10
83.51565935565469
 20
27.25096884674752
 30
0.0
 11
83.56521992265468
 21
26.68448897354752
 31
0.0
  0
LINE
  5
2AF1
330
220
100
AcDbEntity
  8
0
  6
Continuous
 62
     7
100
AcDbLine
 10
83.44084620965469
 20
30.69015409684752
 30
0.0
 11
83.44084617315468
 21
30.58411249474752
 31
0.0
  0
LINE
  5
2B00
330
220
100
AcDbEntity
  8
0
  6
Continuous
 62
     7
100
AcDbLine
 10
80.50369880775468
 20
29.73373881864752
 30
0.0
 11
83.18522857515469
 21
29.73373996604752
 31
0.0
  0
LINE
  5
2B08
330
220
100
AcDbEntity
  8
0
  6
Continuous
 62
     7
100
AcDbLine
 10
79.97579759765469
 20
30.43763345134752
 30
0.0
 11
83.09497354835469
 21
30.43763345134752
 31
0.0
  0
LINE
  5
2B0F
330
220
100
AcDbEntity
  8
0
  6
Continuous
 62
     7
100
AcDbLine
 10
79.14941101445468
 20
30.69015409684752
 30
0.0
 11
84.24291105175468
 21
30.69015409684752
 31
0.0
  0
LINE
  5
2B16
330
220
100
AcDbEntity
  8
0
  6
Continuous
 62
     7
100
AcDbLine
 10
79.14522052215469
 20
30.94015409684752
 30
0.0
 11
84.24291105175468
 21
30.94015409684752
 31
0.0
  0
ARC
  5
2B21
330
220
100
AcDbEntity
  8
0
  6
Continuous
 62
     7
100
AcDbCircle
 10
84.24105945815469
 20
18.66229909384751
 30
0.0
 40
8.1600638282
100
AcDbArc
 50
89.98699906000032
 51
92.4420608359002
  0
ARC
  5
2B25
330
220
100
AcDbEntity
  8
0
  6
Continuous
 62
     7
100
AcDbCircle
 10
83.39112109045469
 20
27.24024142354752
 30
0.0
 40
0.1249999074
100
AcDbArc
 50
5.000000000000017
 51
84.04257042339992
  0
ARC
  5
2B2A
330
220
100
AcDbEntity
  8
0
  6
Continuous
 62
     7
100
AcDbCircle
 10
83.62997257805469
 20
26.69015409684752
 30
0.0
 40
0.065
100
AcDbArc
 50
185.0
 51
270.0
  0
ARC
  5
2B2E
330
220
100
AcDbEntity
  8
0
  6
Continuous
 62
     7
100
AcDbCircle
 10
83.95647916645469
 20
31.00849184894752
 30
0.0
 40
3.9844255754
100
AcDbArc
 50
198.6949438552001
 51
199.1553360547001
  0
ARC
  5
2B2F
330
220
100
AcDbEntity
  8
0
  6
Continuous
 62
     7
100
AcDbCircle
 10
83.29938945295468
 20
30.88277235764752
 30
0.0
 40
3.454730596
100
AcDbArc
 50
247.7795745771998
 51
247.9371795184999
  0
ARC
  5
2B34
330
220
100
AcDbEntity
  8
0
  6
Continuous
 62
     7
100
AcDbCircle
 10
80.24687327845468
 20
30.05015409684752
 30
0.0
 40
0.25
100
AcDbArc
 50
182.8103955002998
 51
248.4616312325996
  0
ARC
  5
2B36
330
220
100
AcDbEntity
  8
0
  6
Continuous
 62
     7
100
AcDbCircle
 10
83.07085061405469
 20
30.56535015044751
 30
0.0
 40
0.1248148482
100
AcDbArc
 50
8.469353417800041
 51
89.94427053639975
  0
ARC
  5
2B37
330
220
100
AcDbEntity
  8
0
  6
Continuous
 62
     7
100
AcDbCircle
 10
79.49589809395469
 20
30.56540311594752
 30
0.0
 40
0.1247517641
100
AcDbArc
 50
39.86241422809982
 51
89.99003327249981
  0
ARC
  5
2B38
330
220
100
AcDbEntity
  8
0
  6
Continuous
 62
     7
100
AcDbCircle
 10
79.14941101445468
 20
30.75515409684752
 30
0.0
 40
0.065
100
AcDbArc
 50
182.0
 51
270.0
  0
ARC
  5
2B39
330
220
100
AcDbEntity
  8
0
  6
Continuous
 62
     7
100
AcDbCircle
 10
79.14522119595469
 20
30.87515409684752
 30
0.0
 40
0.065
100
AcDbArc
 50
90.00059391659993
 51
181.9999792738001
  0
ARC
  5
2B45
330
220
100
AcDbEntity
  8
0
  6
Continuous
 62
     7
100
AcDbCircle
 10
84.42023175185468
 20
37.09972295134752
 30
0.0
 40
9.788035218500001
100
AcDbArc
 50
263.8172829848001
 51
264.0411465752002
  0
ARC
  5
2B46
330
220
100
AcDbEntity
  8
0
  6
Continuous
 62
     7
100
AcDbCircle
 10
84.33469975615469
 20
36.30921985904752
 30
0.0
 40
8.992933007399999
100
AcDbArc
 50
263.0267172802998
 51
264.0557187687999
  0
ARC
  5
2B4B
330
220
100
AcDbEntity
  8
0
  6
Continuous
 62
     7
100
AcDbCircle
 10
84.64361922285467
 20
30.74808065504752
 30
0.0
 40
1.458592244399999
100
AcDbArc
 50
186.4694960361998
 51
186.9967771742999
  0
LINE
  5
2B6D
330
220
100
AcDbEntity
  8
0
  6
Continuous
 62
     7
100
AcDbLine
 10
83.24289922215468
 20
27.38280872854752
 30
0.0
 11
83.23951799555469
 21
27.38322403194752
 31
0.0
  0
SPLINE
  5
2B6E
330
220
100
AcDbEntity
  8
0
  6
Continuous
 62
     7
100
AcDbSpline
210
0.0
220
0.0
230
1.0
 70
     8
 71
     3
 72
     9
 73
     5
 74
     0
 42
0.0000000001
 43
0.0000000001
 40
0.0
 40
0.0
 40
0.0
 40
0.0
 40
0.8624975429999999
 40
1.0
 40
1.0
 40
1.0
 40
1.0
 10
83.23951799555469
 20
27.38322403194752
 30
0.0
 10
83.12742408265469
 20
27.39701585544751
 30
0.0
 10
82.99571218735469
 20
27.41596340124752
 30
0.0
 10
82.86296147235468
 20
27.43970093074752
 30
0.0
 10
82.84469159895468
 20
27.44305972044752
 30
0.0
  0
SPLINE
  5
2B6F
330
220
100
AcDbEntity
  8
0
  6
Continuous
 62
     7
100
AcDbSpline
210
0.0
220
0.0
230
1.0
 70
     8
 71
     3
 72
     9
 73
     5
 74
     0
 42
0.0000000001
 43
0.0000000001
 40
0.0
 40
0.0
 40
0.0
 40
0.0
 40
0.7855821751000001
 40
1.0
 40
1.0
 40
1.0
 40
1.0
 10
82.84469159895468
 20
27.44305972044752
 30
0.0
 10
82.62380396125468
 20
27.48366838304752
 30
0.0
 10
82.33958953595468
 20
27.55300434084752
 30
0.0
 10
82.06100723275469
 20
27.65699079034752
 30
0.0
 10
82.00171333815468
 20
27.68102280594752
 30
0.0
  0
SPLINE
  5
2B70
330
220
100
AcDbEntity
  8
0
  6
Continuous
 62
     7
100
AcDbSpline
210
0.0
220
0.0
230
1.0
 70
     8
 71
     3
 72
    13
 73
     9
 74
     0
 42
0.0000000001
 43
0.0000000001
 40
0.0
 40
0.0
 40
0.0
 40
0.0
 40
0.1002009136
 40
0.2706828836
 40
0.4706516022
 40
0.6706203208
 40
0.8348749145000001
 40
1.0
 40
1.0
 40
1.0
 40
1.0
 10
81.99291112565468
 20
27.68460446474752
 30
0.0
 10
81.90425580885468
 20
27.72082100804752
 30
0.0
 10
81.66747200375468
 20
27.82919542364752
 30
0.0
 10
81.27614975585469
 20
28.07318818074752
 30
0.0
 10
80.87590302255469
 20
28.46592781134752
 30
0.0
 10
80.56476431585469
 20
28.90330113324752
 30
0.0
 10
80.3365379016547
 20
29.32574252044752
 30
0.0
 10
80.22803675095468
 20
29.59611827464751
 30
0.0
 10
80.18225073205469
 20
29.73138092524751
 30
0.0
  0
SPLINE
  5
2B72
330
220
100
AcDbEntity
  8
0
  6
Continuous
 62
     7
100
AcDbSpline
210
0.0
220
0.0
230
1.0
 70
     8
 71
     3
 72
    13
 73
     9
 74
     0
 42
0.0000000001
 43
0.0000000001
 40
0.0
 40
0.0
 40
0.0
 40
0.0
 40
0.2251774862
 40
0.467758694
 40
0.5959541693000001
 40
0.7282958436
 40
0.8634964295999999
 40
1.0
 40
1.0
 40
1.0
 40
1.0
 10
79.59396415235469
 20
30.64190312144752
 30
0.0
 10
79.60689216525469
 20
30.62528380214752
 30
0.0
 10
79.63272604005469
 20
30.58998749374752
 30
0.0
 10
79.66600423235468
 20
30.54526165354752
 30
0.0
 10
79.69643873695469
 20
30.50935561664752
 30
0.0
 10
79.72223609265468
 20
30.48277100584752
 30
0.0
 10
79.75100503045469
 20
30.45817998814752
 30
0.0
 10
79.77218961265468
 20
30.44400810594752
 30
0.0
 10
79.78324798675469
 20
30.43763387214752
 30
0.0
  0
SPLINE
  5
2B73
330
220
100
AcDbEntity
  8
0
  6
Continuous
 62
     7
100
AcDbSpline
210
0.0
220
0.0
230
1.0
 70
     8
 71
     3
 72
     8
 73
     4
 74
     0
 42
0.0000000001
 43
0.0000000001
 40
0.0
 40
0.0
 40
0.0
 40
0.0
 40
1.0
 40
1.0
 40
1.0
 40
1.0
 10
79.7832477442547
 20
30.43763345134752
 30
0.0
 10
79.80066585705468
 20
30.42759403724752
 30
0.0
 10
79.81746922835468
 20
30.41703443814752
 30
0.0
 10
79.83323266465468
 20
30.40609147764752
 30
0.0
  0
SPLINE
  5
2B74
330
220
100
AcDbEntity
  8
0
  6
Continuous
 62
     7
100
AcDbSpline
210
0.0
220
0.0
230
1.0
 70
     8
 71
     3
 72
    14
 73
    10
 74
     0
 42
0.0000000001
 43
0.0000000001
 40
0.0
 40
0.0
 40
0.0
 40
0.0
 40
0.0962319832
 40
0.2457112155
 40
0.3951904477000001
 40
0.5582565961000001
 40
0.7213227446
 40
0.884388893
 40
1.0
 40
1.0
 40
1.0
 40
1.0
 10
79.83323266465468
 20
30.40609147764752
 30
0.0
 10
79.84517804765468
 20
30.39779900564752
 30
0.0
 10
79.87415366355469
 20
30.37606355844752
 30
0.0
 10
79.91255480845468
 20
30.33942125534752
 30
0.0
 10
79.94170705075468
 20
30.30048705524752
 30
0.0
 10
79.96390316395468
 20
30.25233292224752
 30
0.0
 10
79.98275900795468
 20
30.18179164664752
 30
0.0
 10
79.99280476905468
 20
30.10789091924752
 30
0.0
 10
79.99616210225468
 20
30.05850859034752
 30
0.0
 10
79.99717393965468
 20
30.03789684564752
 30
0.0
  0
SPLINE
  5
2BB2
330
220
100
AcDbEntity
  8
0
  6
Continuous
 62
     7
100
AcDbSpline
210
0.0
220
0.0
230
1.0
 70
     8
 71
     3
 72
    53
 73
    49
 74
     0
 42
0.0000000001
 43
0.0000000001
 40
0.0
 40
0.0
 40
0.0
 40
0.0
 40
0.0413345033
 40
0.0817893026
 40
0.1215292591
 40
0.1412091384
 40
0.16081366
 40
0.1803924811
 40
0.2000016829
 40
0.2196809729
 40
0.2394701267
 40
0.2593638217
 40
0.279325827
 40
0.2993409032
 40
0.3194009019
 40
0.3394832033
 40
0.3595443688
 40
0.3795304297
 40
0.3993832045
 40
0.4190438977000001
 40
0.4384534801
 40
0.4575329525
 40
0.47618651
 40
0.4853254359000001
 40
0.4943296806000001
 40
0.5119333779000001
 40
0.5289940386000001
 40
0.5455099032000001
 40
0.5614993522000001
 40
0.5769831079
 40
0.60650654
 40
0.6342196234000001
 40
0.6474632477000001
 40
0.6603513578
 40
0.672925463
 40
0.685217143
 40
0.709048153
 40
0.7320642069
 40
0.7545819438
 40
0.7769242777
 40
0.7993065452
 40
0.8219146691
 40
0.8449498656000001
 40
0.8686234901
 40
0.8931057473
 40
0.9447821668999999
 40
0.9720015614000001
 40
1.0
 40
1.0
 40
1.0
 40
1.0
 10
80.50369849925468
 20
29.73373881864752
 30
0.0
 10
80.52836024045468
 20
29.68573489774751
 30
0.0
 10
80.57495969555468
 20
29.58962836614752
 30
0.0
 10
80.64261549285468
 20
29.44611274134752
 30
0.0
 10
80.70092148405469
 20
29.32942639834752
 30
0.0
 10
80.75083856645468
 20
29.23910758754752
 30
0.0
 10
80.79032777075468
 20
29.17315249914752
 30
0.0
 10
80.83249418745468
 20
29.10897696554752
 30
0.0
 10
80.87780084875468
 20
29.04684783604752
 30
0.0
 10
80.92668210455469
 20
28.98711784984751
 30
0.0
 10
80.97941906665468
 20
28.93025958634752
 30
0.0
 10
81.03526552085469
 20
28.87594697734752
 30
0.0
 10
81.09353823595467
 20
28.82381341504752
 30
0.0
 10
81.15386028425469
 20
28.77372970464751
 30
0.0
 10
81.2159565091547
 20
28.72561196174752
 30
0.0
 10
81.27943497825468
 20
28.67924021744752
 30
0.0
 10
81.34371982835469
 20
28.63416919614752
 30
0.0
 10
81.40825049565469
 20
28.58998293774752
 30
0.0
 10
81.4725202481547
 20
28.54634337244752
 30
0.0
 10
81.53607389055469
 20
28.50298870584752
 30
0.0
 10
81.59841057125468
 20
28.45964430394752
 30
0.0
 10
81.65902991725468
 20
28.41614520054752
 30
0.0
 10
81.7080280244547
 20
28.37946823094752
 30
0.0
 10
81.74589824375468
 20
28.34990172124752
 30
0.0
 10
81.78227946065469
 20
28.32066338024752
 30
0.0
 10
81.82605427365469
 20
28.28412334964752
 30
0.0
 10
81.87651524485469
 20
28.24031230854752
 30
0.0
 10
81.92480761235469
 20
28.19722906104752
 30
0.0
 10
81.97111792595469
 20
28.15502322634752
 30
0.0
 10
82.02960509595468
 20
28.10096895484752
 30
0.0
 10
82.09898080995468
 20
28.03614665094752
 30
0.0
 10
82.16631757765469
 20
27.97342455774752
 30
0.0
 10
82.21825774845468
 20
27.92604555644752
 30
0.0
 10
82.25594868245469
 20
27.89237914744752
 30
0.0
 10
82.29318197855468
 20
27.86007238144752
 30
0.0
 10
82.3418883154547
 20
27.81920049474752
 30
0.0
 10
82.40231472895469
 20
27.77110119224752
 30
0.0
 10
82.47536121205468
 20
27.71751576204752
 30
0.0
 10
82.54926690665469
 20
27.66853741234752
 30
0.0
 10
82.62499206145468
 20
27.62402786144752
 30
0.0
 10
82.70303500645468
 20
27.58347573674752
 30
0.0
 10
82.78379620695469
 20
27.54642999324752
 30
0.0
 10
82.86783074415469
 20
27.51273273554752
 30
0.0
 10
82.95570205385468
 20
27.48231927544752
 30
0.0
 10
83.08072537825468
 20
27.44532252684752
 30
0.0
 10
83.2124046754547
 20
27.41504438774752
 30
0.0
 10
83.3497145991547
 20
27.39001395744752
 30
0.0
 10
83.42096406105468
 20
27.37893861254752
 30
0.0
 10
83.45714584385468
 20
27.37372065504751
 30
0.0
  0
LINE
  5
2BB6
330
220
100
AcDbEntity
  8
0
  6
Continuous
 62
     7
100
AcDbLine
 10
83.0723464348547
 20
30.62916313284752
 30
0.0
 11
83.07098784265468
 21
30.64262651734752
 31
0.0
  0
SPLINE
  5
2BBB
330
220
100
AcDbEntity
  8
0
  6
Continuous
 62
     7
100
AcDbSpline
210
0.0
220
0.0
230
1.0
 70
     8
 71
     3
 72
     9
 73
     5
 74
     0
 42
0.0000000001
 43
0.0000000001
 40
0.0
 40
0.0
 40
0.0
 40
0.0
 40
0.4894361322
 40
1.0
 40
1.0
 40
1.0
 40
1.0
 10
83.09497354835469
 20
30.43763356284752
 30
0.0
 10
83.09114616975469
 20
30.46886451444752
 30
0.0
 10
83.08332541765469
 20
30.53267444224752
 30
0.0
 10
83.07592137815468
 20
30.59653539054752
 30
0.0
 10
83.07234643475469
 20
30.62916297504751
 30
0.0
  0
SPLINE
  5
2BBF
330
220
100
AcDbEntity
  8
0
  6
Continuous
 62
     7
100
AcDbSpline
210
0.0
220
0.0
230
1.0
 70
     8
 71
     3
 72
    21
 73
    17
 74
     0
 42
0.0000000001
 43
0.0000000001
 40
0.0
 40
0.0
 40
0.0
 40
0.0
 40
0.132744795
 40
0.2652949522
 40
0.3974132055
 40
0.5286213449
 40
0.5936084399000001
 40
0.6579426750000001
 40
0.7212850262
 40
0.7524439764000001
 40
0.7831578284999999
 40
0.8133051034999999
 40
0.8427034521999999
 40
0.8986491011
 40
0.9508368901
 40
1.0
 40
1.0
 40
1.0
 40
1.0
 10
83.13956530215468
 20
30.04002800914752
 30
0.0
 10
83.13698521555469
 20
30.05754959614752
 30
0.0
 10
83.13190833235468
 20
30.09257890444752
 30
0.0
 10
83.12461157825469
 20
30.14509670194752
 30
0.0
 10
83.11763598955469
 20
30.19745150094752
 30
0.0
 10
83.11225132565468
 20
30.24092298884752
 30
0.0
 10
83.10824597015468
 20
30.27545088184752
 30
0.0
 10
83.10546571455468
 20
30.30100524074752
 30
0.0
 10
83.10340103555468
 20
30.32209634474752
 30
0.0
 10
83.10189049365469
 20
30.33873389704752
 30
0.0
 10
83.10086075025468
 20
30.35096792584752
 30
0.0
 10
83.09998206455469
 20
30.36297833784752
 30
0.0
 10
83.09902325865468
 20
30.37835724034752
 30
0.0
 10
83.0980740460547
 20
30.39668256284752
 30
0.0
 10
83.09654674845468
 20
30.41761401734751
 30
0.0
 10
83.0955003166547
 20
30.43109538064752
 30
0.0
 10
83.09497354835469
 20
30.43763343224752
 30
0.0
  0
SPLINE
  5
2BC3
330
220
100
AcDbEntity
  8
0
  6
Continuous
 62
     7
100
AcDbSpline
210
0.0
220
0.0
230
1.0
 70
     8
 71
     3
 72
    12
 73
     8
 74
     0
 42
0.0000000001
 43
0.0000000001
 40
0.0
 40
0.0
 40
0.0
 40
0.0
 40
0.0867431527
 40
0.1881587748
 40
0.4279707927000001
 40
0.7041251537000001
 40
1.0
 40
1.0
 40
1.0
 40
1.0
 10
83.17913305505468
 20
29.83698448384752
 30
0.0
 10
83.17836930235468
 20
29.84291852364752
 30
0.0
 10
83.17651610445469
 20
29.85576504674752
 30
0.0
 10
83.17173815705469
 20
29.88489553304752
 30
0.0
 10
83.16391165655469
 20
29.92675799634751
 30
0.0
 10
83.15262301805468
 20
29.98160564034752
 30
0.0
 10
83.14410312355468
 20
30.02013136254752
 30
0.0
 10
83.13956530215468
 20
30.04002800764752
 30
0.0
  0
SPLINE
  5
2BCB
330
220
100
AcDbEntity
  8
0
  6
Continuous
 62
     7
100
AcDbSpline
210
0.0
220
0.0
230
1.0
 70
     8
 71
     3
 72
    10
 73
     6
 74
     0
 42
0.0000000001
 43
0.0000000001
 40
0.0
 40
0.0
 40
0.0
 40
0.0
 40
0.5647312058000001
 40
0.8010127260999999
 40
1.0
 40
1.0
 40
1.0
 40
1.0
 10
83.18522857515469
 20
29.73373996604752
 30
0.0
 10
83.18389757495468
 20
29.75316379304752
 30
0.0
 10
83.18210270605469
 20
29.78072129144752
 30
0.0
 10
83.1801608581547
 20
29.81514219034752
 30
0.0
 10
83.17942716515469
 20
29.83013061064752
 30
0.0
 10
83.17913305505468
 20
29.83698448384752
 30
0.0
  0
SPLINE
  5
2BCE
330
220
100
AcDbEntity
  8
0
  6
Continuous
 62
     7
100
AcDbSpline
210
0.0
220
0.0
230
1.0
 70
     8
 71
     3
 72
     9
 73
     5
 74
     0
 42
0.0000000001
 43
0.0000000001
 40
0.0
 40
0.0
 40
0.0
 40
0.0
 40
0.2418635473
 40
1.0
 40
1.0
 40
1.0
 40
1.0
 10
83.25953270875469
 20
29.20603943774752
 30
0.0
 10
83.25357169505469
 20
29.24858742084752
 30
0.0
 10
83.22892500965469
 20
29.42450463754751
 30
0.0
 10
83.20417893295468
 20
29.60040806734752
 30
0.0
 10
83.18522857515469
 20
29.73373996614752
 30
0.0
  0
SPLINE
  5
2BCF
330
220
100
AcDbEntity
  8
0
  6
Continuous
 62
     7
100
AcDbSpline
210
0.0
220
0.0
230
1.0
 70
     8
 71
     3
 72
    23
 73
    19
 74
     0
 42
0.0000000001
 43
0.0000000001
 40
0.0
 40
0.0
 40
0.0
 40
0.0
 40
0.0180187053
 40
0.039693487
 40
0.0652936915
 40
0.095082761
 40
0.1293814583
 40
0.1688749283
 40
0.214409531
 40
0.2669760649
 40
0.3275888511
 40
0.3972389592
 40
0.4357710146000001
 40
0.4769038472
 40
0.5667638233
 40
0.6656916915
 40
0.7718286585
 40
1.0
 40
1.0
 40
1.0
 40
1.0
 10
83.45714584385468
 20
27.37372005254752
 30
0.0
 10
83.4586613897547
 20
27.38469883624752
 30
0.0
 10
83.46095210485469
 20
27.40902832464751
 30
0.0
 10
83.46254083085469
 20
27.44916838354752
 30
0.0
 10
83.46255884675469
 20
27.49657838454752
 30
0.0
 10
83.46099845885468
 20
27.55172638994752
 30
0.0
 10
83.4578351318547
 20
27.61536237794752
 30
0.0
 10
83.45283871605468
 20
27.68859083264752
 30
0.0
 10
83.44576188675469
 20
27.77292861714752
 30
0.0
 10
83.43631382605469
 20
27.87009405234752
 30
0.0
 10
83.42419542305469
 20
27.98189523144752
 30
0.0
 10
83.41206239635468
 20
28.08500719634752
 30
0.0
 10
83.40075592985469
 20
28.17614904584752
 30
0.0
 10
83.38748697365469
 20
28.27957247694751
 30
0.0
 10
83.36881408285469
 20
28.41975391244752
 30
0.0
 10
83.34421564095469
 20
28.59948006254752
 30
0.0
 10
83.30753955945468
 20
28.86341784274751
 30
0.0
 10
83.27900543215468
 20
29.06705385864752
 30
0.0
 10
83.25953270875469
 20
29.20603936094752
 30
0.0
  0
SPLINE
  5
2BDC
330
220
100
AcDbEntity
  8
0
  6
Continuous
 62
     7
100
AcDbSpline
210
0.0
220
0.0
230
1.0
 70
     8
 71
     3
 72
    12
 73
     8
 74
     0
 42
0.0000000001
 43
0.0000000001
 40
0.0
 40
0.0
 40
0.0
 40
0.0
 40
0.1265313991
 40
0.2533591511
 40
0.5062260627000001
 40
0.7561350518000002
 40
1.0
 40
1.0
 40
1.0
 40
1.0
 10
83.65479146105469
 20
26.95416198824752
 30
0.0
 10
83.64960045565469
 20
26.96709939584752
 30
0.0
 10
83.63954822055468
 20
26.99314235654752
 30
0.0
 10
83.62049904635469
 20
27.04556166044751
 30
0.0
 10
83.59832091715469
 20
27.11129389604752
 30
0.0
 10
83.57376738385468
 20
27.18980593634752
 30
0.0
 10
83.55837458455468
 20
27.24198366404752
 30
0.0
 10
83.55089205315469
 20
27.26778730054752
 30
0.0
  0
SPLINE
  5
2BDE
330
220
100
AcDbEntity
  8
0
  6
Continuous
 62
     7
100
AcDbSpline
210
0.0
220
0.0
230
1.0
 70
     8
 71
     3
 72
    16
 73
    12
 74
     0
 42
0.0000000001
 43
0.0000000001
 40
0.0
 40
0.0
 40
0.0
 40
0.0
 40
0.1384926258
 40
0.2685854959
 40
0.3917708719
 40
0.5099862950000001
 40
0.6256626946
 40
0.7420284797
 40
0.8639201088
 40
0.9295073712
 40
1.0
 40
1.0
 40
1.0
 40
1.0
 10
83.89336475875468
 20
26.81495278374752
 30
0.0
 10
83.87978545805468
 20
26.81406839804752
 30
0.0
 10
83.85327428435468
 20
26.81433696884752
 30
0.0
 10
83.81514030905469
 20
26.82048888874752
 30
0.0
 10
83.78020969025469
 20
26.83152361394752
 30
0.0
 10
83.74852198665468
 20
26.84686937814752
 30
0.0
 10
83.71996158325469
 20
26.86629835994752
 30
0.0
 10
83.69438780665468
 20
26.89006270144752
 30
0.0
 10
83.67595656895469
 20
26.91374328764752
 30
0.0
 10
83.66309161115468
 20
26.93561594834752
 30
0.0
 10
83.65741876985469
 20
26.94775288934752
 30
0.0
 10
83.65479213045469
 20
26.95416203184752
 30
0.0
  0
SPLINE
  5
2BE2
330
220
100
AcDbEntity
  8
0
  6
Continuous
 62
     7
100
AcDbSpline
210
0.0
220
0.0
230
1.0
 70
     8
 71
     3
 72
    19
 73
    15
 74
     0
 42
0.0000000001
 43
0.0000000001
 40
0.0
 40
0.0
 40
0.0
 40
0.0
 40
0.1250855341
 40
0.2497490324
 40
0.3740903579
 40
0.4982196432000001
 40
0.6222839088000001
 40
0.684364595
 40
0.7465426713
 40
0.8089043672
 40
0.8716033059
 40
0.9349666381
 40
0.9671434918
 40
1.0
 40
1.0
 40
1.0
 40
1.0
 10
79.78923795825469
 20
30.64278086994752
 30
0.0
 10
79.7942662837547
 20
30.63663566694752
 30
0.0
 10
79.80412294135469
 20
30.62421564014752
 30
0.0
 10
79.81846562045468
 20
30.60528818954752
 30
0.0
 10
79.83249444145468
 20
30.58620308744752
 30
0.0
 10
79.84638616965469
 20
30.56706570134752
 30
0.0
 10
79.85802294305469
 20
30.55117457184752
 30
0.0
 10
79.86751007535469
 20
30.53858550194752
 30
0.0
 10
79.87477386735469
 20
30.52922679354752
 30
0.0
 10
79.88225763575468
 20
30.51999097014752
 30
0.0
 10
79.89007778765468
 20
30.51093877144752
 30
0.0
 10
79.89701625135468
 20
30.50366078774751
 30
0.0
 10
79.90304303915468
 20
30.49817068694752
 30
0.0
 10
79.90630767455468
 20
30.49562555704752
 30
0.0
 10
79.90804651735469
 20
30.49447381774752
 30
0.0
  0
SPLINE
  5
2BE5
330
220
100
AcDbEntity
  8
0
  6
Continuous
 62
     7
100
AcDbSpline
210
0.0
220
0.0
230
1.0
 70
     8
 71
     3
 72
    12
 73
     8
 74
     0
 42
0.0000000001
 43
0.0000000001
 40
0.0
 40
0.0
 40
0.0
 40
0.0
 40
0.2596202858
 40
0.5146017644
 40
0.7628704124
 40
0.8833043834999999
 40
1.0
 40
1.0
 40
1.0
 40
1.0
 10
79.90804651735469
 20
30.49447382304752
 30
0.0
 10
79.9144474436547
 20
30.49023003574752
 30
0.0
 10
79.92697796595469
 20
30.48157619094752
 30
0.0
 10
79.94493262775468
 20
30.46789286264752
 30
0.0
 10
79.95891393895469
 20
30.45582046304752
 30
0.0
 10
79.96906674775468
 20
30.44565897034752
 30
0.0
 10
79.97367956745468
 20
30.44035930374752
 30
0.0
 10
79.97579759765469
 20
30.43763342104752
 30
0.0
  0
SPLINE
  5
2BE8
330
220
100
AcDbEntity
  8
0
  6
Continuous
 62
     7
100
AcDbSpline
210
0.0
220
0.0
230
1.0
 70
     8
 71
     3
 72
    31
 73
    27
 74
     0
 42
0.0000000001
 43
0.0000000001
 40
0.0
 40
0.0
 40
0.0
 40
0.0
 40
0.0597669489
 40
0.0898070391
 40
0.1199732427
 40
0.1503254738
 40
0.1808758801
 40
0.2115908995
 40
0.2424332443
 40
0.2733722583
 40
0.3043686762
 40
0.3353256524
 40
0.3662572167
 40
0.397240601
 40
0.428295393
 40
0.459411026
 40
0.4906039461000001
 40
0.5219235588000001
 40
0.5533796225
 40
0.6165518766
 40
0.6800389394
 40
0.7437965547
 40
0.8077220093000001
 40
0.8717534652999999
 40
0.9358565827999999
 40
1.0
 40
1.0
 40
1.0
 40
1.0
 10
79.97579759765469
 20
30.43763364574752
 30
0.0
 10
79.98527293325469
 20
30.43323926544752
 30
0.0
 10
79.99953081985468
 20
30.42667829214752
 30
0.0
 10
80.01843425485468
 20
30.41760849294752
 30
0.0
 10
80.03265638585469
 20
30.41066681514752
 30
0.0
 10
80.04696563575469
 20
30.40370030064752
 30
0.0
 10
80.06137200645468
 20
30.39671418344752
 30
0.0
 10
80.07583588235467
 20
30.38965056604752
 30
0.0
 10
80.09029835585469
 20
30.38242915914752
 30
0.0
 10
80.10461674405467
 20
30.37481617684752
 30
0.0
 10
80.11863005425469
 20
30.36660773094752
 30
0.0
 10
80.13208955845469
 20
30.35750302574752
 30
0.0
 10
80.1446937864547
 20
30.34724546784752
 30
0.0
 10
80.15646025425468
 20
30.33602184254752
 30
0.0
 10
80.16745192135468
 20
30.32399650874752
 30
0.0
 10
80.17758518285468
 20
30.31118888834752
 30
0.0
 10
80.18671326825469
 20
30.29758955654752
 30
0.0
 10
80.19484439125468
 20
30.28330752394752
 30
0.0
 10
80.20456294155469
 20
30.26354880564752
 30
0.0
 10
80.21491669655469
 20
30.23788249954752
 30
0.0
 10
80.22461774415468
 20
30.20601375174752
 30
0.0
 10
80.23198556225469
 20
30.17340567514752
 30
0.0
 10
80.23765323925468
 20
30.14037286704752
 30
0.0
 10
80.2418597433547
 20
30.10706418724752
 30
0.0
 10
80.24487886105468
 20
30.07359288664752
 30
0.0
 10
80.24628955375469
 20
30.05122280174752
 30
0.0
 10
80.24687371915469
 20
30.04002847314752
 30
0.0
  0
SPLINE
  5
2BE9
330
220
100
AcDbEntity
  8
0
  6
Continuous
 62
     7
100
AcDbSpline
210
0.0
220
0.0
230
1.0
 70
     8
 71
     3
 72
    27
 73
    23
 74
     0
 42
0.0000000001
 43
0.0000000001
 40
0.0
 40
0.0
 40
0.0
 40
0.0
 40
0.1178957132
 40
0.1751484766
 40
0.2312214366
 40
0.3390574233
 40
0.4398035507
 40
0.5317967659000001
 40
0.6135235701
 40
0.6847632882
 40
0.7463377252
 40
0.7991742248
 40
0.8442917620999999
 40
0.8827586392
 40
0.9155671484999999
 40
0.9433587559999999
 40
0.9554947553999999
 40
0.9665069622
 40
0.9764264031999999
 40
0.9852869717
 40
0.9931289977999998
 40
1.0
 40
1.0
 40
1.0
 40
1.0
 10
83.63987970645469
 20
29.06346001724752
 30
0.0
 10
83.65165609705469
 20
28.97526284164752
 30
0.0
 10
83.66909783545469
 20
28.84422801774752
 30
0.0
 10
83.69203928105468
 20
28.67123184374752
 30
0.0
 10
83.7139269248547
 20
28.50575482704752
 30
0.0
 10
83.73991022485467
 20
28.30770767374752
 30
0.0
 10
83.76884691585468
 20
28.08270602874752
 30
0.0
 10
83.79464026515469
 20
27.87716874434752
 30
0.0
 10
83.81699972905469
 20
27.69364605204752
 30
0.0
 10
83.83617963085468
 20
27.53286445814752
 30
0.0
 10
83.85231043665468
 20
27.39367880474752
 30
0.0
 10
83.8655669154547
 20
27.27400851924752
 30
0.0
 10
83.87617322855469
 20
27.17159357604752
 30
0.0
 10
83.88438036665467
 20
27.08413034254752
 30
0.0
 10
83.89051172875468
 20
27.00961133504752
 30
0.0
 10
83.89413668575469
 20
26.95483001604752
 30
0.0
 10
83.89590383005469
 20
26.91642328244752
 30
0.0
 10
83.89663049695469
 20
26.89147504614752
 30
0.0
 10
83.89679356275468
 20
26.86898822764752
 30
0.0
 10
83.89636561935468
 20
26.84889644294751
 30
0.0
 10
83.89531864415468
 20
26.83113086864752
 30
0.0
 10
83.89411277755469
 20
26.82008423194752
 30
0.0
 10
83.89336473865467
 20
26.81495268744752
 30
0.0
  0
SPLINE
  5
2BEC
330
220
100
AcDbEntity
  8
0
  6
Continuous
 62
     7
100
AcDbSpline
210
0.0
220
0.0
230
1.0
 70
     8
 71
     3
 72
    27
 73
    23
 74
     0
 42
0.0000000001
 43
0.0000000001
 40
0.0
 40
0.0
 40
0.0
 40
0.0
 40
0.121896885
 40
0.2388023294
 40
0.3495345723
 40
0.4522264432
 40
0.5447950995000001
 40
0.6258164339
 40
0.6957202819
 40
0.7556318481000001
 40
0.8067529418999999
 40
0.8503692712000001
 40
0.8697610438999999
 40
0.8877394140999999
 40
0.9197087729999999
 40
0.9466375045999999
 40
0.9583087812
 40
0.9688357865999998
 40
0.9782541228999999
 40
0.9865768170999999
 40
0.9938166659
 40
1.0
 40
1.0
 40
1.0
 40
1.0
 10
83.39354707855468
 20
29.15698481224752
 30
0.0
 10
83.40598595365468
 20
29.06763436574752
 30
0.0
 10
83.43036317675469
 20
28.89259342974752
 30
0.0
 10
83.46599127185468
 20
28.63637894154752
 30
0.0
 10
83.49946166715469
 20
28.39421426004752
 30
0.0
 10
83.53018086605469
 20
28.16985159034752
 30
0.0
 10
83.55744243865469
 20
27.96720907744752
 30
0.0
 10
83.58079784555469
 20
27.78852627234752
 30
0.0
 10
83.60043262775468
 20
27.63373236224752
 30
0.0
 10
83.61663207905468
 20
27.50080960604752
 30
0.0
 10
83.62974081175469
 20
27.38711083324752
 30
0.0
 10
83.63871181345469
 20
27.30312379954752
 30
0.0
 10
83.64463860735469
 20
27.24348175684752
 30
0.0
 10
83.64947176725468
 20
27.19239365394752
 30
0.0
 10
83.65435245935469
 20
27.13570812064752
 30
0.0
 10
83.65784958395469
 20
27.08359239194752
 30
0.0
 10
83.6593752905547
 20
27.04726500664752
 30
0.0
 10
83.65986460745469
 20
27.02386942964752
 30
0.0
 10
83.65973940715468
 20
27.00294640364752
 30
0.0
 10
83.65895048705468
 20
26.98446938604752
 30
0.0
 10
83.65744525805469
 20
26.96843903034752
 30
0.0
 10
83.6558045665547
 20
26.95862477654752
 30
0.0
 10
83.65479194995469
 20
26.95416212564752
 30
0.0
  0
LINE
  5
2BED
330
220
100
AcDbEntity
  8
0
  6
Continuous
 62
     7
100
AcDbLine
 10
83.62733972575469
 20
29.15855869434752
 30
0.0
 11
83.63987970645469
 21
29.06345886344752
 31
0.0
  0
LINE
  5
2BEF
330
220
100
AcDbEntity
  8
0
  6
Continuous
 62
     7
100
AcDbLine
 10
83.3809415177547
 20
29.24759193004751
 30
0.0
 11
83.39354711825469
 21
29.15698481884751
 31
0.0
  0
SPLINE
  5
2BF0
330
220
100
AcDbEntity
  8
0
  6
Continuous
 62
     7
100
AcDbSpline
210
0.0
220
0.0
230
1.0
 70
     8
 71
     3
 72
     9
 73
     5
 74
     0
 42
0.0000000001
 43
0.0000000001
 40
0.0
 40
0.0
 40
0.0
 40
0.0
 40
0.2619468448
 40
1.0
 40
1.0
 40
1.0
 40
1.0
 10
83.1958903465547
 20
30.57040459104752
 30
0.0
 10
83.21212046375469
 20
30.45491251654752
 30
0.0
 10
83.27403137495469
 20
30.01400679544751
 30
0.0
 10
83.33569490505468
 20
29.57306624104752
 30
0.0
 10
83.38094151945469
 20
29.24759193034752
 30
0.0
  0
SPLINE
  5
2BF1
330
220
100
AcDbEntity
  8
0
  6
Continuous
 62
     7
100
AcDbSpline
210
0.0
220
0.0
230
1.0
 70
     8
 71
     3
 72
     9
 73
     5
 74
     0
 42
0.0000000001
 43
0.0000000001
 40
0.0
 40
0.0
 40
0.0
 40
0.0
 40
0.2620856441
 40
1.0
 40
1.0
 40
1.0
 40
1.0
 10
83.44084617625469
 20
30.58411249474752
 30
0.0
 10
83.45721608605469
 20
30.45958358794751
 30
0.0
 10
83.51962403015468
 20
29.98443088844752
 30
0.0
 10
83.58177104215469
 20
29.50924380694752
 30
0.0
 10
83.62733972575469
 20
29.15855869434752
 30
0.0
  0
LINE
  5
2BF4
330
220
100
AcDbEntity
  8
0
  6
Continuous
 62
     7
100
AcDbLine
 10
79.59165647275469
 20
30.64536287354752
 30
0.0
 11
79.59396423255468
 21
30.64190301534752
 31
0.0
  0
SPLINE
  5
2BFE
330
220
100
AcDbEntity
  8
0
  6
Continuous
 62
     7
100
AcDbSpline
210
0.0
220
0.0
230
1.0
 70
     8
 71
     3
 72
    23
 73
    19
 74
     0
 42
0.0000000001
 43
0.0000000001
 40
0.0
 40
0.0
 40
0.0
 40
0.0
 40
0.039661129
 40
0.0733024758
 40
0.1008537336
 40
0.1233318351
 40
0.1336847203
 40
0.1442510823
 40
0.1687292004
 40
0.2015456214
 40
0.2452829618
 40
0.3012924603
 40
0.369736647
 40
0.4503049212
 40
0.5422134335000001
 40
0.6443262044
 40
0.7554726188
 40
1.0
 40
1.0
 40
1.0
 40
1.0
 10
80.18226420235469
 20
29.73139891794751
 30
0.0
 10
80.1819399520547
 20
29.73235464384752
 30
0.0
 10
80.18139915715469
 20
29.73414253754752
 30
0.0
 10
80.18092936105469
 20
29.73667369944752
 30
0.0
 10
80.18090114415469
 20
29.73881663164752
 30
0.0
 10
80.18136079005468
 20
29.74033273214752
 30
0.0
 10
80.1820612854547
 20
29.74120318034752
 30
0.0
 10
80.18301024815469
 20
29.74188632744752
 30
0.0
 10
80.18474671545469
 20
29.74228945174752
 30
0.0
 10
80.18732437195469
 20
29.74208098834752
 30
0.0
 10
80.19060842555468
 20
29.74127003204752
 30
0.0
 10
80.19464247005469
 20
29.73982981304752
 30
0.0
 10
80.19945481315469
 20
29.73781166064752
 30
0.0
 10
80.20503036175469
 20
29.73526143644752
 30
0.0
 10
80.21133974325469
 20
29.73225899534752
 30
0.0
 10
80.21834073225468
 20
29.72889917804752
 30
0.0
 10
80.22886840085469
 20
29.72391270924751
 30
0.0
 10
80.23711575515468
 20
29.72018001684752
 30
0.0
 10
80.24283563705468
 20
29.71773043584752
 30
0.0
  0
SPLINE
  5
2C00
330
220
100
AcDbEntity
  8
0
  6
Continuous
 62
     7
100
AcDbSpline
210
0.0
220
0.0
230
1.0
 70
     8
 71
     3
 72
    11
 73
     7
 74
     0
 42
0.0000000001
 43
0.0000000001
 40
0.0
 40
0.0
 40
0.0
 40
0.0
 40
0.2419347061
 40
0.4863002175
 40
0.7378373562000001
 40
1.0
 40
1.0
 40
1.0
 40
1.0
 10
80.2428345386547
 20
29.71772962434752
 30
0.0
 10
80.2508422780547
 20
29.71430152104752
 30
0.0
 10
80.2677209067547
 20
29.70909545514752
 30
0.0
 10
80.29436858445469
 20
29.70675577634752
 30
0.0
 10
80.32164926125469
 20
29.70990185854752
 30
0.0
 10
80.33942647845469
 20
29.71539339674752
 30
0.0
 10
80.34818722275469
 20
29.71890670814752
 30
0.0
  0
SPLINE
  5
2C01
330
220
100
AcDbEntity
  8
0
  6
Continuous
 62
     7
100
AcDbSpline
210
0.0
220
0.0
230
1.0
 70
     8
 71
     3
 72
    11
 73
     7
 74
     0
 42
0.0000000001
 43
0.0000000001
 40
0.0
 40
0.0
 40
0.0
 40
0.0
 40
0.2356375601
 40
0.4777211589000001
 40
0.7314480172
 40
1.0
 40
1.0
 40
1.0
 40
1.0
 10
80.15509232335469
 20
29.81761109024752
 30
0.0
 10
80.1651058758547
 20
29.81365878414752
 30
0.0
 10
80.18448605695468
 20
29.80307065144752
 30
0.0
 10
80.20933932045469
 20
29.78030145964752
 30
0.0
 10
80.22940857465469
 20
29.75141492284752
 30
0.0
 10
80.23894444975468
 20
29.72936562414752
 30
0.0
 10
80.2428345386547
 20
29.71772962434752
 30
0.0
  0
SPLINE
  5
2C03
330
220
100
AcDbEntity
  8
0
  6
Continuous
 62
     7
100
AcDbSpline
210
0.0
220
0.0
230
1.0
 70
     8
 71
     3
 72
    14
 73
    10
 74
     0
 42
0.0000000001
 43
0.0000000001
 40
0.0
 40
0.0
 40
0.0
 40
0.0
 40
0.107791941
 40
0.221986565
 40
0.3425013884000001
 40
0.4686173799000001
 40
0.5990975486
 40
0.7321776498000001
 40
1.0
 40
1.0
 40
1.0
 40
1.0
 10
80.34818721305468
 20
29.71890669484752
 30
0.0
 10
80.3534793456547
 20
29.72102979994752
 30
0.0
 10
80.36445264035469
 20
29.72522227614751
 30
0.0
 10
80.38170970845468
 20
29.73077856304752
 30
0.0
 10
80.40026155015468
 20
29.73534918664752
 30
0.0
 10
80.41998428365468
 20
29.73850523754752
 30
0.0
 10
80.44057550145469
 20
29.73995756234752
 30
0.0
 10
80.46870983355468
 20
29.73944421624752
 30
0.0
 10
80.48980525975469
 20
29.73650403414752
 30
0.0
 10
80.50369880785469
 20
29.73373073414752
 30
0.0
  0
SPLINE
  5
2C04
330
220
100
AcDbEntity
  8
0
  6
Continuous
 62
     7
100
AcDbSpline
210
0.0
220
0.0
230
1.0
 70
     8
 71
     3
 72
    11
 73
     7
 74
     0
 42
0.0000000001
 43
0.0000000001
 40
0.0
 40
0.0
 40
0.0
 40
0.0
 40
0.2193767647
 40
0.4599253345000001
 40
0.7210619955
 40
1.0
 40
1.0
 40
1.0
 40
1.0
 10
80.24687382625469
 20
29.81522497234752
 30
0.0
 10
80.25645164235468
 20
29.81123691594752
 30
0.0
 10
80.2756033864547
 20
29.80056638474752
 30
0.0
 10
80.30205732995469
 20
29.77882722084752
 30
0.0
 10
80.32681313965468
 20
29.75127960724752
 30
0.0
 10
80.34133468775468
 20
29.73017900584752
 30
0.0
 10
80.34818721305468
 20
29.71890669484752
 30
0.0
  0
LINE
  5
2C0F
330
220
100
AcDbEntity
  8
0
  6
CENTER2
 62
     1
 48
0.4
100
AcDbLine
 10
84.24291105175468
 20
31.06002627710626
 30
0.0
 11
84.24291105175468
 21
26.29727152121024
 31
0.0
  0
LINE
  5
2C18
330
220
100
AcDbEntity
  8
0
  6
Continuous
 62
     7
100
AcDbLine
 10
89.40137149275468
 20
30.75288562954761
 30
0.0
 11
89.40556198505467
 21
30.87288562954761
 31
0.0
  0
LINE
  5
2C19
330
220
100
AcDbEntity
  8
0
  6
Continuous
 62
     7
100
AcDbLine
 10
88.23894827725469
 20
29.81522451544759
 30
0.0
 11
88.23894827725467
 21
30.04002800764759
 31
0.0
  0
LINE
  5
2C1A
330
220
100
AcDbEntity
  8
0
  6
Continuous
 62
     7
100
AcDbLine
 10
88.30356574435468
 20
29.73136429914759
 30
0.0
 11
88.30357137145469
 21
29.73138092534759
 31
0.0
  0
LINE
  5
2C1B
330
220
100
AcDbEntity
  8
0
  6
Continuous
 62
     7
100
AcDbLine
 10
88.89185751575467
 20
30.6419027796476
 30
0.0
 11
88.89200488745467
 21
30.6421085042476
 31
0.0
  0
LINE
  5
2C1C
330
220
100
AcDbEntity
  8
0
  6
Continuous
 62
     7
100
AcDbLine
 10
84.24291105175473
 20
26.62515409684752
 30
0.0
 11
84.85584952545474
 21
26.62515409684753
 31
0.0
  0
LINE
  5
2C1D
330
220
100
AcDbEntity
  8
___COSMETIC_SKETCH
  6
PHANTOM
 62
     8
100
AcDbLine
 10
86.49291105175471
 20
27.68460449494756
 30
0.0
 11
86.48892232335471
 21
27.68297796664756
 31
0.0
  0
LINE
  5
2C1E
330
220
100
AcDbEntity
  8
0
  6
Continuous
 62
     7
100
AcDbLine
 10
85.41485009725468
 20
30.69015409684754
 30
0.0
 11
85.41484997365468
 21
30.64262406774754
 31
0.0
  0
LINE
  5
2C1F
330
220
100
AcDbEntity
  8
___COSMETIC_SKETCH
  6
PHANTOM
 62
     8
100
AcDbLine
 10
85.24291105175473
 20
27.38280727814754
 30
0.0
 11
85.24470439255473
 21
27.38302736644754
 31
0.0
  0
LINE
  5
2C20
330
220
100
AcDbEntity
  8
0
  6
Continuous
 62
     7
100
AcDbLine
 10
84.97016274785472
 20
27.25096884674753
 30
0.0
 11
84.92060218085475
 21
26.68448897354753
 31
0.0
  0
LINE
  5
2C21
330
220
100
AcDbEntity
  8
0
  6
Continuous
 62
     7
100
AcDbLine
 10
85.04497589385467
 20
30.69015409684753
 30
0.0
 11
85.04497593035468
 21
30.58411249474753
 31
0.0
  0
LINE
  5
2C22
330
220
100
AcDbEntity
  8
0
  6
Continuous
 62
     7
100
AcDbLine
 10
87.98212329575468
 20
29.73373881864759
 30
0.0
 11
85.30059352835468
 21
29.73373996604754
 31
0.0
  0
LINE
  5
2C23
330
220
100
AcDbEntity
  8
0
  6
Continuous
 62
     7
100
AcDbLine
 10
88.51002450585466
 20
30.43763345134759
 30
0.0
 11
85.39084855515467
 21
30.43763345134753
 31
0.0
  0
LINE
  5
2C24
330
220
100
AcDbEntity
  8
0
  6
Continuous
 62
     7
100
AcDbLine
 10
89.33641108905467
 20
30.69015409684761
 30
0.0
 11
84.24291105175468
 21
30.69015409684752
 31
0.0
  0
LINE
  5
2C25
330
220
100
AcDbEntity
  8
0
  6
Continuous
 62
     7
100
AcDbLine
 10
89.34060158135466
 20
30.94015409684761
 30
0.0
 11
84.24291105175466
 21
30.94015409684752
 31
0.0
  0
ARC
  5
2C26
330
220
100
AcDbEntity
  8
0
  6
Continuous
 62
     7
100
AcDbCircle
 10
84.24476264535488
 20
18.66229909384751
 30
0.0
 40
8.1600638282
100
AcDbArc
 50
87.55793916410144
 51
90.0130009400013
  0
ARC
  5
2C27
330
220
100
AcDbEntity
  8
0
  6
Continuous
 62
     7
100
AcDbCircle
 10
85.09470101305472
 20
27.24024142354754
 30
0.0
 40
0.1249999074
100
AcDbArc
 50
95.95742957660171
 51
175.0000000000011
  0
ARC
  5
2C28
330
220
100
AcDbEntity
  8
0
  6
Continuous
 62
     7
100
AcDbCircle
 10
84.85584952545474
 20
26.69015409684753
 30
0.0
 40
0.065
100
AcDbArc
 50
270.0000000000017
 51
355.0000000000011
  0
ARC
  5
2C29
330
220
100
AcDbEntity
  8
0
  6
Continuous
 62
     7
100
AcDbCircle
 10
84.52934293705466
 20
31.00849184894752
 30
0.0
 40
3.9844255754
100
AcDbArc
 50
340.8446639453007
 51
341.305056144801
  0
ARC
  5
2C2A
330
220
100
AcDbEntity
  8
0
  6
Continuous
 62
     7
100
AcDbCircle
 10
85.18643265055466
 20
30.88277235764753
 30
0.0
 40
3.454730596
100
AcDbArc
 50
292.0628204815019
 51
292.2204254228011
  0
ARC
  5
2C2B
330
220
100
AcDbEntity
  8
0
  6
Continuous
 62
     7
100
AcDbCircle
 10
88.23894882505468
 20
30.05015409684759
 30
0.0
 40
0.25
100
AcDbArc
 50
291.5383687674021
 51
357.1896044997012
  0
ARC
  5
2C2C
330
220
100
AcDbEntity
  8
0
  6
Continuous
 62
     7
100
AcDbCircle
 10
85.41497148945467
 20
30.56535015044754
 30
0.0
 40
0.1248148482
100
AcDbArc
 50
90.05572946360103
 51
171.530646582201
  0
ARC
  5
2C2D
330
220
100
AcDbEntity
  8
0
  6
Continuous
 62
     7
100
AcDbCircle
 10
88.98992400955467
 20
30.56540311594761
 30
0.0
 40
0.1247517641
100
AcDbArc
 50
90.00996672750181
 51
140.1375857719009
  0
ARC
  5
2C2E
330
220
100
AcDbEntity
  8
0
  6
Continuous
 62
     7
100
AcDbCircle
 10
89.33641108905467
 20
30.75515409684761
 30
0.0
 40
0.065
100
AcDbArc
 50
270.0000000000017
 51
358.000000000001
  0
ARC
  5
2C2F
330
220
100
AcDbEntity
  8
0
  6
Continuous
 62
     7
100
AcDbCircle
 10
89.34060090755465
 20
30.87515409684761
 30
0.0
 40
0.065
100
AcDbArc
 50
358.0000207262009
 51
89.99940608340088
  0
ARC
  5
2C30
330
220
100
AcDbEntity
  8
0
  6
Continuous
 62
     7
100
AcDbCircle
 10
84.06559035165455
 20
37.09972295134751
 30
0.0
 40
9.788035218500001
100
AcDbArc
 50
275.9588534248006
 51
276.1827170152016
  0
ARC
  5
2C31
330
220
100
AcDbEntity
  8
0
  6
Continuous
 62
     7
100
AcDbCircle
 10
84.15112234735456
 20
36.30921985904752
 30
0.0
 40
8.992933007399999
100
AcDbArc
 50
275.944281231201
 51
276.9732827197017
  0
ARC
  5
2C32
330
220
100
AcDbEntity
  8
0
  6
Continuous
 62
     7
100
AcDbCircle
 10
83.84220288065469
 20
30.74808065504751
 30
0.0
 40
1.458592244399999
100
AcDbArc
 50
353.0032228257012
 51
353.5305039638011
  0
LINE
  5
2C33
330
220
100
AcDbEntity
  8
0
  6
Continuous
 62
     7
100
AcDbLine
 10
85.24292288135473
 20
27.38280872854754
 30
0.0
 11
85.24630410795472
 21
27.38322403194754
 31
0.0
  0
SPLINE
  5
2C34
330
220
100
AcDbEntity
  8
0
  6
Continuous
 62
     7
100
AcDbSpline
210
0.0
220
0.0
230
1.0
 70
     8
 71
     3
 72
     9
 73
     5
 74
     0
 42
0.0000000001
 43
0.0000000001
 40
0.0
 40
0.0
 40
0.0
 40
0.0
 40
0.8624975429999999
 40
1.0
 40
1.0
 40
1.0
 40
1.0
 10
85.24630410795472
 20
27.38322403194754
 30
0.0
 10
85.35839802085474
 20
27.39701585544753
 30
0.0
 10
85.49010991615473
 20
27.41596340124754
 30
0.0
 10
85.62286063115474
 20
27.43970093074754
 30
0.0
 10
85.64113050455473
 20
27.44305972044754
 30
0.0
  0
SPLINE
  5
2C35
330
220
100
AcDbEntity
  8
0
  6
Continuous
 62
     7
100
AcDbSpline
210
0.0
220
0.0
230
1.0
 70
     8
 71
     3
 72
     9
 73
     5
 74
     0
 42
0.0000000001
 43
0.0000000001
 40
0.0
 40
0.0
 40
0.0
 40
0.0
 40
0.7855821751000001
 40
1.0
 40
1.0
 40
1.0
 40
1.0
 10
85.64113050455473
 20
27.44305972044754
 30
0.0
 10
85.86201814225473
 20
27.48366838304755
 30
0.0
 10
86.14623256755473
 20
27.55300434084755
 30
0.0
 10
86.42481487075471
 20
27.65699079034756
 30
0.0
 10
86.48410876535471
 20
27.68102280594756
 30
0.0
  0
SPLINE
  5
2C36
330
220
100
AcDbEntity
  8
0
  6
Continuous
 62
     7
100
AcDbSpline
210
0.0
220
0.0
230
1.0
 70
     8
 71
     3
 72
    13
 73
     9
 74
     0
 42
0.0000000001
 43
0.0000000001
 40
0.0
 40
0.0
 40
0.0
 40
0.0
 40
0.1002009136
 40
0.2706828836
 40
0.4706516022
 40
0.6706203208
 40
0.8348749145000001
 40
1.0
 40
1.0
 40
1.0
 40
1.0
 10
86.49291097785472
 20
27.68460446474756
 30
0.0
 10
86.58156629465471
 20
27.72082100804756
 30
0.0
 10
86.81835009975472
 20
27.82919542364756
 30
0.0
 10
87.20967234765472
 20
28.07318818074757
 30
0.0
 10
87.60991908095469
 20
28.46592781134758
 30
0.0
 10
87.92105778765471
 20
28.90330113324758
 30
0.0
 10
88.14928420185468
 20
29.32574252044759
 30
0.0
 10
88.25778535255469
 20
29.59611827464759
 30
0.0
 10
88.30357137145469
 20
29.73138092524759
 30
0.0
  0
SPLINE
  5
2C37
330
220
100
AcDbEntity
  8
0
  6
Continuous
 62
     7
100
AcDbSpline
210
0.0
220
0.0
230
1.0
 70
     8
 71
     3
 72
    13
 73
     9
 74
     0
 42
0.0000000001
 43
0.0000000001
 40
0.0
 40
0.0
 40
0.0
 40
0.0
 40
0.2251774862
 40
0.467758694
 40
0.5959541693000001
 40
0.7282958436
 40
0.8634964295999999
 40
1.0
 40
1.0
 40
1.0
 40
1.0
 10
88.89185795115468
 20
30.6419031214476
 30
0.0
 10
88.87892993825467
 20
30.6252838021476
 30
0.0
 10
88.85309606345467
 20
30.5899874937476
 30
0.0
 10
88.81981787115469
 20
30.5452616535476
 30
0.0
 10
88.78938336655467
 20
30.5093556166476
 30
0.0
 10
88.76358601085469
 20
30.4827710058476
 30
0.0
 10
88.73481707305467
 20
30.4581799881476
 30
0.0
 10
88.71363249085467
 20
30.4440081059476
 30
0.0
 10
88.70257411675467
 20
30.4376338721476
 30
0.0
  0
SPLINE
  5
2C38
330
220
100
AcDbEntity
  8
0
  6
Continuous
 62
     7
100
AcDbSpline
210
0.0
220
0.0
230
1.0
 70
     8
 71
     3
 72
     8
 73
     4
 74
     0
 42
0.0000000001
 43
0.0000000001
 40
0.0
 40
0.0
 40
0.0
 40
0.0
 40
1.0
 40
1.0
 40
1.0
 40
1.0
 10
88.70257435925466
 20
30.4376334513476
 30
0.0
 10
88.68515624645468
 20
30.4275940372476
 30
0.0
 10
88.66835287515469
 20
30.4170344381476
 30
0.0
 10
88.65258943885468
 20
30.4060914776476
 30
0.0
  0
SPLINE
  5
2C39
330
220
100
AcDbEntity
  8
0
  6
Continuous
 62
     7
100
AcDbSpline
210
0.0
220
0.0
230
1.0
 70
     8
 71
     3
 72
    14
 73
    10
 74
     0
 42
0.0000000001
 43
0.0000000001
 40
0.0
 40
0.0
 40
0.0
 40
0.0
 40
0.0962319832
 40
0.2457112155
 40
0.3951904477000001
 40
0.5582565961000001
 40
0.7213227446
 40
0.884388893
 40
1.0
 40
1.0
 40
1.0
 40
1.0
 10
88.65258943885468
 20
30.4060914776476
 30
0.0
 10
88.64064405585468
 20
30.3977990056476
 30
0.0
 10
88.61166843995468
 20
30.3760635584476
 30
0.0
 10
88.57326729505468
 20
30.3394212553476
 30
0.0
 10
88.54411505275468
 20
30.30048705524759
 30
0.0
 10
88.52191893955469
 20
30.2523329222476
 30
0.0
 10
88.50306309555469
 20
30.18179164664759
 30
0.0
 10
88.49301733445468
 20
30.10789091924759
 30
0.0
 10
88.48966000125468
 20
30.05850859034759
 30
0.0
 10
88.48864816385468
 20
30.0378968456476
 30
0.0
  0
SPLINE
  5
2C3A
330
220
100
AcDbEntity
  8
0
  6
Continuous
 62
     7
100
AcDbSpline
210
0.0
220
0.0
230
1.0
 70
     8
 71
     3
 72
    53
 73
    49
 74
     0
 42
0.0000000001
 43
0.0000000001
 40
0.0
 40
0.0
 40
0.0
 40
0.0
 40
0.0413345033
 40
0.0817893026
 40
0.1215292591
 40
0.1412091384
 40
0.16081366
 40
0.1803924811
 40
0.2000016829
 40
0.2196809729
 40
0.2394701267
 40
0.2593638217
 40
0.279325827
 40
0.2993409032
 40
0.3194009019
 40
0.3394832033
 40
0.3595443688
 40
0.3795304297
 40
0.3993832045
 40
0.4190438977000001
 40
0.4384534801
 40
0.4575329525
 40
0.47618651
 40
0.4853254359000001
 40
0.4943296806000001
 40
0.5119333779000001
 40
0.5289940386000001
 40
0.5455099032000001
 40
0.5614993522000001
 40
0.5769831079
 40
0.60650654
 40
0.6342196234000001
 40
0.6474632477000001
 40
0.6603513578
 40
0.672925463
 40
0.685217143
 40
0.709048153
 40
0.7320642069
 40
0.7545819438
 40
0.7769242777
 40
0.7993065452
 40
0.8219146691
 40
0.8449498656000001
 40
0.8686234901
 40
0.8931057473
 40
0.9447821668999999
 40
0.9720015614000001
 40
1.0
 40
1.0
 40
1.0
 40
1.0
 10
87.9821236042547
 20
29.73373881864759
 30
0.0
 10
87.9574618630547
 20
29.68573489774759
 30
0.0
 10
87.9108624079547
 20
29.58962836614758
 30
0.0
 10
87.8432066106547
 20
29.44611274134758
 30
0.0
 10
87.78490061945468
 20
29.32942639834758
 30
0.0
 10
87.73498353705468
 20
29.23910758754758
 30
0.0
 10
87.6954943327547
 20
29.17315249914758
 30
0.0
 10
87.65332791605471
 20
29.10897696554758
 30
0.0
 10
87.60802125475469
 20
29.04684783604758
 30
0.0
 10
87.5591399989547
 20
28.98711784984758
 30
0.0
 10
87.5064030368547
 20
28.93025958634757
 30
0.0
 10
87.45055658265469
 20
28.87594697734757
 30
0.0
 10
87.3922838675547
 20
28.82381341504757
 30
0.0
 10
87.33196181925469
 20
28.77372970464757
 30
0.0
 10
87.2698655943547
 20
28.72561196174757
 30
0.0
 10
87.2063871252547
 20
28.67924021744757
 30
0.0
 10
87.1421022751547
 20
28.63416919614757
 30
0.0
 10
87.07757160785471
 20
28.58998293774757
 30
0.0
 10
87.0133018553547
 20
28.54634337244757
 30
0.0
 10
86.9497482129547
 20
28.50298870584757
 30
0.0
 10
86.88741153225469
 20
28.45964430394757
 30
0.0
 10
86.82679218625471
 20
28.41614520054756
 30
0.0
 10
86.77779407905472
 20
28.37946823094756
 30
0.0
 10
86.73992385975472
 20
28.34990172124756
 30
0.0
 10
86.70354264285471
 20
28.32066338024756
 30
0.0
 10
86.65976782985472
 20
28.28412334964756
 30
0.0
 10
86.60930685865471
 20
28.24031230854756
 30
0.0
 10
86.56101449115473
 20
28.19722906104756
 30
0.0
 10
86.51470417755472
 20
28.15502322634756
 30
0.0
 10
86.45621700755471
 20
28.10096895484756
 30
0.0
 10
86.38684129355473
 20
28.03614665094756
 30
0.0
 10
86.31950452585471
 20
27.97342455774755
 30
0.0
 10
86.26756435505471
 20
27.92604555644756
 30
0.0
 10
86.22987342105473
 20
27.89237914744755
 30
0.0
 10
86.19264012495472
 20
27.86007238144756
 30
0.0
 10
86.14393378805472
 20
27.81920049474755
 30
0.0
 10
86.08350737455472
 20
27.77110119224755
 30
0.0
 10
86.01046089145471
 20
27.71751576204755
 30
0.0
 10
85.93655519685471
 20
27.66853741234755
 30
0.0
 10
85.86083004205473
 20
27.62402786144755
 30
0.0
 10
85.78278709705474
 20
27.58347573674754
 30
0.0
 10
85.70202589655472
 20
27.54642999324754
 30
0.0
 10
85.61799135935473
 20
27.51273273554754
 30
0.0
 10
85.53012004965474
 20
27.48231927544754
 30
0.0
 10
85.40509672525473
 20
27.44532252684754
 30
0.0
 10
85.27341742805473
 20
27.41504438774753
 30
0.0
 10
85.13610750435473
 20
27.39001395744753
 30
0.0
 10
85.06485804245473
 20
27.37893861254753
 30
0.0
 10
85.02867625965473
 20
27.37372065504753
 30
0.0
  0
LINE
  5
2C3B
330
220
100
AcDbEntity
  8
0
  6
Continuous
 62
     7
100
AcDbLine
 10
85.41347566865466
 20
30.62916313284754
 30
0.0
 11
85.41483426085468
 21
30.64262651734754
 31
0.0
  0
SPLINE
  5
2C3C
330
220
100
AcDbEntity
  8
0
  6
Continuous
 62
     7
100
AcDbSpline
210
0.0
220
0.0
230
1.0
 70
     8
 71
     3
 72
     9
 73
     5
 74
     0
 42
0.0000000001
 43
0.0000000001
 40
0.0
 40
0.0
 40
0.0
 40
0.0
 40
0.4894361322
 40
1.0
 40
1.0
 40
1.0
 40
1.0
 10
85.39084855515467
 20
30.43763356284753
 30
0.0
 10
85.39467593375468
 20
30.46886451444754
 30
0.0
 10
85.40249668585467
 20
30.53267444224754
 30
0.0
 10
85.40990072535468
 20
30.59653539054754
 30
0.0
 10
85.41347566875467
 20
30.62916297504754
 30
0.0
  0
SPLINE
  5
2C3D
330
220
100
AcDbEntity
  8
0
  6
Continuous
 62
     7
100
AcDbSpline
210
0.0
220
0.0
230
1.0
 70
     8
 71
     3
 72
    21
 73
    17
 74
     0
 42
0.0000000001
 43
0.0000000001
 40
0.0
 40
0.0
 40
0.0
 40
0.0
 40
0.132744795
 40
0.2652949522
 40
0.3974132055
 40
0.5286213449
 40
0.5936084399000001
 40
0.6579426750000001
 40
0.7212850262
 40
0.7524439764000001
 40
0.7831578284999999
 40
0.8133051034999999
 40
0.8427034521999999
 40
0.8986491011
 40
0.9508368901
 40
1.0
 40
1.0
 40
1.0
 40
1.0
 10
85.34625680135468
 20
30.04002800914754
 30
0.0
 10
85.34883688795467
 20
30.05754959614753
 30
0.0
 10
85.35391377115468
 20
30.09257890444754
 30
0.0
 10
85.36121052525468
 20
30.14509670194753
 30
0.0
 10
85.36818611395467
 20
30.19745150094753
 30
0.0
 10
85.37357077785468
 20
30.24092298884753
 30
0.0
 10
85.37757613335468
 20
30.27545088184754
 30
0.0
 10
85.38035638895468
 20
30.30100524074754
 30
0.0
 10
85.38242106795468
 20
30.32209634474754
 30
0.0
 10
85.38393160985467
 20
30.33873389704754
 30
0.0
 10
85.38496135325468
 20
30.35096792584754
 30
0.0
 10
85.38584003895467
 20
30.36297833784754
 30
0.0
 10
85.38679884485468
 20
30.37835724034754
 30
0.0
 10
85.38774805745466
 20
30.39668256284754
 30
0.0
 10
85.38927535505468
 20
30.41761401734753
 30
0.0
 10
85.39032178685467
 20
30.43109538064754
 30
0.0
 10
85.39084855515467
 20
30.43763343224754
 30
0.0
  0
SPLINE
  5
2C3E
330
220
100
AcDbEntity
  8
0
  6
Continuous
 62
     7
100
AcDbSpline
210
0.0
220
0.0
230
1.0
 70
     8
 71
     3
 72
    12
 73
     8
 74
     0
 42
0.0000000001
 43
0.0000000001
 40
0.0
 40
0.0
 40
0.0
 40
0.0
 40
0.0867431527
 40
0.1881587748
 40
0.4279707927000001
 40
0.7041251537000001
 40
1.0
 40
1.0
 40
1.0
 40
1.0
 10
85.30668904845468
 20
29.83698448384754
 30
0.0
 10
85.30745280115469
 20
29.84291852364754
 30
0.0
 10
85.30930599905468
 20
29.85576504674753
 30
0.0
 10
85.31408394645469
 20
29.88489553304754
 30
0.0
 10
85.32191044695469
 20
29.92675799634753
 30
0.0
 10
85.33319908545468
 20
29.98160564034753
 30
0.0
 10
85.34171897995468
 20
30.02013136254753
 30
0.0
 10
85.34625680135468
 20
30.04002800764754
 30
0.0
  0
SPLINE
  5
2C3F
330
220
100
AcDbEntity
  8
0
  6
Continuous
 62
     7
100
AcDbSpline
210
0.0
220
0.0
230
1.0
 70
     8
 71
     3
 72
    10
 73
     6
 74
     0
 42
0.0000000001
 43
0.0000000001
 40
0.0
 40
0.0
 40
0.0
 40
0.0
 40
0.5647312058000001
 40
0.8010127260999999
 40
1.0
 40
1.0
 40
1.0
 40
1.0
 10
85.30059352835468
 20
29.73373996604754
 30
0.0
 10
85.3019245285547
 20
29.75316379304754
 30
0.0
 10
85.30371939745469
 20
29.78072129144754
 30
0.0
 10
85.30566124535468
 20
29.81514219034754
 30
0.0
 10
85.30639493835469
 20
29.83013061064754
 30
0.0
 10
85.30668904845468
 20
29.83698448384754
 30
0.0
  0
SPLINE
  5
2C40
330
220
100
AcDbEntity
  8
0
  6
Continuous
 62
     7
100
AcDbSpline
210
0.0
220
0.0
230
1.0
 70
     8
 71
     3
 72
     9
 73
     5
 74
     0
 42
0.0000000001
 43
0.0000000001
 40
0.0
 40
0.0
 40
0.0
 40
0.0
 40
0.2418635473
 40
1.0
 40
1.0
 40
1.0
 40
1.0
 10
85.22628939475469
 20
29.20603943774753
 30
0.0
 10
85.23225040845469
 20
29.24858742084754
 30
0.0
 10
85.25689709385469
 20
29.42450463754753
 30
0.0
 10
85.28164317055468
 20
29.60040806734753
 30
0.0
 10
85.30059352835468
 20
29.73373996614754
 30
0.0
  0
SPLINE
  5
2C41
330
220
100
AcDbEntity
  8
0
  6
Continuous
 62
     7
100
AcDbSpline
210
0.0
220
0.0
230
1.0
 70
     8
 71
     3
 72
    23
 73
    19
 74
     0
 42
0.0000000001
 43
0.0000000001
 40
0.0
 40
0.0
 40
0.0
 40
0.0
 40
0.0180187053
 40
0.039693487
 40
0.0652936915
 40
0.095082761
 40
0.1293814583
 40
0.1688749283
 40
0.214409531
 40
0.2669760649
 40
0.3275888511
 40
0.3972389592
 40
0.4357710146000001
 40
0.4769038472
 40
0.5667638233
 40
0.6656916915
 40
0.7718286585
 40
1.0
 40
1.0
 40
1.0
 40
1.0
 10
85.02867625965473
 20
27.37372005254753
 30
0.0
 10
85.02716071375472
 20
27.38469883624754
 30
0.0
 10
85.02486999865473
 20
27.40902832464753
 30
0.0
 10
85.02328127265473
 20
27.44916838354753
 30
0.0
 10
85.02326325675474
 20
27.49657838454754
 30
0.0
 10
85.02482364465473
 20
27.55172638994753
 30
0.0
 10
85.02798697165472
 20
27.61536237794753
 30
0.0
 10
85.03298338745471
 20
27.68859083264753
 30
0.0
 10
85.0400602167547
 20
27.77292861714753
 30
0.0
 10
85.04950827745473
 20
27.87009405234753
 30
0.0
 10
85.06162668045472
 20
27.98189523144753
 30
0.0
 10
85.07375970715472
 20
28.08500719634753
 30
0.0
 10
85.08506617365473
 20
28.17614904584754
 30
0.0
 10
85.09833512985471
 20
28.27957247694753
 30
0.0
 10
85.11700802065472
 20
28.41975391244753
 30
0.0
 10
85.1416064625547
 20
28.59948006254753
 30
0.0
 10
85.1782825440547
 20
28.86341784274753
 30
0.0
 10
85.2068166713547
 20
29.06705385864753
 30
0.0
 10
85.22628939475469
 20
29.20603936094753
 30
0.0
  0
SPLINE
  5
2C42
330
220
100
AcDbEntity
  8
0
  6
Continuous
 62
     7
100
AcDbSpline
210
0.0
220
0.0
230
1.0
 70
     8
 71
     3
 72
    12
 73
     8
 74
     0
 42
0.0000000001
 43
0.0000000001
 40
0.0
 40
0.0
 40
0.0
 40
0.0
 40
0.1265313991
 40
0.2533591511
 40
0.5062260627000001
 40
0.7561350518000002
 40
1.0
 40
1.0
 40
1.0
 40
1.0
 10
84.83103064245474
 20
26.95416198824753
 30
0.0
 10
84.83622164785472
 20
26.96709939584753
 30
0.0
 10
84.84627388295473
 20
26.99314235654753
 30
0.0
 10
84.86532305715472
 20
27.04556166044753
 30
0.0
 10
84.88750118635472
 20
27.11129389604753
 30
0.0
 10
84.91205471965473
 20
27.18980593634753
 30
0.0
 10
84.92744751895473
 20
27.24198366404753
 30
0.0
 10
84.93493005035473
 20
27.26778730054753
 30
0.0
  0
SPLINE
  5
2C43
330
220
100
AcDbEntity
  8
0
  6
Continuous
 62
     7
100
AcDbSpline
210
0.0
220
0.0
230
1.0
 70
     8
 71
     3
 72
    16
 73
    12
 74
     0
 42
0.0000000001
 43
0.0000000001
 40
0.0
 40
0.0
 40
0.0
 40
0.0
 40
0.1384926258
 40
0.2685854959
 40
0.3917708719
 40
0.5099862950000001
 40
0.6256626946
 40
0.7420284797
 40
0.8639201088
 40
0.9295073712
 40
1.0
 40
1.0
 40
1.0
 40
1.0
 10
84.59245734475475
 20
26.81495278374752
 30
0.0
 10
84.60603664545475
 20
26.81406839804752
 30
0.0
 10
84.63254781915475
 20
26.81433696884753
 30
0.0
 10
84.67068179445474
 20
26.82048888874753
 30
0.0
 10
84.70561241325475
 20
26.83152361394752
 30
0.0
 10
84.73730011685475
 20
26.84686937814753
 30
0.0
 10
84.76586052025472
 20
26.86629835994752
 30
0.0
 10
84.79143429685473
 20
26.89006270144753
 30
0.0
 10
84.80986553455473
 20
26.91374328764752
 30
0.0
 10
84.82273049235473
 20
26.93561594834753
 30
0.0
 10
84.82840333365473
 20
26.94775288934753
 30
0.0
 10
84.83102997305472
 20
26.95416203184753
 30
0.0
  0
SPLINE
  5
2C44
330
220
100
AcDbEntity
  8
0
  6
Continuous
 62
     7
100
AcDbSpline
210
0.0
220
0.0
230
1.0
 70
     8
 71
     3
 72
    19
 73
    15
 74
     0
 42
0.0000000001
 43
0.0000000001
 40
0.0
 40
0.0
 40
0.0
 40
0.0
 40
0.1250855341
 40
0.2497490324
 40
0.3740903579
 40
0.4982196432000001
 40
0.6222839088000001
 40
0.684364595
 40
0.7465426713
 40
0.8089043672
 40
0.8716033059
 40
0.9349666381
 40
0.9671434918
 40
1.0
 40
1.0
 40
1.0
 40
1.0
 10
88.69658414525467
 20
30.6427808699476
 30
0.0
 10
88.69155581975467
 20
30.6366356669476
 30
0.0
 10
88.68169916215467
 20
30.6242156401476
 30
0.0
 10
88.66735648305468
 20
30.6052881895476
 30
0.0
 10
88.65332766205467
 20
30.5862030874476
 30
0.0
 10
88.63943593385467
 20
30.56706570134759
 30
0.0
 10
88.62779916045466
 20
30.5511745718476
 30
0.0
 10
88.61831202815467
 20
30.53858550194759
 30
0.0
 10
88.61104823615468
 20
30.5292267935476
 30
0.0
 10
88.60356446775467
 20
30.5199909701476
 30
0.0
 10
88.59574431585468
 20
30.5109387714476
 30
0.0
 10
88.58880585215468
 20
30.50366078774759
 30
0.0
 10
88.58277906435468
 20
30.4981706869476
 30
0.0
 10
88.57951442895467
 20
30.4956255570476
 30
0.0
 10
88.57777558615467
 20
30.4944738177476
 30
0.0
  0
SPLINE
  5
2C45
330
220
100
AcDbEntity
  8
0
  6
Continuous
 62
     7
100
AcDbSpline
210
0.0
220
0.0
230
1.0
 70
     8
 71
     3
 72
    12
 73
     8
 74
     0
 42
0.0000000001
 43
0.0000000001
 40
0.0
 40
0.0
 40
0.0
 40
0.0
 40
0.2596202858
 40
0.5146017644
 40
0.7628704124
 40
0.8833043834999999
 40
1.0
 40
1.0
 40
1.0
 40
1.0
 10
88.57777558615467
 20
30.4944738230476
 30
0.0
 10
88.57137465985466
 20
30.4902300357476
 30
0.0
 10
88.55884413755466
 20
30.4815761909476
 30
0.0
 10
88.54088947575467
 20
30.4678928626476
 30
0.0
 10
88.52690816455467
 20
30.4558204630476
 30
0.0
 10
88.51675535575468
 20
30.44565897034759
 30
0.0
 10
88.51214253605467
 20
30.44035930374759
 30
0.0
 10
88.51002450585466
 20
30.43763342104759
 30
0.0
  0
SPLINE
  5
2C46
330
220
100
AcDbEntity
  8
0
  6
Continuous
 62
     7
100
AcDbSpline
210
0.0
220
0.0
230
1.0
 70
     8
 71
     3
 72
    31
 73
    27
 74
     0
 42
0.0000000001
 43
0.0000000001
 40
0.0
 40
0.0
 40
0.0
 40
0.0
 40
0.0597669489
 40
0.0898070391
 40
0.1199732427
 40
0.1503254738
 40
0.1808758801
 40
0.2115908995
 40
0.2424332443
 40
0.2733722583
 40
0.3043686762
 40
0.3353256524
 40
0.3662572167
 40
0.397240601
 40
0.428295393
 40
0.459411026
 40
0.4906039461000001
 40
0.5219235588000001
 40
0.5533796225
 40
0.6165518766
 40
0.6800389394
 40
0.7437965547
 40
0.8077220093000001
 40
0.8717534652999999
 40
0.9358565827999999
 40
1.0
 40
1.0
 40
1.0
 40
1.0
 10
88.51002450585466
 20
30.43763364574759
 30
0.0
 10
88.50054917025467
 20
30.43323926544759
 30
0.0
 10
88.48629128365468
 20
30.42667829214759
 30
0.0
 10
88.46738784865468
 20
30.41760849294759
 30
0.0
 10
88.45316571765467
 20
30.4106668151476
 30
0.0
 10
88.43885646775467
 20
30.40370030064759
 30
0.0
 10
88.42445009705468
 20
30.39671418344759
 30
0.0
 10
88.40998622115469
 20
30.38965056604759
 30
0.0
 10
88.39552374765467
 20
30.38242915914759
 30
0.0
 10
88.38120535945469
 20
30.37481617684759
 30
0.0
 10
88.36719204925467
 20
30.36660773094759
 30
0.0
 10
88.35373254505467
 20
30.35750302574759
 30
0.0
 10
88.34112831705466
 20
30.34724546784759
 30
0.0
 10
88.32936184925468
 20
30.33602184254759
 30
0.0
 10
88.31837018215468
 20
30.32399650874759
 30
0.0
 10
88.30823692065468
 20
30.31118888834759
 30
0.0
 10
88.29910883525467
 20
30.29758955654759
 30
0.0
 10
88.29097771225468
 20
30.28330752394759
 30
0.0
 10
88.28125916195467
 20
30.26354880564759
 30
0.0
 10
88.27090540695467
 20
30.23788249954759
 30
0.0
 10
88.26120435935468
 20
30.20601375174759
 30
0.0
 10
88.25383654125467
 20
30.17340567514759
 30
0.0
 10
88.24816886425468
 20
30.14037286704759
 30
0.0
 10
88.24396236015466
 20
30.10706418724759
 30
0.0
 10
88.24094324245468
 20
30.07359288664759
 30
0.0
 10
88.23953254975467
 20
30.05122280174759
 30
0.0
 10
88.23894838435467
 20
30.04002847314759
 30
0.0
  0
SPLINE
  5
2C47
330
220
100
AcDbEntity
  8
0
  6
Continuous
 62
     7
100
AcDbSpline
210
0.0
220
0.0
230
1.0
 70
     8
 71
     3
 72
    27
 73
    23
 74
     0
 42
0.0000000001
 43
0.0000000001
 40
0.0
 40
0.0
 40
0.0
 40
0.0
 40
0.1178957132
 40
0.1751484766
 40
0.2312214366
 40
0.3390574233
 40
0.4398035507
 40
0.5317967659000001
 40
0.6135235701
 40
0.6847632882
 40
0.7463377252
 40
0.7991742248
 40
0.8442917620999999
 40
0.8827586392
 40
0.9155671484999999
 40
0.9433587559999999
 40
0.9554947553999999
 40
0.9665069622
 40
0.9764264031999999
 40
0.9852869717
 40
0.9931289977999998
 40
1.0
 40
1.0
 40
1.0
 40
1.0
 10
84.8459423970547
 20
29.06346001724753
 30
0.0
 10
84.83416600645471
 20
28.97526284164753
 30
0.0
 10
84.8167242680547
 20
28.84422801774752
 30
0.0
 10
84.7937828224547
 20
28.67123184374753
 30
0.0
 10
84.7718951786547
 20
28.50575482704753
 30
0.0
 10
84.74591187865472
 20
28.30770767374753
 30
0.0
 10
84.71697518765472
 20
28.08270602874753
 30
0.0
 10
84.69118183835472
 20
27.87716874434753
 30
0.0
 10
84.66882237445473
 20
27.69364605204753
 30
0.0
 10
84.64964247265474
 20
27.53286445814753
 30
0.0
 10
84.63351166685473
 20
27.39367880474753
 30
0.0
 10
84.62025518805473
 20
27.27400851924752
 30
0.0
 10
84.60964887495473
 20
27.17159357604753
 30
0.0
 10
84.60144173685474
 20
27.08413034254752
 30
0.0
 10
84.59531037475473
 20
27.00961133504752
 30
0.0
 10
84.59168541775474
 20
26.95483001604753
 30
0.0
 10
84.58991827345473
 20
26.91642328244752
 30
0.0
 10
84.58919160655474
 20
26.89147504614752
 30
0.0
 10
84.58902854075473
 20
26.86898822764752
 30
0.0
 10
84.58945648415475
 20
26.84889644294752
 30
0.0
 10
84.59050345935475
 20
26.83113086864752
 30
0.0
 10
84.59170932595474
 20
26.82008423194752
 30
0.0
 10
84.59245736485476
 20
26.81495268744753
 30
0.0
  0
SPLINE
  5
2C48
330
220
100
AcDbEntity
  8
0
  6
Continuous
 62
     7
100
AcDbSpline
210
0.0
220
0.0
230
1.0
 70
     8
 71
     3
 72
    27
 73
    23
 74
     0
 42
0.0000000001
 43
0.0000000001
 40
0.0
 40
0.0
 40
0.0
 40
0.0
 40
0.121896885
 40
0.2388023294
 40
0.3495345723
 40
0.4522264432
 40
0.5447950995000001
 40
0.6258164339
 40
0.6957202819
 40
0.7556318481000001
 40
0.8067529418999999
 40
0.8503692712000001
 40
0.8697610438999999
 40
0.8877394140999999
 40
0.9197087729999999
 40
0.9466375045999999
 40
0.9583087812
 40
0.9688357865999998
 40
0.9782541228999999
 40
0.9865768170999999
 40
0.9938166659
 40
1.0
 40
1.0
 40
1.0
 40
1.0
 10
85.0922750249547
 20
29.15698481224753
 30
0.0
 10
85.07983614985469
 20
29.06763436574753
 30
0.0
 10
85.05545892675469
 20
28.89259342974753
 30
0.0
 10
85.0198308316547
 20
28.63637894154753
 30
0.0
 10
84.98636043635471
 20
28.39421426004753
 30
0.0
 10
84.95564123745472
 20
28.16985159034753
 30
0.0
 10
84.92837966485472
 20
27.96720907744753
 30
0.0
 10
84.90502425795472
 20
27.78852627234753
 30
0.0
 10
84.88538947575474
 20
27.63373236224753
 30
0.0
 10
84.86919002445473
 20
27.50080960604753
 30
0.0
 10
84.85608129175473
 20
27.38711083324753
 30
0.0
 10
84.84711029005472
 20
27.30312379954753
 30
0.0
 10
84.84118349615473
 20
27.24348175684753
 30
0.0
 10
84.83635033625473
 20
27.19239365394753
 30
0.0
 10
84.83146964415473
 20
27.13570812064753
 30
0.0
 10
84.82797251955473
 20
27.08359239194753
 30
0.0
 10
84.82644681295473
 20
27.04726500664753
 30
0.0
 10
84.82595749605472
 20
27.02386942964753
 30
0.0
 10
84.82608269635473
 20
27.00294640364753
 30
0.0
 10
84.82687161645474
 20
26.98446938604753
 30
0.0
 10
84.82837684545472
 20
26.96843903034753
 30
0.0
 10
84.83001753695473
 20
26.95862477654753
 30
0.0
 10
84.83103015355473
 20
26.95416212564753
 30
0.0
  0
LINE
  5
2C49
330
220
100
AcDbEntity
  8
0
  6
Continuous
 62
     7
100
AcDbLine
 10
84.85848237775469
 20
29.15855869434753
 30
0.0
 11
84.8459423970547
 21
29.06345886344753
 31
0.0
  0
LINE
  5
2C4A
330
220
100
AcDbEntity
  8
0
  6
Continuous
 62
     7
100
AcDbLine
 10
85.10488058575468
 20
29.24759193004753
 30
0.0
 11
85.0922749852547
 21
29.15698481884753
 31
0.0
  0
SPLINE
  5
2C4B
330
220
100
AcDbEntity
  8
0
  6
Continuous
 62
     7
100
AcDbSpline
210
0.0
220
0.0
230
1.0
 70
     8
 71
     3
 72
     9
 73
     5
 74
     0
 42
0.0000000001
 43
0.0000000001
 40
0.0
 40
0.0
 40
0.0
 40
0.0
 40
0.2619468448
 40
1.0
 40
1.0
 40
1.0
 40
1.0
 10
85.28993175695466
 20
30.57040459104754
 30
0.0
 10
85.27370163975467
 20
30.45491251654754
 30
0.0
 10
85.21179072855467
 20
30.01400679544753
 30
0.0
 10
85.1501271984547
 20
29.57306624104754
 30
0.0
 10
85.10488058405469
 20
29.24759193034753
 30
0.0
  0
SPLINE
  5
2C4C
330
220
100
AcDbEntity
  8
0
  6
Continuous
 62
     7
100
AcDbSpline
210
0.0
220
0.0
230
1.0
 70
     8
 71
     3
 72
     9
 73
     5
 74
     0
 42
0.0000000001
 43
0.0000000001
 40
0.0
 40
0.0
 40
0.0
 40
0.0
 40
0.2620856441
 40
1.0
 40
1.0
 40
1.0
 40
1.0
 10
85.04497592725467
 20
30.58411249474753
 30
0.0
 10
85.02860601745467
 20
30.45958358794753
 30
0.0
 10
84.96619807335468
 20
29.98443088844753
 30
0.0
 10
84.90405106135469
 20
29.50924380694753
 30
0.0
 10
84.85848237775469
 20
29.15855869434753
 30
0.0
  0
LINE
  5
2C4D
330
220
100
AcDbEntity
  8
0
  6
Continuous
 62
     7
100
AcDbLine
 10
88.89416563075467
 20
30.6453628735476
 30
0.0
 11
88.89185787095469
 21
30.6419030153476
 31
0.0
  0
SPLINE
  5
2C4E
330
220
100
AcDbEntity
  8
0
  6
Continuous
 62
     7
100
AcDbSpline
210
0.0
220
0.0
230
1.0
 70
     8
 71
     3
 72
    23
 73
    19
 74
     0
 42
0.0000000001
 43
0.0000000001
 40
0.0
 40
0.0
 40
0.0
 40
0.0
 40
0.039661129
 40
0.0733024758
 40
0.1008537336
 40
0.1233318351
 40
0.1336847203
 40
0.1442510823
 40
0.1687292004
 40
0.2015456214
 40
0.2452829618
 40
0.3012924603
 40
0.369736647
 40
0.4503049212
 40
0.5422134335000001
 40
0.6443262044
 40
0.7554726188
 40
1.0
 40
1.0
 40
1.0
 40
1.0
 10
88.30355790115469
 20
29.73139891794759
 30
0.0
 10
88.30388215145468
 20
29.73235464384759
 30
0.0
 10
88.30442294635469
 20
29.73414253754759
 30
0.0
 10
88.30489274245469
 20
29.73667369944759
 30
0.0
 10
88.30492095935468
 20
29.73881663164759
 30
0.0
 10
88.30446131345469
 20
29.74033273214759
 30
0.0
 10
88.30376081805468
 20
29.74120318034759
 30
0.0
 10
88.30281185535469
 20
29.74188632744759
 30
0.0
 10
88.30107538805469
 20
29.74228945174759
 30
0.0
 10
88.29849773155469
 20
29.74208098834759
 30
0.0
 10
88.2952136779547
 20
29.74127003204759
 30
0.0
 10
88.29117963345469
 20
29.73982981304759
 30
0.0
 10
88.28636729035469
 20
29.73781166064759
 30
0.0
 10
88.28079174175469
 20
29.73526143644759
 30
0.0
 10
88.27448236025469
 20
29.73225899534759
 30
0.0
 10
88.26748137125468
 20
29.72889917804759
 30
0.0
 10
88.25695370265469
 20
29.72391270924759
 30
0.0
 10
88.24870634835468
 20
29.72018001684759
 30
0.0
 10
88.2429864664547
 20
29.71773043584759
 30
0.0
  0
SPLINE
  5
2C4F
330
220
100
AcDbEntity
  8
0
  6
Continuous
 62
     7
100
AcDbSpline
210
0.0
220
0.0
230
1.0
 70
     8
 71
     3
 72
    11
 73
     7
 74
     0
 42
0.0000000001
 43
0.0000000001
 40
0.0
 40
0.0
 40
0.0
 40
0.0
 40
0.2419347061
 40
0.4863002175
 40
0.7378373562000001
 40
1.0
 40
1.0
 40
1.0
 40
1.0
 10
88.24298756485468
 20
29.71772962434759
 30
0.0
 10
88.23497982545468
 20
29.71430152104759
 30
0.0
 10
88.21810119675468
 20
29.70909545514759
 30
0.0
 10
88.19145351905468
 20
29.70675577634759
 30
0.0
 10
88.16417284225469
 20
29.70990185854759
 30
0.0
 10
88.14639562505469
 20
29.71539339674759
 30
0.0
 10
88.13763488075469
 20
29.71890670814759
 30
0.0
  0
SPLINE
  5
2C50
330
220
100
AcDbEntity
  8
0
  6
Continuous
 62
     7
100
AcDbSpline
210
0.0
220
0.0
230
1.0
 70
     8
 71
     3
 72
    11
 73
     7
 74
     0
 42
0.0000000001
 43
0.0000000001
 40
0.0
 40
0.0
 40
0.0
 40
0.0
 40
0.2356375601
 40
0.4777211589000001
 40
0.7314480172
 40
1.0
 40
1.0
 40
1.0
 40
1.0
 10
88.33072978015469
 20
29.81761109024759
 30
0.0
 10
88.32071622765468
 20
29.81365878414759
 30
0.0
 10
88.3013360465547
 20
29.80307065144759
 30
0.0
 10
88.27648278305469
 20
29.78030145964759
 30
0.0
 10
88.25641352885469
 20
29.75141492284759
 30
0.0
 10
88.2468776537547
 20
29.72936562414759
 30
0.0
 10
88.24298756485468
 20
29.71772962434759
 30
0.0
  0
SPLINE
  5
2C51
330
220
100
AcDbEntity
  8
0
  6
Continuous
 62
     7
100
AcDbSpline
210
0.0
220
0.0
230
1.0
 70
     8
 71
     3
 72
    14
 73
    10
 74
     0
 42
0.0000000001
 43
0.0000000001
 40
0.0
 40
0.0
 40
0.0
 40
0.0
 40
0.107791941
 40
0.221986565
 40
0.3425013884000001
 40
0.4686173799000001
 40
0.5990975486
 40
0.7321776498000001
 40
1.0
 40
1.0
 40
1.0
 40
1.0
 10
88.13763489045468
 20
29.71890669484759
 30
0.0
 10
88.13234275785468
 20
29.72102979994759
 30
0.0
 10
88.12136946315469
 20
29.72522227614759
 30
0.0
 10
88.10411239505468
 20
29.73077856304758
 30
0.0
 10
88.0855605533547
 20
29.73534918664759
 30
0.0
 10
88.06583781985469
 20
29.73850523754758
 30
0.0
 10
88.04524660205469
 20
29.73995756234759
 30
0.0
 10
88.0171122699547
 20
29.73944421624759
 30
0.0
 10
87.99601684375469
 20
29.73650403414758
 30
0.0
 10
87.98212329565469
 20
29.73373073414759
 30
0.0
  0
SPLINE
  5
2C52
330
220
100
AcDbEntity
  8
0
  6
Continuous
 62
     7
100
AcDbSpline
210
0.0
220
0.0
230
1.0
 70
     8
 71
     3
 72
    11
 73
     7
 74
     0
 42
0.0000000001
 43
0.0000000001
 40
0.0
 40
0.0
 40
0.0
 40
0.0
 40
0.2193767647
 40
0.4599253345000001
 40
0.7210619955
 40
1.0
 40
1.0
 40
1.0
 40
1.0
 10
88.23894827725469
 20
29.81522497234759
 30
0.0
 10
88.22937046115468
 20
29.81123691594759
 30
0.0
 10
88.21021871705468
 20
29.80056638474759
 30
0.0
 10
88.18376477355469
 20
29.77882722084759
 30
0.0
 10
88.15900896385469
 20
29.75127960724759
 30
0.0
 10
88.14448741575469
 20
29.73017900584759
 30
0.0
 10
88.13763489045468
 20
29.71890669484759
 30
0.0
  0
ENDSEC
  0
SECTION
  2
OBJECTS
  0
DICTIONARY
  5
C
330
0
100
AcDbDictionary
281
     1
  3
ACAD_COLOR
350
D07
  3
ACAD_GROUP
350
D
  3
ACAD_LAYOUT
350
1A
  3
ACAD_MATERIAL
350
CDD
  3
ACAD_MLEADERSTYLE
350
D2A
  3
ACAD_MLINESTYLE
350
17
  3
ACAD_PLOTSETTINGS
350
19
  3
ACAD_PLOTSTYLENAME
350
E
  3
ACAD_SCALELIST
350
D08
  3
ACAD_TABLESTYLE
350
CD6
  3
ACAD_VISUALSTYLE
350
CF6
  3
ACDB_RECOMPOSE_DATA
350
D39
  3
AcDbVariableDictionary
350
D3A
  3
AcmDictionary
350
D9D
  3
AMG
350
D44
  3
AMGSNAPSETTINGS
350
1949
  0
DICTIONARY
  5
DDE
330
10
100
AcDbDictionary
280
     1
281
     1
  3
ADSK_XREC_LAYER_RECONCILED
360
DDF
  0
DICTIONARY
  5
DFE
330
209
100
AcDbDictionary
280
     1
281
     1
  3
ADSK_XREC_LAYER_RECONCILED
360
DFF
  0
DICTIONARY
  5
2922
330
220
100
AcDbDictionary
280
     1
281
     1
  3
ACAD_SORTENTS
360
2923
  0
DICTIONARY
  5
D07
102
{ACAD_REACTORS
330
C
102
}
330
C
100
AcDbDictionary
281
     1
  0
DICTIONARY
  5
D
102
{ACAD_REACTORS
330
C
102
}
330
C
100
AcDbDictionary
281
     1
  0
DICTIONARY
  5
1A
102
{ACAD_REACTORS
330
C
102
}
330
C
100
AcDbDictionary
281
     1
  3
Layout1
350
CD8
  3
Model
350
CD7
  0
DICTIONARY
  5
CDD
102
{ACAD_REACTORS
330
C
102
}
330
C
100
AcDbDictionary
281
     1
  3
ByBlock
350
CE6
  3
ByLayer
350
CDE
  3
Global
350
CEE
  0
DICTIONARY
  5
D2A
102
{ACAD_REACTORS
330
C
102
}
330
C
100
AcDbDictionary
281
     1
  3
Standard
350
D2B
  0
DICTIONARY
  5
17
102
{ACAD_REACTORS
330
C
102
}
330
C
100
AcDbDictionary
281
     1
  3
Standard
350
18
  0
DICTIONARY
  5
19
102
{ACAD_REACTORS
330
C
102
}
330
C
100
AcDbDictionary
281
     1
  0
ACDBDICTIONARYWDFLT
  5
E
102
{ACAD_REACTORS
330
C
102
}
330
C
100
AcDbDictionary
281
     1
  3
Normal
350
F
100
AcDbDictionaryWithDefault
340
F
  0
DICTIONARY
  5
D08
102
{ACAD_REACTORS
330
C
102
}
330
C
100
AcDbDictionary
281
     1
  3
A0
350
D09
  3
A1
350
D0A
  3
A2
350
D0B
  3
A3
350
D0C
  3
A4
350
D0D
  3
A5
350
D0E
  3
A6
350
D0F
  3
A7
350
D10
  3
A8
350
D11
  3
A9
350
D12
  3
B0
350
D13
  3
B1
350
D14
  3
B2
350
D15
  3
B3
350
D16
  3
B4
350
D17
  3
B5
350
D18
  3
B6
350
D19
  3
B7
350
D1A
  3
B8
350
D1B
  3
B9
350
D1C
  3
C0
350
D1D
  3
C1
350
D1E
  3
C2
350
D1F
  3
C3
350
D20
  3
C4
350
D21
  3
C5
350
D22
  3
C6
350
D23
  3
C7
350
D24
  3
C8
350
D25
  3
C9
350
D26
  3
D0
350
D27
  3
D1
350
D28
  3
D2
350
D29
  0
DICTIONARY
  5
CD6
330
C
100
AcDbDictionary
281
     1
  3
Standard
350
CD9
  0
DICTIONARY
  5
CF6
102
{ACAD_REACTORS
330
C
102
}
330
C
100
AcDbDictionary
281
     1
  3
2dWireframe
350
CFC
  3
3D Hidden
350
CFE
  3
3dWireframe
350
CFD
  3
Basic
350
CFB
  3
Brighten
350
D02
  3
ColorChange
350
D06
  3
Conceptual
350
CFF
  3
Dim
350
D01
  3
Facepattern
350
D05
  3
Flat
350
CF7
  3
FlatWithEdges
350
CF8
  3
Gouraud
350
CF9
  3
GouraudWithEdges
350
CFA
  3
Linepattern
350
D04
  3
Realistic
350
D00
  3
Thicken
350
D03
  0
XRECORD
  5
D39
102
{ACAD_REACTORS
330
C
102
}
330
C
100
AcDbXrecord
280
     1
 90
        1
330
CD9
  0
DICTIONARY
  5
D3A
102
{ACAD_REACTORS
330
C
102
}
330
C
100
AcDbDictionary
281
     1
  3
CANNOSCALE
350
D3D
  3
CMLEADERSTYLE
350
D3C
  3
CTABLESTYLE
350
D3B
  3
LAYEREVAL
350
2931
  3
LAYERNOTIFY
350
2932
  0
DICTIONARY
  5
D9D
102
{ACAD_REACTORS
330
C
102
}
330
C
100
AcDbDictionary
281
     1
  3
AcmStdDictionary
350
DAA
  3
AMDTSECTSYM_ARROWCOLOR
350
294E
  0
DICTIONARY
  5
D44
102
{ACAD_REACTORS
330
C
102
}
330
C
100
AcDbDictionary
281
     1
  0
DICTIONARY
  5
1949
102
{ACAD_REACTORS
330
C
102
}
330
C
100
AcDbDictionary
281
     1
  0
XRECORD
  5
DDF
102
{ACAD_REACTORS
330
DDE
102
}
330
DDE
100
AcDbXrecord
280
     1
290
     1
  0
XRECORD
  5
DFF
102
{ACAD_REACTORS
330
DFE
102
}
330
DFE
100
AcDbXrecord
280
     1
290
     1
  0
SORTENTSTABLE
  5
2923
102
{ACAD_REACTORS
330
2922
102
}
330
2922
100
AcDbSortentsTable
330
220
  0
LAYOUT
  5
CD8
102
{ACAD_REACTORS
330
1A
102
}
330
1A
100
AcDbPlotSettings
  1

  2
none_device
  4
ANSI_D_(34.00_x_22.00_Inches)
  6

 40
0.0
 41
0.0
 42
0.0
 43
0.0
 44
863.6000000000001
 45
558.8
 46
0.0
 47
0.0
 48
0.0
 49
0.0
140
0.0
141
0.0
142
1.0
143
1.0
 70
     0
 72
     0
 73
     0
 74
     0
  7

 75
     0
147
1.0
 76
     0
 77
     2
 78
   300
148
0.0
149
0.0
100
AcDbLayout
  1
Layout1
 70
     1
 71
     1
 10
0.0
 20
0.0
 11
12.0
 21
9.0
 12
0.0
 22
0.0
 32
0.0
 14
1.000000000000000E+20
 24
1.000000000000000E+20
 34
1.000000000000000E+20
 15
-1.000000000000000E+20
 25
-1.000000000000000E+20
 35
-1.000000000000000E+20
146
0.0
 13
0.0
 23
0.0
 33
0.0
 16
1.0
 26
0.0
 36
0.0
 17
0.0
 27
1.0
 37
0.0
 76
     0
330
221
  0
LAYOUT
  5
CD7
102
{ACAD_REACTORS
330
1A
102
}
330
1A
100
AcDbPlotSettings
  1

  2
none_device
  4
ANSI_D_(34.00_x_22.00_Inches)
  6

 40
0.0
 41
0.0
 42
0.0
 43
0.0
 44
863.6000000000001
 45
558.8
 46
0.0
 47
0.0
 48
0.0
 49
0.0
140
0.0
141
0.0
142
1.0
143
1.0
 70
  1024
 72
     0
 73
     0
 74
     0
  7

 75
     0
147
1.0
 76
     0
 77
     2
 78
   300
148
0.0
149
0.0
100
AcDbLayout
  1
Model
 70
     0
 71
     0
 10
0.0
 20
0.0
 11
34.0
 21
22.0
 12
0.0
 22
0.0
 32
0.0
 14
0.0
 24
0.0
 34
0.0
 15
0.0
 25
0.0
 35
0.0
146
0.0
 13
0.0
 23
0.0
 33
0.0
 16
1.0
 26
0.0
 36
0.0
 17
0.0
 27
1.0
 37
0.0
 76
     0
330
220
331
1F4
  0
MATERIAL
  5
CE6
102
{ACAD_XDICTIONARY
360
CE7
102
}
102
{ACAD_REACTORS
330
CDD
102
}
330
CDD
100
AcDbMaterial
  1
ByBlock
 72
     0
 43
0.0208333333333333
 43
0.0
 43
0.0
 43
0.0
 43
0.0
 43
0.0208333333333333
 43
0.0
 43
0.0
 43
0.0
 43
0.0
 43
1.0
 43
0.0
 43
0.0
 43
0.0
 43
0.0
 43
1.0
 77
     0
 47
0.0208333333333333
 47
0.0
 47
0.0
 47
0.0
 47
0.0
 47
0.0208333333333333
 47
0.0
 47
0.0
 47
0.0
 47
0.0
 47
1.0
 47
0.0
 47
0.0
 47
0.0
 47
0.0
 47
1.0
171
     0
 49
0.0208333333333333
 49
0.0
 49
0.0
 49
0.0
 49
0.0
 49
0.0208333333333333
 49
0.0
 49
0.0
 49
0.0
 49
0.0
 49
1.0
 49
0.0
 49
0.0
 49
0.0
 49
0.0
 49
1.0
175
     0
142
0.0208333333333333
142
0.0
142
0.0
142
0.0
142
0.0
142
0.0208333333333333
142
0.0
142
0.0
142
0.0
142
0.0
142
1.0
142
0.0
142
0.0
142
0.0
142
0.0
142
1.0
179
     0
144
0.0208333333333333
144
0.0
144
0.0
144
0.0
144
0.0
144
0.0208333333333333
144
0.0
144
0.0
144
0.0
144
0.0
144
1.0
144
0.0
144
0.0
144
0.0
144
0.0
144
1.0
147
0.0208333333333333
147
0.0
147
0.0
147
0.0
147
0.0
147
0.0208333333333333
147
0.0
147
0.0
147
0.0
147
0.0
147
1.0
147
0.0
147
0.0
147
0.0
147
0.0
147
1.0
  0
MATERIAL
  5
CDE
102
{ACAD_XDICTIONARY
360
CDF
102
}
102
{ACAD_REACTORS
330
CDD
102
}
330
CDD
100
AcDbMaterial
  1
ByLayer
 72
     0
 43
0.0208333333333333
 43
0.0
 43
0.0
 43
0.0
 43
0.0
 43
0.0208333333333333
 43
0.0
 43
0.0
 43
0.0
 43
0.0
 43
1.0
 43
0.0
 43
0.0
 43
0.0
 43
0.0
 43
1.0
 77
     0
 47
0.0208333333333333
 47
0.0
 47
0.0
 47
0.0
 47
0.0
 47
0.0208333333333333
 47
0.0
 47
0.0
 47
0.0
 47
0.0
 47
1.0
 47
0.0
 47
0.0
 47
0.0
 47
0.0
 47
1.0
171
     0
 49
0.0208333333333333
 49
0.0
 49
0.0
 49
0.0
 49
0.0
 49
0.0208333333333333
 49
0.0
 49
0.0
 49
0.0
 49
0.0
 49
1.0
 49
0.0
 49
0.0
 49
0.0
 49
0.0
 49
1.0
175
     0
142
0.0208333333333333
142
0.0
142
0.0
142
0.0
142
0.0
142
0.0208333333333333
142
0.0
142
0.0
142
0.0
142
0.0
142
1.0
142
0.0
142
0.0
142
0.0
142
0.0
142
1.0
179
     0
144
0.0208333333333333
144
0.0
144
0.0
144
0.0
144
0.0
144
0.0208333333333333
144
0.0
144
0.0
144
0.0
144
0.0
144
1.0
144
0.0
144
0.0
144
0.0
144
0.0
144
1.0
147
0.0208333333333333
147
0.0
147
0.0
147
0.0
147
0.0
147
0.0208333333333333
147
0.0
147
0.0
147
0.0
147
0.0
147
1.0
147
0.0
147
0.0
147
0.0
147
0.0
147
1.0
  0
MATERIAL
  5
CEE
102
{ACAD_XDICTIONARY
360
CEF
102
}
102
{ACAD_REACTORS
330
CDD
102
}
330
CDD
100
AcDbMaterial
  1
Global
 72
     0
 43
0.0208333333333333
 43
0.0
 43
0.0
 43
0.0
 43
0.0
 43
0.0208333333333333
 43
0.0
 43
0.0
 43
0.0
 43
0.0
 43
1.0
 43
0.0
 43
0.0
 43
0.0
 43
0.0
 43
1.0
 77
     0
 47
0.0208333333333333
 47
0.0
 47
0.0
 47
0.0
 47
0.0
 47
0.0208333333333333
 47
0.0
 47
0.0
 47
0.0
 47
0.0
 47
1.0
 47
0.0
 47
0.0
 47
0.0
 47
0.0
 47
1.0
171
     0
 49
0.0208333333333333
 49
0.0
 49
0.0
 49
0.0
 49
0.0
 49
0.0208333333333333
 49
0.0
 49
0.0
 49
0.0
 49
0.0
 49
1.0
 49
0.0
 49
0.0
 49
0.0
 49
0.0
 49
1.0
175
     0
142
0.0208333333333333
142
0.0
142
0.0
142
0.0
142
0.0
142
0.0208333333333333
142
0.0
142
0.0
142
0.0
142
0.0
142
1.0
142
0.0
142
0.0
142
0.0
142
0.0
142
1.0
179
     0
144
0.0208333333333333
144
0.0
144
0.0
144
0.0
144
0.0
144
0.0208333333333333
144
0.0
144
0.0
144
0.0
144
0.0
144
1.0
144
0.0
144
0.0
144
0.0
144
0.0
144
1.0
147
0.0208333333333333
147
0.0
147
0.0
147
0.0
147
0.0
147
0.0208333333333333
147
0.0
147
0.0
147
0.0
147
0.0
147
1.0
147
0.0
147
0.0
147
0.0
147
0.0
147
1.0
  0
MLEADERSTYLE
  5
D2B
102
{ACAD_REACTORS
330
D2A
102
}
330
D2A
100
AcDbMLeaderStyle
170
     2
171
     1
172
     0
 90
        2
 40
0.0
 41
0.0
173
     1
 91
-1056964608
340
14
 92
       -2
290
     1
 42
0.09
291
     1
 43
0.36
  3
Standard
 44
0.18
300

342
11
174
     1
178
     6
175
     1
176
     0
 93
-1056964608
 45
0.18
292
     0
297
     0
 46
0.18
 94
-1056964608
 47
1.0
 49
1.0
140
1.0
293
     1
141
0.0
294
     1
177
     0
142
1.0
295
     0
296
     0
143
0.125
1001
ACAD_MLEADERVER
1070
     2
  0
MLINESTYLE
  5
18
102
{ACAD_REACTORS
330
17
102
}
330
17
100
AcDbMlineStyle
  2
STANDARD
 70
     0
  3

 62
   256
 51
90.0
 52
90.0
 71
     2
 49
0.5
 62
   256
  6
BYLAYER
 49
-0.5
 62
   256
  6
BYLAYER
  0
ACDBPLACEHOLDER
  5
F
102
{ACAD_REACTORS
330
E
102
}
330
E
  0
SCALE
  5
D09
102
{ACAD_REACTORS
330
D08
102
}
330
D08
100
AcDbScale
 70
     0
300
1:1
140
1.0
141
1.0
290
     1
  0
SCALE
  5
D0A
102
{ACAD_REACTORS
330
D08
102
}
330
D08
100
AcDbScale
 70
     0
300
1:2
140
1.0
141
2.0
290
     0
  0
SCALE
  5
D0B
102
{ACAD_REACTORS
330
D08
102
}
330
D08
100
AcDbScale
 70
     0
300
1:4
140
1.0
141
4.0
290
     0
  0
SCALE
  5
D0C
102
{ACAD_REACTORS
330
D08
102
}
330
D08
100
AcDbScale
 70
     0
300
1:5
140
1.0
141
5.0
290
     0
  0
SCALE
  5
D0D
102
{ACAD_REACTORS
330
D08
102
}
330
D08
100
AcDbScale
 70
     0
300
1:8
140
1.0
141
8.0
290
     0
  0
SCALE
  5
D0E
102
{ACAD_REACTORS
330
D08
102
}
330
D08
100
AcDbScale
 70
     0
300
1:10
140
1.0
141
10.0
290
     0
  0
SCALE
  5
D0F
102
{ACAD_REACTORS
330
D08
102
}
330
D08
100
AcDbScale
 70
     0
300
1:16
140
1.0
141
16.0
290
     0
  0
SCALE
  5
D10
102
{ACAD_REACTORS
330
D08
102
}
330
D08
100
AcDbScale
 70
     0
300
1:20
140
1.0
141
20.0
290
     0
  0
SCALE
  5
D11
102
{ACAD_REACTORS
330
D08
102
}
330
D08
100
AcDbScale
 70
     0
300
1:30
140
1.0
141
30.0
290
     0
  0
SCALE
  5
D12
102
{ACAD_REACTORS
330
D08
102
}
330
D08
100
AcDbScale
 70
     0
300
1:40
140
1.0
141
40.0
290
     0
  0
SCALE
  5
D13
102
{ACAD_REACTORS
330
D08
102
}
330
D08
100
AcDbScale
 70
     0
300
1:50
140
1.0
141
50.0
290
     0
  0
SCALE
  5
D14
102
{ACAD_REACTORS
330
D08
102
}
330
D08
100
AcDbScale
 70
     0
300
1:100
140
1.0
141
100.0
290
     0
  0
SCALE
  5
D15
102
{ACAD_REACTORS
330
D08
102
}
330
D08
100
AcDbScale
 70
     0
300
2:1
140
2.0
141
1.0
290
     0
  0
SCALE
  5
D16
102
{ACAD_REACTORS
330
D08
102
}
330
D08
100
AcDbScale
 70
     0
300
4:1
140
4.0
141
1.0
290
     0
  0
SCALE
  5
D17
102
{ACAD_REACTORS
330
D08
102
}
330
D08
100
AcDbScale
 70
     0
300
8:1
140
8.0
141
1.0
290
     0
  0
SCALE
  5
D18
102
{ACAD_REACTORS
330
D08
102
}
330
D08
100
AcDbScale
 70
     0
300
10:1
140
10.0
141
1.0
290
     0
  0
SCALE
  5
D19
102
{ACAD_REACTORS
330
D08
102
}
330
D08
100
AcDbScale
 70
     0
300
100:1
140
100.0
141
1.0
290
     0
  0
SCALE
  5
D1A
102
{ACAD_REACTORS
330
D08
102
}
330
D08
100
AcDbScale
 70
     0
300
1/128" = 1'-0"
140
0.0078125
141
12.0
290
     0
  0
SCALE
  5
D1B
102
{ACAD_REACTORS
330
D08
102
}
330
D08
100
AcDbScale
 70
     0
300
1/64" = 1'-0"
140
0.015625
141
12.0
290
     0
  0
SCALE
  5
D1C
102
{ACAD_REACTORS
330
D08
102
}
330
D08
100
AcDbScale
 70
     0
300
1/32" = 1'-0"
140
0.03125
141
12.0
290
     0
  0
SCALE
  5
D1D
102
{ACAD_REACTORS
330
D08
102
}
330
D08
100
AcDbScale
 70
     0
300
1/16" = 1'-0"
140
0.0625
141
12.0
290
     0
  0
SCALE
  5
D1E
102
{ACAD_REACTORS
330
D08
102
}
330
D08
100
AcDbScale
 70
     0
300
3/32" = 1'-0"
140
0.09375
141
12.0
290
     0
  0
SCALE
  5
D1F
102
{ACAD_REACTORS
330
D08
102
}
330
D08
100
AcDbScale
 70
     0
300
1/8" = 1'-0"
140
0.125
141
12.0
290
     0
  0
SCALE
  5
D20
102
{ACAD_REACTORS
330
D08
102
}
330
D08
100
AcDbScale
 70
     0
300
3/16" = 1'-0"
140
0.1875
141
12.0
290
     0
  0
SCALE
  5
D21
102
{ACAD_REACTORS
330
D08
102
}
330
D08
100
AcDbScale
 70
     0
300
1/4" = 1'-0"
140
0.25
141
12.0
290
     0
  0
SCALE
  5
D22
102
{ACAD_REACTORS
330
D08
102
}
330
D08
100
AcDbScale
 70
     0
300
3/8" = 1'-0"
140
0.375
141
12.0
290
     0
  0
SCALE
  5
D23
102
{ACAD_REACTORS
330
D08
102
}
330
D08
100
AcDbScale
 70
     0
300
1/2" = 1'-0"
140
0.5
141
12.0
290
     0
  0
SCALE
  5
D24
102
{ACAD_REACTORS
330
D08
102
}
330
D08
100
AcDbScale
 70
     0
300
3/4" = 1'-0"
140
0.75
141
12.0
290
     0
  0
SCALE
  5
D25
102
{ACAD_REACTORS
330
D08
102
}
330
D08
100
AcDbScale
 70
     0
300
1" = 1'-0"
140
1.0
141
12.0
290
     0
  0
SCALE
  5
D26
102
{ACAD_REACTORS
330
D08
102
}
330
D08
100
AcDbScale
 70
     0
300
1-1/2" = 1'-0"
140
1.5
141
12.0
290
     0
  0
SCALE
  5
D27
102
{ACAD_REACTORS
330
D08
102
}
330
D08
100
AcDbScale
 70
     0
300
3" = 1'-0"
140
3.0
141
12.0
290
     0
  0
SCALE
  5
D28
102
{ACAD_REACTORS
330
D08
102
}
330
D08
100
AcDbScale
 70
     0
300
6" = 1'-0"
140
6.0
141
12.0
290
     0
  0
SCALE
  5
D29
102
{ACAD_REACTORS
330
D08
102
}
330
D08
100
AcDbScale
 70
     0
300
1'-0" = 1'-0"
140
12.0
141
12.0
290
     0
  0
TABLESTYLE
  5
CD9
102
{ACAD_XDICTIONARY
360
D35
102
}
102
{ACAD_REACTORS
330
CD6
102
}
330
CD6
100
AcDbTableStyle
  3
Standard
 70
     0
 71
     0
 40
0.06
 41
0.06
280
     1
281
     1
  7
STANDARD
140
0.18
170
     1
 62
     0
 63
     7
283
     0
 90
      512
 91
        0
  1

274
    -2
284
     1
 64
     0
275
    -2
285
     1
 65
     0
276
    -2
286
     1
 66
     0
277
    -2
287
     1
 67
     0
278
    -2
288
     1
 68
     0
279
    -2
289
     1
 69
     0
  7
STANDARD
140
0.18
170
     1
 62
     0
 63
     7
283
     0
 90
      512
 91
        0
  1

274
    -2
284
     1
 64
     0
275
    -2
285
     1
 65
     0
276
    -2
286
     1
 66
     0
277
    -2
287
     1
 67
     0
278
    -2
288
     1
 68
     0
279
    -2
289
     1
 69
     0
  7
STANDARD
140
0.18
170
     1
 62
     0
 63
     7
283
     0
 90
      512
 91
        0
  1

274
    -2
284
     1
 64
     0
275
    -2
285
     1
 65
     0
276
    -2
286
     1
 66
     0
277
    -2
287
     1
 67
     0
278
    -2
288
     1
 68
     0
279
    -2
289
     1
 69
     0
  0
VISUALSTYLE
  5
CFC
102
{ACAD_REACTORS
330
CF6
102
}
330
CF6
100
AcDbVisualStyle
  2
2dWireframe
 70
     4
 71
     0
 72
     2
 73
     0
 90
        0
 40
-0.6
 41
-30.0
 62
     5
 63
     7
421
 16777215
 74
     1
 91
        4
 64
     7
 65
   257
 75
     1
175
     1
 42
1.0
 92
        0
 66
   257
 43
1.0
 76
     1
 77
     6
 78
     2
 67
     7
 79
     5
170
     0
171
     0
290
     0
174
     0
 93
        1
 44
0.0
173
     0
291
     0
 45
0.0
  0
VISUALSTYLE
  5
CFE
102
{ACAD_REACTORS
330
CF6
102
}
330
CF6
100
AcDbVisualStyle
  2
3D Hidden
 70
     6
 71
     1
 72
     2
 73
     2
 90
        0
 40
-0.6
 41
-30.0
 62
     5
 63
     7
421
 16777215
 74
     2
 91
        2
 64
     7
 65
   257
 75
     2
175
     1
 42
40.0
 92
        0
 66
   257
 43
1.0
 76
     1
 77
     6
 78
     2
 67
     7
 79
     3
170
     0
171
     0
290
     0
174
     0
 93
        1
 44
0.0
173
     0
291
     0
 45
0.0
  0
VISUALSTYLE
  5
CFD
102
{ACAD_REACTORS
330
CF6
102
}
330
CF6
100
AcDbVisualStyle
  2
3dWireframe
 70
     5
 71
     0
 72
     2
 73
     0
 90
        0
 40
-0.6
 41
-30.0
 62
     5
 63
     7
421
 16777215
 74
     1
 91
        4
 64
     7
 65
   257
 75
     1
175
     1
 42
1.0
 92
        0
 66
   257
 43
1.0
 76
     1
 77
     6
 78
     2
 67
     7
 79
     5
170
     0
171
     0
290
     0
174
     0
 93
        1
 44
0.0
173
     0
291
     0
 45
0.0
  0
VISUALSTYLE
  5
CFB
102
{ACAD_REACTORS
330
CF6
102
}
330
CF6
100
AcDbVisualStyle
  2
Basic
 70
     7
 71
     1
 72
     0
 73
     1
 90
        0
 40
-0.6
 41
-30.0
 62
     5
 63
     7
421
 16777215
 74
     0
 91
        4
 64
     7
 65
   257
 75
     1
175
     1
 42
1.0
 92
        8
 66
     7
 43
1.0
 76
     1
 77
     6
 78
     2
 67
     7
 79
     5
170
     0
171
     0
290
     0
174
     0
 93
        1
 44
0.0
173
     0
291
     1
 45
0.0
  0
VISUALSTYLE
  5
D02
102
{ACAD_REACTORS
330
CF6
102
}
330
CF6
100
AcDbVisualStyle
  2
Brighten
 70
    12
 71
     2
 72
     2
 73
     0
 90
        0
 40
-0.6
 41
-30.0
 62
     5
 63
     7
421
 16777215
 74
     1
 91
        4
 64
     7
 65
   257
 75
     1
175
     1
 42
1.0
 92
        8
 66
     7
 43
1.0
 76
     1
 77
     6
 78
     2
 67
     7
 79
     5
170
     0
171
     0
290
     0
174
     0
 93
        1
 44
50.0
173
     0
291
     1
 45
0.0
  0
VISUALSTYLE
  5
D06
102
{ACAD_REACTORS
330
CF6
102
}
330
CF6
100
AcDbVisualStyle
  2
ColorChange
 70
    16
 71
     2
 72
     2
 73
     3
 90
        0
 40
-0.6
 41
-30.0
 62
     5
 63
     8
421
  8421504
 74
     1
 91
        4
 64
     7
 65
   257
 75
     1
175
     1
 42
1.0
 92
        8
 66
     8
424
  8421504
 43
1.0
 76
     1
 77
     6
 78
     2
 67
     7
 79
     5
170
     0
171
     0
290
     0
174
     0
 93
        1
 44
0.0
173
     0
291
     1
 45
0.0
  0
VISUALSTYLE
  5
CFF
102
{ACAD_REACTORS
330
CF6
102
}
330
CF6
100
AcDbVisualStyle
  2
Conceptual
 70
     9
 71
     3
 72
     2
 73
     0
 90
        0
 40
-0.6
 41
-30.0
 62
     5
 63
     7
421
 16777215
 74
     2
 91
        2
 64
     7
 65
   257
 75
     1
175
     1
 42
40.0
 92
        8
 66
     7
 43
1.0
 76
     1
 77
     6
 78
     2
 67
     7
 79
     3
170
     0
171
     0
290
     0
174
     0
 93
        1
 44
0.0
173
     0
291
     0
 45
0.0
  0
VISUALSTYLE
  5
D01
102
{ACAD_REACTORS
330
CF6
102
}
330
CF6
100
AcDbVisualStyle
  2
Dim
 70
    11
 71
     2
 72
     2
 73
     0
 90
        0
 40
-0.6
 41
-30.0
 62
     5
 63
     7
421
 16777215
 74
     1
 91
        4
 64
     7
 65
   257
 75
     1
175
     1
 42
1.0
 92
        8
 66
     7
 43
1.0
 76
     1
 77
     6
 78
     2
 67
     7
 79
     5
170
     0
171
     0
290
     0
174
     0
 93
        1
 44
-50.0
173
     0
291
     1
 45
0.0
  0
VISUALSTYLE
  5
D05
102
{ACAD_REACTORS
330
CF6
102
}
330
CF6
100
AcDbVisualStyle
  2
Facepattern
 70
    15
 71
     2
 72
     2
 73
     0
 90
        0
 40
-0.6
 41
-30.0
 62
     5
 63
     7
421
 16777215
 74
     1
 91
        4
 64
     7
 65
   257
 75
     1
175
     1
 42
1.0
 92
        8
 66
     7
 43
1.0
 76
     1
 77
     6
 78
     2
 67
     7
 79
     5
170
     0
171
     0
290
     0
174
     0
 93
        1
 44
0.0
173
     0
291
     1
 45
0.0
  0
VISUALSTYLE
  5
CF7
102
{ACAD_REACTORS
330
CF6
102
}
330
CF6
100
AcDbVisualStyle
  2
Flat
 70
     0
 71
     2
 72
     1
 73
     1
 90
        2
 40
-0.6
 41
30.0
 62
     5
 63
     7
421
 16777215
 74
     0
 91
        4
 64
     7
 65
   257
 75
     1
175
     1
 42
1.0
 92
        8
 66
     7
 43
1.0
 76
     1
 77
     6
 78
     2
 67
     7
 79
     5
170
     0
171
     0
290
     0
174
     0
 93
       13
 44
0.0
173
     0
291
     1
 45
0.0
  0
VISUALSTYLE
  5
CF8
102
{ACAD_REACTORS
330
CF6
102
}
330
CF6
100
AcDbVisualStyle
  2
FlatWithEdges
 70
     1
 71
     2
 72
     1
 73
     1
 90
        2
 40
-0.6
 41
30.0
 62
     5
 63
     7
421
 16777215
 74
     1
 91
        4
 64
     7
 65
   257
 75
     1
175
     1
 42
1.0
 92
        0
 66
   257
 43
1.0
 76
     1
 77
     6
 78
     2
 67
     7
 79
     5
170
     0
171
     0
290
     0
174
     0
 93
       13
 44
0.0
173
     0
291
     1
 45
0.0
  0
VISUALSTYLE
  5
CF9
102
{ACAD_REACTORS
330
CF6
102
}
330
CF6
100
AcDbVisualStyle
  2
Gouraud
 70
     2
 71
     2
 72
     2
 73
     1
 90
        2
 40
-0.6
 41
30.0
 62
     5
 63
     7
421
 16777215
 74
     0
 91
        4
 64
     7
 65
   257
 75
     1
175
     1
 42
1.0
 92
        0
 66
     7
 43
1.0
 76
     1
 77
     6
 78
     2
 67
     7
 79
     5
170
     0
171
     0
290
     0
174
     0
 93
       13
 44
0.0
173
     0
291
     1
 45
0.0
  0
VISUALSTYLE
  5
CFA
102
{ACAD_REACTORS
330
CF6
102
}
330
CF6
100
AcDbVisualStyle
  2
GouraudWithEdges
 70
     3
 71
     2
 72
     2
 73
     1
 90
        2
 40
-0.6
 41
30.0
 62
     5
 63
     7
421
 16777215
 74
     1
 91
        4
 64
     7
 65
   257
 75
     1
175
     1
 42
1.0
 92
        0
 66
   257
 43
1.0
 76
     1
 77
     6
 78
     2
 67
     7
 79
     5
170
     0
171
     0
290
     0
174
     0
 93
       13
 44
0.0
173
     0
291
     1
 45
0.0
  0
VISUALSTYLE
  5
D04
102
{ACAD_REACTORS
330
CF6
102
}
330
CF6
100
AcDbVisualStyle
  2
Linepattern
 70
    14
 71
     2
 72
     2
 73
     0
 90
        0
 40
-0.6
 41
-30.0
 62
     5
 63
     7
421
 16777215
 74
     1
 91
        4
 64
     7
 65
   257
 75
     7
175
     7
 42
1.0
 92
        8
 66
     7
 43
1.0
 76
     1
 77
     6
 78
     2
 67
     7
 79
     5
170
     0
171
     0
290
     0
174
     0
 93
        1
 44
0.0
173
     0
291
     1
 45
0.0
  0
VISUALSTYLE
  5
D00
102
{ACAD_REACTORS
330
CF6
102
}
330
CF6
100
AcDbVisualStyle
  2
Realistic
 70
     8
 71
     2
 72
     2
 73
     0
 90
        0
 40
-0.6
 41
-30.0
 62
     5
 63
     7
421
 16777215
 74
     1
 91
        0
 64
     7
 65
   257
 75
     1
175
     1
 42
1.0
 92
        8
 66
     8
424
  7895160
 43
1.0
 76
     1
 77
     6
 78
     2
 67
     7
 79
     5
170
     0
171
     0
290
     0
174
     0
 93
       13
 44
0.0
173
     0
291
     0
 45
0.0
  0
VISUALSTYLE
  5
D03
102
{ACAD_REACTORS
330
CF6
102
}
330
CF6
100
AcDbVisualStyle
  2
Thicken
 70
    13
 71
     2
 72
     2
 73
     0
 90
        0
 40
-0.6
 41
-30.0
 62
     5
 63
     7
421
 16777215
 74
     1
 91
        4
 64
     7
 65
   257
 75
     1
175
     1
 42
1.0
 92
       12
 66
     7
 43
1.0
 76
     1
 77
     6
 78
     2
 67
     7
 79
     5
170
     0
171
     0
290
     0
174
     0
 93
        1
 44
0.0
173
     0
291
     1
 45
0.0
  0
DICTIONARYVAR
  5
D3D
102
{ACAD_REACTORS
330
D3A
102
}
330
D3A
100
DictionaryVariables
280
     0
  1
1:1
  0
DICTIONARYVAR
  5
D3C
102
{ACAD_REACTORS
330
D3A
102
}
330
D3A
100
DictionaryVariables
280
     0
  1
STANDARD
  0
DICTIONARYVAR
  5
D3B
102
{ACAD_REACTORS
330
D3A
102
}
330
D3A
100
DictionaryVariables
280
     0
  1
STANDARD
  0
DICTIONARYVAR
  5
2931
102
{ACAD_REACTORS
330
D3A
102
}
330
D3A
100
DictionaryVariables
280
     0
  1
1
  0
DICTIONARYVAR
  5
2932
102
{ACAD_REACTORS
330
D3A
102
}
330
D3A
100
DictionaryVariables
280
     0
  1
15
  0
DICTIONARY
  5
DAA
102
{ACAD_REACTORS
330
D9D
102
}
330
D9D
100
AcDbDictionary
281
     1
  0
XRECORD
  5
294E
102
{ACAD_REACTORS
330
D9D
102
}
330
D9D
100
AcDbXrecord
280
     1
 90
-1023410169
  0
DICTIONARY
  5
CE7
330
CE6
100
AcDbDictionary
280
     1
281
     1
  3
BUMPTILE
360
CE9
  3
DIFFUSETILE
360
CE8
  3
OPACITYTILE
360
CEC
  3
REFLECTIONTILE
360
CEB
  3
REFRACTIONTILE
360
CED
  3
SPECULARTILE
360
CEA
  0
DICTIONARY
  5
CDF
330
CDE
100
AcDbDictionary
280
     1
281
     1
  3
BUMPTILE
360
CE1
  3
DIFFUSETILE
360
CE0
  3
OPACITYTILE
360
CE4
  3
REFLECTIONTILE
360
CE3
  3
REFRACTIONTILE
360
CE5
  3
SPECULARTILE
360
CE2
  0
DICTIONARY
  5
CEF
330
CEE
100
AcDbDictionary
280
     1
281
     1
  3
BUMPTILE
360
CF1
  3
DIFFUSETILE
360
CF0
  3
OPACITYTILE
360
CF4
  3
REFLECTIONTILE
360
CF3
  3
REFRACTIONTILE
360
CF5
  3
SPECULARTILE
360
CF2
  0
DICTIONARY
  5
D35
330
CD9
100
AcDbDictionary
280
     1
281
     1
  3
ACAD_ROUNDTRIP_2008_TABLESTYLE_CELLSTYLEMAP
360
2C55
  0
XRECORD
  5
CE9
102
{ACAD_REACTORS
330
CE7
102
}
330
CE7
100
AcDbXrecord
280
     1
270
     1
271
     1
  0
XRECORD
  5
CE8
102
{ACAD_REACTORS
330
CE7
102
}
330
CE7
100
AcDbXrecord
280
     1
270
     1
271
     1
  0
XRECORD
  5
CEC
102
{ACAD_REACTORS
330
CE7
102
}
330
CE7
100
AcDbXrecord
280
     1
270
     1
271
     1
  0
XRECORD
  5
CEB
102
{ACAD_REACTORS
330
CE7
102
}
330
CE7
100
AcDbXrecord
280
     1
270
     1
271
     1
  0
XRECORD
  5
CED
102
{ACAD_REACTORS
330
CE7
102
}
330
CE7
100
AcDbXrecord
280
     1
270
     1
271
     1
  0
XRECORD
  5
CEA
102
{ACAD_REACTORS
330
CE7
102
}
330
CE7
100
AcDbXrecord
280
     1
270
     1
271
     1
  0
XRECORD
  5
CE1
102
{ACAD_REACTORS
330
CDF
102
}
330
CDF
100
AcDbXrecord
280
     1
270
     1
271
     1
  0
XRECORD
  5
CE0
102
{ACAD_REACTORS
330
CDF
102
}
330
CDF
100
AcDbXrecord
280
     1
270
     1
271
     1
  0
XRECORD
  5
CE4
102
{ACAD_REACTORS
330
CDF
102
}
330
CDF
100
AcDbXrecord
280
     1
270
     1
271
     1
  0
XRECORD
  5
CE3
102
{ACAD_REACTORS
330
CDF
102
}
330
CDF
100
AcDbXrecord
280
     1
270
     1
271
     1
  0
XRECORD
  5
CE5
102
{ACAD_REACTORS
330
CDF
102
}
330
CDF
100
AcDbXrecord
280
     1
270
     1
271
     1
  0
XRECORD
  5
CE2
102
{ACAD_REACTORS
330
CDF
102
}
330
CDF
100
AcDbXrecord
280
     1
270
     1
271
     1
  0
XRECORD
  5
CF1
102
{ACAD_REACTORS
330
CEF
102
}
330
CEF
100
AcDbXrecord
280
     1
270
     1
271
     1
  0
XRECORD
  5
CF0
102
{ACAD_REACTORS
330
CEF
102
}
330
CEF
100
AcDbXrecord
280
     1
270
     1
271
     1
  0
XRECORD
  5
CF4
102
{ACAD_REACTORS
330
CEF
102
}
330
CEF
100
AcDbXrecord
280
     1
270
     1
271
     1
  0
XRECORD
  5
CF3
102
{ACAD_REACTORS
330
CEF
102
}
330
CEF
100
AcDbXrecord
280
     1
270
     1
271
     1
  0
XRECORD
  5
CF5
102
{ACAD_REACTORS
330
CEF
102
}
330
CEF
100
AcDbXrecord
280
     1
270
     1
271
     1
  0
XRECORD
  5
CF2
102
{ACAD_REACTORS
330
CEF
102
}
330
CEF
100
AcDbXrecord
280
     1
270
     1
271
     1
  0
CELLSTYLEMAP
  5
2C55
102
{ACAD_REACTORS
330
D35
102
}
330
D35
100
AcDbCellStyleMap
 90
        3
300
CELLSTYLE
  1
TABLEFORMAT_BEGIN
 90
        5
170
     1
 91
        0
 92
    32768
 62
   257
 93
        1
300
CONTENTFORMAT
  1
CONTENTFORMAT_BEGIN
 90
        0
 91
        0
 92
      512
 93
        0
300

 40
0.0
140
1.0
 94
        1
 62
     0
340
11
144
0.18
309
CONTENTFORMAT_END
171
     0
 94
        0
309
TABLEFORMAT_END
  1
CELLSTYLE_BEGIN
 90
        1
 91
        1
300
_TITLE
309
CELLSTYLE_END
300
CELLSTYLE
  1
TABLEFORMAT_BEGIN
 90
        5
170
     1
 91
        0
 92
        0
 62
   257
 93
        1
300
CONTENTFORMAT
  1
CONTENTFORMAT_BEGIN
 90
        0
 91
        0
 92
      512
 93
        0
300

 40
0.0
140
1.0
 94
        1
 62
     0
340
11
144
0.18
309
CONTENTFORMAT_END
171
     0
 94
        0
309
TABLEFORMAT_END
  1
CELLSTYLE_BEGIN
 90
        2
 91
        1
300
_HEADER
309
CELLSTYLE_END
300
CELLSTYLE
  1
TABLEFORMAT_BEGIN
 90
        5
170
     1
 91
        0
 92
        0
 62
   257
 93
        1
300
CONTENTFORMAT
  1
CONTENTFORMAT_BEGIN
 90
        0
 91
        0
 92
      512
 93
        0
300

 40
0.0
140
1.0
 94
        1
 62
     0
340
11
144
0.18
309
CONTENTFORMAT_END
171
     0
 94
        0
309
TABLEFORMAT_END
  1
CELLSTYLE_BEGIN
 90
        3
 91
        2
300
_DATA
309
CELLSTYLE_END
  0
ENDSEC
  0
EOF
