  0
SECTION
  2
HEADER
  9
$ACADVER
  1
AC1009
  9
$INSBASE
 10
0.0
 20
0.0
 30
0.0
  9
$EXTMIN
 10
-11.539428
 20
-7.774375
 30
0.0
  9
$EXTMAX
 10
11.539428
 20
1.069301
 30
0.0
  9
$LIMMIN
 10
0.0
 20
0.0
  9
$LIMMAX
 10
12.0
 20
9.0
  9
$ORTHOMODE
 70
     1
  9
$REGENMODE
 70
     1
  9
$FILLMODE
 70
     1
  9
$QTEXTMODE
 70
     0
  9
$MIRRTEXT
 70
     1
  9
$DRAGMODE
 70
     2
  9
$LTSCALE
 40
1.0
  9
$OSMODE
 70
     0
  9
$ATTMODE
 70
     1
  9
$TEXTSIZE
 40
0.001
  9
$TRACEWID
 40
0.05
  9
$TEXTSTYLE
  7
STANDARD
  9
$CLAYER
  8
0
  9
$CELTYPE
  6
BYLAYER
  9
$CECOLOR
 62
     7
  9
$DIMSCALE
 40
1.0
  9
$DIMASZ
 40
0.18
  9
$DIMEXO
 40
0.0625
  9
$DIMDLI
 40
0.38
  9
$DIMRND
 40
0.0
  9
$DIMDLE
 40
0.0
  9
$DIMEXE
 40
0.18
  9
$DIMTP
 40
0.0
  9
$DIMTM
 40
0.0
  9
$DIMTXT
 40
0.18
  9
$DIMCEN
 40
0.09
  9
$DIMTSZ
 40
0.0
  9
$DIMTOL
 70
     0
  9
$DIMLIM
 70
     0
  9
$DIMTIH
 70
     1
  9
$DIMTOH
 70
     1
  9
$DIMSE1
 70
     0
  9
$DIMSE2
 70
     0
  9
$DIMTAD
 70
     0
  9
$DIMZIN
 70
     0
  9
$DIMBLK
  1

  9
$DIMASO
 70
     1
  9
$DIMSHO
 70
     0
  9
$DIMPOST
  1

  9
$DIMAPOST
  1

  9
$DIMALT
 70
     0
  9
$DIMALTD
 70
     2
  9
$DIMALTF
 40
25.4
  9
$DIMLFAC
 40
1.0
  9
$DIMTOFL
 70
     0
  9
$DIMTVP
 40
0.0
  9
$DIMTIX
 70
     0
  9
$DIMSOXD
 70
     0
  9
$DIMSAH
 70
     0
  9
$DIMBLK1
  1

  9
$DIMBLK2
  1

  9
$DIMSTYLE
  2
*UNNAMED
  9
$DIMCLRD
 70
     0
  9
$DIMCLRE
 70
     0
  9
$DIMCLRT
 70
     0
  9
$DIMTFAC
 40
1.0
  9
$DIMGAP
 40
0.09
  9
$LUNITS
 70
     2
  9
$LUPREC
 70
     4
  9
$SKETCHINC
 40
0.1
  9
$FILLETRAD
 40
0.0
  9
$AUNITS
 70
     0
  9
$AUPREC
 70
     0
  9
$MENU
  1
acad
  9
$ELEVATION
 40
0.0
  9
$PELEVATION
 40
0.0
  9
$THICKNESS
 40
0.0
  9
$LIMCHECK
 70
     0
  9
$BLIPMODE
 70
     1
  9
$CHAMFERA
 40
0.0
  9
$CHAMFERB
 40
0.0
  9
$SKPOLY
 70
     0
  9
$TDCREATE
 40
2450912.469431712
  9
$TDUPDATE
 40
2450912.470125347
  9
$TDINDWG
 40
0.0000318287
  9
$TDUSRTIMER
 40
0.0000318287
  9
$USRTIMER
 70
     1
  9
$ANGBASE
 50
0.0
  9
$ANGDIR
 70
     0
  9
$PDMODE
 70
     0
  9
$PDSIZE
 40
0.0
  9
$PLINEWID
 40
0.0
  9
$COORDS
 70
     0
  9
$SPLFRAME
 70
     0
  9
$SPLINETYPE
 70
     6
  9
$SPLINESEGS
 70
     8
  9
$ATTDIA
 70
     0
  9
$ATTREQ
 70
     1
  9
$HANDLING
 70
     0
  9
$HANDSEED
  5
0
  9
$SURFTAB1
 70
     6
  9
$SURFTAB2
 70
     6
  9
$SURFTYPE
 70
     6
  9
$SURFU
 70
     6
  9
$SURFV
 70
     6
  9
$UCSNAME
  2

  9
$UCSORG
 10
0.0
 20
0.0
 30
0.0
  9
$UCSXDIR
 10
1.0
 20
0.0
 30
0.0
  9
$UCSYDIR
 10
0.0
 20
1.0
 30
0.0
  9
$PUCSNAME
  2

  9
$PUCSORG
 10
0.0
 20
0.0
 30
0.0
  9
$PUCSXDIR
 10
1.0
 20
0.0
 30
0.0
  9
$PUCSYDIR
 10
0.0
 20
1.0
 30
0.0
  9
$USERI1
 70
     0
  9
$USERI2
 70
     0
  9
$USERI3
 70
     0
  9
$USERI4
 70
     0
  9
$USERI5
 70
     0
  9
$USERR1
 40
0.0
  9
$USERR2
 40
0.0
  9
$USERR3
 40
0.0
  9
$USERR4
 40
0.0
  9
$USERR5
 40
0.0
  9
$WORLDVIEW
 70
     1
  9
$SHADEDGE
 70
     3
  9
$SHADEDIF
 70
    70
  9
$TILEMODE
 70
     1
  9
$MAXACTVP
 70
    16
  9
$PINSBASE
 10
0.0
 20
0.0
 30
0.0
  9
$PLIMCHECK
 70
     0
  9
$PEXTMIN
 10
1.000000E+20
 20
1.000000E+20
 30
1.000000E+20
  9
$PEXTMAX
 10
-1.000000E+20
 20
-1.000000E+20
 30
-1.000000E+20
  9
$PLIMMIN
 10
0.0
 20
0.0
  9
$PLIMMAX
 10
12.0
 20
9.0
  9
$UNITMODE
 70
     0
  9
$VISRETAIN
 70
     0
  9
$PLINEGEN
 70
     0
  9
$PSLTSCALE
 70
     0
  9
$TREEDEPTH
 70
  3020
  9
$DWGCODEPAGE
  3
undefined
  0
ENDSEC
  0
SECTION
  2
TABLES
  0
TABLE
  2
VPORT
 70
     2
  0
VPORT
  2
*ACTIVE
 70
     0
 10
0.0
 20
0.0
 11
1.0
 21
1.0
 12
0.994497
 22
0.119895
 13
0.0
 23
0.0
 14
1.0
 24
1.0
 15
0.0
 25
0.0
 16
0.0
 26
0.0
 36
1.0
 17
0.0
 27
0.0
 37
0.0
 40
17.488655
 41
1.573846
 42
50.0
 43
0.0
 44
0.0
 50
0.0
 51
0.0
 71
     0
 72
   100
 73
     1
 74
     1
 75
     0
 76
     0
 77
     0
 78
     0
  0
ENDTAB
  0
TABLE
  2
LTYPE
 70
     2
  0
LTYPE
  2
CONTINUOUS
 70
    64
  3
Solid line
 72
    65
 73
     0
 40
0.0
  0
LTYPE
  2
HIDDEN
 70
    64
  3
_ _ _ _ _ _ _ _ _ _ _ _ _ _ _ _ _ _ _ _ _ _ _
 72
    65
 73
     2
 40
0.375
 49
0.25
 49
-0.125
  0
ENDTAB
  0
TABLE
  2
LAYER
 70
     1
  0
LAYER
  2
0
 70
    64
 62
     7
  6
CONTINUOUS
  0
ENDTAB
  0
TABLE
  2
STYLE
 70
     1
  0
STYLE
  2
STANDARD
 70
    64
 40
0.0
 41
1.0
 50
0.0
 71
     0
 42
0.001
  3
txt
  4

  0
ENDTAB
  0
TABLE
  2
VIEW
 70
     0
  0
ENDTAB
  0
TABLE
  2
UCS
 70
     0
  0
ENDTAB
  0
TABLE
  2
APPID
 70
     1
  0
APPID
  2
ACAD
 70
    64
  0
ENDTAB
  0
TABLE
  2
DIMSTYLE
 70
     0
  0
ENDTAB
  0
ENDSEC
  0
SECTION
  2
BLOCKS
  0
ENDSEC
  0
SECTION
  2
ENTITIES
  0
LINE
  8
0
 10
-10.382114
 20
1.048459
 30
0.0
 11
10.382114
 21
1.048459
 31
0.0
  0
LINE
  8
0
 10
-11.375313
 20
0.0
 30
0.0
 11
11.375313
 21
0.0
 31
0.0
  0
LINE
  8
0
 10
-10.983649
 20
0.553701
 30
0.0
 11
10.983649
 21
0.553701
 31
0.0
  0
ARC
  8
0
  6
HIDDEN
 10
-1.821611
 20
2.639073
 30
0.0
 40
8.65481
 50
197.753689
 51
265.481626
  0
ARC
  8
0
 10
-11.071679
 20
1.396499
 30
0.0
 40
0.685781
 50
295.354853
 51
322.190135
  0
ARC
  8
0
 10
-10.382114
 20
0.861428
 30
0.0
 40
0.187031
 50
83.659808
 51
142.190135
  0
ARC
  8
0
 10
-11.375313
 20
0.124687
 30
0.0
 40
0.124687
 50
158.043763
 51
270.0
  0
ARC
  8
0
 10
-10.884448
 20
-0.105615
 30
0.0
 40
0.666738
 50
98.556632
 51
155.459256
  0
LINE
  8
0
 10
-10.875354
 20
0.666907
 30
0.0
 11
-10.885199
 21
0.637371
 31
0.0
  0
ARC
  8
0
 10
-11.003488
 20
0.676801
 30
0.0
 40
0.124687
 50
279.155112
 51
341.565051
  0
ARC
  8
0
 10
-10.697921
 20
0.607762
 30
0.0
 40
0.187031
 50
115.354853
 51
161.565051
  0
ARC
  8
0
  6
HIDDEN
 10
1.821694
 20
2.639073
 30
0.0
 40
8.65481
 50
274.518374
 51
342.246311
  0
ARC
  8
0
  6
HIDDEN
 10
0.0
 20
9.220749
 30
0.0
 40
15.398906
 50
261.3188
 51
263.774958
  0
ARC
  8
0
  6
HIDDEN
 10
0.0
 20
24.269183
 30
0.0
 40
30.361406
 50
265.27035
 51
265.644334
  0
ARC
  8
0
  6
HIDDEN
 10
0.0
 20
9.220749
 30
0.0
 40
15.398906
 50
276.228822
 51
278.612013
  0
ARC
  8
0
  6
HIDDEN
 10
1.69783
 20
-6.335152
 30
0.0
 40
0.249375
 50
96.228822
 51
175.601968
  0
ARC
  8
0
  6
HIDDEN
 10
0.0
 20
24.269183
 30
0.0
 40
30.361406
 50
274.355666
 51
274.753669
  0
ARC
  8
0
  6
HIDDEN
 10
-1.696803
 20
-6.335264
 30
0.0
 40
0.249375
 50
4.357051
 51
83.774958
  0
ARC
  8
0
  6
HIDDEN
 10
1.224925
 20
-7.625312
 30
0.0
 40
0.124688
 50
270.0
 51
355.601968
  0
LINE
  8
0
  6
HIDDEN
 10
-1.224844
 20
-7.75
 30
0.0
 11
1.224927
 21
-7.75
 31
0.0
  0
ARC
  8
0
  6
HIDDEN
 10
-1.224842
 20
-7.625312
 30
0.0
 40
0.124688
 50
184.357051
 51
270.0
  0
LINE
  8
0
  6
HIDDEN
 10
-1.349169
 20
-7.63479
 30
0.0
 11
-1.448149
 21
-6.316319
 31
0.0
  0
LINE
  8
0
  6
HIDDEN
 10
1.449189
 20
-6.316029
 30
0.0
 11
1.349245
 21
-7.634877
 31
0.0
  0
ARC
  8
0
 10
11.071679
 20
1.396499
 30
0.0
 40
0.685781
 50
217.809865
 51
244.645147
  0
ARC
  8
0
 10
10.382114
 20
0.861428
 30
0.0
 40
0.187031
 50
37.809865
 51
96.340192
  0
ARC
  8
0
 10
11.375313
 20
0.124687
 30
0.0
 40
0.124687
 50
270.0
 51
21.956237
  0
ARC
  8
0
 10
10.884448
 20
-0.105615
 30
0.0
 40
0.666738
 50
24.540744
 51
81.443368
  0
LINE
  8
0
 10
10.885199
 20
0.637371
 30
0.0
 11
10.875354
 21
0.666907
 31
0.0
  0
ARC
  8
0
 10
11.003488
 20
0.676801
 30
0.0
 40
0.124687
 50
198.434949
 51
260.844888
  0
ARC
  8
0
 10
10.697921
 20
0.607762
 30
0.0
 40
0.187031
 50
18.434949
 51
64.645147
  0
ATTDEF
  8
0
 62
     7
 10
0.0
 20
0.0
 30
0.0
 40
0.001
  1
K-2189-8
  3

  2
MODELNUMBER
 70
     8
  0
ATTDEF
  8
0
 62
     7
 10
0.0
 20
-0.001667
 30
0.0
 40
0.001
  1
PORTRAIT
  3

  2
TRADENAME
 70
     8
  0
ATTDEF
  8
0
 62
     7
 10
0.0
 20
-0.003333
 30
0.0
 40
0.001
  1
LAVATORY
  3

  2
PRODUCT
 70
     8
  0
ATTDEF
  8
0
 62
     7
 10
0.0
 20
-0.005
 30
0.0
 40
0.001
  1
VITREOUS CHINA
  3

  2
MATERIAL
 70
     8
  0
ENDSEC
  0
EOF
