999
DXF file: 20613-side.dxf
999
Pro/ENGINEER 2016130 by Parametric Technology Corporation
  0
SECTION
  2
HEADER
  9
$ACADVER
  1
AC1027
  9
$DWGCODEPAGE
  3
ANSI_1252
  9
$EXTMAX
 10
558.8
 20
431.8
 30
0.0
  9
$EXTMIN
 10
0.0
 20
0.0
 30
0.0
  9
$LIMMIN
 10
0.0
 20
0.0
  9
$LIMMAX
 10
558.8
 20
431.8
  9
$VIEWCTR
 10
279.4
 20
215.9
  9
$VIEWSIZE
 40
431.8
  9
$CLAYER
  8
0
  9
$LTSCALE
 40
30.734
  9
$CELTYPE
  6
BYLAYER
  9
$DIMSCALE
 40
1.0
  9
$DIMASZ
 40
4.7625
  9
$DIMEXO
 40
1.5875
  9
$DIMDLI
 40
21.2344
  9
$DIMEXE
 40
3.175
  9
$DIMCEN
 40
5.0292
  9
$DIMLFAC
 40
1.0
  9
$DIMBLK
  1
_FILLED
  9
$DIMALT
 70
0
  9
$DIMALTF
 40
0.0393700787
  9
$DIMTXT
 40
3.96875
  9
$DIMTOL
 70
1
  9
$DIMLIM
 70
0
  9
$DIMTFAC
 40
1.0
  9
$DIMTP
 40
0.01
  9
$DIMTM
 40
0.01
  9
$DIMGAP
 40
0.625
  9
$DIMDSEP
 70
46
  9
$AUNITS
 70
0
  9
$PDMODE
 70
3
  9
$PDSIZE
 40
7.9375
  9
$HANDSEED
  5
3F3
  9
$TILEMODE
 70
1
  9
$MEASUREMENT
 70
1
  9
$INSUNITS
 70
4
  0
ENDSEC
  0
SECTION
  2
CLASSES
  0
CLASS
  1
ACDBDICTIONARYWDFLT
  2
AcDbDictionaryWithDefault
  3
AutoCAD 2000
 90
0
 91
1
280
0
281
0
  0
CLASS
  1
ACDBPLACEHOLDER
  2
AcDbPlaceHolder
  3
AutoCAD 2000
 90
0
 91
1
280
0
281
0
  0
CLASS
  1
LAYOUT
  2
AcDbLayout
  3
AutoCAD 2000
 90
0
 91
0
280
0
281
0
  0
ENDSEC
  0
SECTION
  2
TABLES
  0
TABLE
  2
VPORT
  5
8
100
AcDbSymbolTable
 70
2
  0
VPORT
  5
1F4
100
AcDbSymbolTableRecord
100
AcDbViewportTableRecord
  2
*ACTIVE
 70
0
 10
0.0
 20
0.0
 11
1.0
 21
1.0
 12
279.4
 22
215.9
 13
0.0
 23
0.0
 14
1.0
 24
1.0
 15
0.0
 25
0.0
 16
0.0
 26
0.0
 36
1.0
 17
0.0
 27
0.0
 37
0.0
 40
431.8
 41
1.2941176471
 42
50.0
 43
0.0
 44
0.0
 50
0.0
 51
0.0
 71
0
 72
100
 73
1
 74
1
 75
0
 76
0
 77
0
 78
0
  0
ENDTAB
  0
TABLE
  2
LTYPE
  5
5
100
AcDbSymbolTable
 70
6
  0
LTYPE
  5
14
100
AcDbSymbolTableRecord
100
AcDbLinetypeTableRecord
  2
BYBLOCK
 70
0
  3

 72
65
 73
0
 40
0.0
  0
LTYPE
  5
15
100
AcDbSymbolTableRecord
100
AcDbLinetypeTableRecord
  2
BYLAYER
 70
0
  3

 72
65
 73
0
 40
0.0
  0
LTYPE
  5
16
100
AcDbSymbolTableRecord
100
AcDbLinetypeTableRecord
  2
CONTINUOUS
 70
64
  3
Solid line
 72
65
 73
0
 40
0.0
  0
LTYPE
  5
1F5
100
AcDbSymbolTableRecord
100
AcDbLinetypeTableRecord
  2
CENTER
 70
64
  3
____ _ ____ _ ____ _ ____ _ ____ _ ____ _ ____
 72
65
 73
4
 40
0.6
 49
0.375
 74
0
 49
-0.075
 74
0
 49
0.075
 74
0
 49
-0.075
 74
0
  0
LTYPE
  5
1F6
100
AcDbSymbolTableRecord
100
AcDbLinetypeTableRecord
  2
HIDDEN
 70
64
  3
- - - - - - - - - - - - - - - - - - - -
 72
65
 73
2
 40
0.2
 49
0.1
 74
0
 49
-0.1
 74
0
  0
LTYPE
  5
1F7
100
AcDbSymbolTableRecord
100
AcDbLinetypeTableRecord
  2
PHANTOM
 70
64
  3
_____ _ _ _____ _ _ _____ _ _ _____
 72
65
 73
6
 40
0.8
 49
0.45
 74
0
 49
-0.05
 74
0
 49
0.1
 74
0
 49
-0.05
 74
0
 49
0.1
 74
0
 49
-0.05
 74
0
  0
LTYPE
  5
1F8
100
AcDbSymbolTableRecord
100
AcDbLinetypeTableRecord
  2
DOT
 70
64
  3
. . . . . . . . . . . . . . . . . . . .
 72
65
 73
2
 40
0.2
 49
0.1
 74
0
 49
-0.1
 74
0
  0
LTYPE
  5
1F9
100
AcDbSymbolTableRecord
100
AcDbLinetypeTableRecord
  2
DASHED
 70
64
  3
- - - - - - - - - - - - - - - - - - - -
 72
65
 73
2
 40
0.2
 49
0.1
 74
0
 49
-0.1
 74
0
  0
ENDTAB
  0
TABLE
  2
LAYER
  5
2
100
AcDbSymbolTable
 70
36
  0
LAYER
  5
10
100
AcDbSymbolTableRecord
100
AcDbLayerTableRecord
  2
0
 70
0
 62
7
  6
CONTINUOUS
370
-3
390
F
  0
LAYER
  5
1FA
100
AcDbSymbolTableRecord
100
AcDbLayerTableRecord
  2
DEFAULT_1
 70
0
 62
7
  6
CENTER
370
-3
390
F
  0
LAYER
  5
1FB
100
AcDbSymbolTableRecord
100
AcDbLayerTableRecord
  2
DEFAULT_2
 70
0
 62
8
  6
HIDDEN
370
-3
390
F
  0
LAYER
  5
1FC
100
AcDbSymbolTableRecord
100
AcDbLayerTableRecord
  2
DEFAULT_3
 70
0
 62
7
  6
PHANTOM
370
-3
390
F
  0
LAYER
  5
1FD
100
AcDbSymbolTableRecord
100
AcDbLayerTableRecord
  2
DATUM_AXIS
 70
0
 62
7
  6
CONTINUOUS
370
-3
390
F
  0
LAYER
  5
1FE
100
AcDbSymbolTableRecord
100
AcDbLayerTableRecord
  2
DATUM_CSYS
 70
0
 62
7
  6
CONTINUOUS
370
-3
390
F
  0
LAYER
  5
1FF
100
AcDbSymbolTableRecord
100
AcDbLayerTableRecord
  2
DATUM_PLANE
 70
0
 62
7
  6
CONTINUOUS
370
-3
390
F
  0
LAYER
  5
200
100
AcDbSymbolTableRecord
100
AcDbLayerTableRecord
  2
DATUM_POINT
 70
0
 62
7
  6
CONTINUOUS
370
-3
390
F
  0
LAYER
  5
201
100
AcDbSymbolTableRecord
100
AcDbLayerTableRecord
  2
DEFAULT
 70
0
 62
7
  6
CONTINUOUS
370
-3
390
F
  0
LAYER
  5
202
100
AcDbSymbolTableRecord
100
AcDbLayerTableRecord
  2
LAY0001
 70
0
 62
7
  6
CONTINUOUS
370
-3
390
F
  0
LAYER
  5
203
100
AcDbSymbolTableRecord
100
AcDbLayerTableRecord
  2
_CURVE
 70
0
 62
7
  6
CONTINUOUS
370
-3
390
F
  0
LAYER
  5
204
100
AcDbSymbolTableRecord
100
AcDbLayerTableRecord
  2
_SURFACE
 70
0
 62
7
  6
CONTINUOUS
370
-3
390
F
  0
ENDTAB
  0
TABLE
  2
STYLE
  5
3
100
AcDbSymbolTable
 70
1
  0
STYLE
  5
11
100
AcDbSymbolTableRecord
100
AcDbTextStyleTableRecord
  2
STANDARD
 70
0
 40
0.0
 41
0.8
 50
0.0
 71
0
 42
0.2
  3
txt
  4

  0
STYLE
  5
205
100
AcDbSymbolTableRecord
100
AcDbTextStyleTableRecord
  2
TEXTSTYLE_1
 70
0
 40
0.0
 41
0.8
 50
0.0
 71
0
 42
0.2
  3
gdt
  4

  0
ENDTAB
  0
TABLE
  2
VIEW
  5
6
100
AcDbSymbolTable
 70
0
  0
ENDTAB
  0
TABLE
  2
UCS
  5
7
100
AcDbSymbolTable
 70
0
  0
ENDTAB
  0
TABLE
  2
APPID
  5
9
100
AcDbSymbolTable
 70
1
  0
APPID
  5
206
100
AcDbSymbolTableRecord
100
AcDbRegAppTableRecord
  2
ACAD
 70
0
  0
ENDTAB
  0
TABLE
  2
BLOCK_RECORD
  5
1
100
AcDbSymbolTable
 70
0
  0
BLOCK_RECORD
  5
207
100
AcDbSymbolTableRecord
100
AcDbBlockTableRecord
  2
*Model_Space
  0
BLOCK_RECORD
  5
208
100
AcDbSymbolTableRecord
100
AcDbBlockTableRecord
  2
*Paper_Space
  0
ENDTAB
  0
TABLE
  2
DIMSTYLE
  5
A
100
AcDbSymbolTable
 70
1
100
AcDbDimStyleTable
 71
0
  0
DIMSTYLE
105
209
100
AcDbSymbolTableRecord
100
AcDbDimStyleTableRecord
  2
STANDARD
 70
0
  3

  4

 40
1.0
 41
4.7625
 42
1.5875
 43
0.38
 44
3.175
 45
0.0
 46
0.0
 47
0.01
 48
0.01
140
3.96875
141
0.09
142
0.0
143
25.4
144
1.0
145
0.0
146
1.0
147
0.625
 71
1.0
 72
0.0
 73
1
 74
1
 75
0
 76
0
 77
0
 78
8
170
0
171
2
172
0
173
0
174
0
175
0
176
0
177
0
178
0
270
2
271
3
272
3
273
2
274
2
275
0
280
0
281
0
282
0
283
1
284
8
285
0
286
0
287
3
288
0
340
11
278
46
  0
ENDTAB
  0
ENDSEC
  0
SECTION
  2
BLOCKS
  0
BLOCK
  5
20
100
AcDbEntity
  8
0
100
AcDbBlockBegin
  2
*Model_Space
 70
0
 10
0.0
 20
0.0
 30
0.0
  3
*Model_Space
  1

  0
ENDBLK
  5
21
100
AcDbEntity
  8
0
100
AcDbBlockEnd
  0
BLOCK
  5
1C
100
AcDbEntity
  8
0
100
AcDbBlockBegin
  2
*Paper_Space
 70
0
 10
0.0
 20
0.0
 30
0.0
  3
*Paper_Space
  1

  0
ENDBLK
  5
1D
100
AcDbEntity
  8
0
100
AcDbBlockEnd
  0
ENDSEC
  0
SECTION
  2
ENTITIES
  0
LINE
  5
20A
100
AcDbEntity
  8
0
100
AcDbLine
 62
7
  6
CONTINUOUS
 10
0.0
 20
0.0
 11
0.0
 21
431.8
  0
LINE
  5
20B
100
AcDbEntity
  8
0
100
AcDbLine
 62
7
  6
CONTINUOUS
 10
0.0
 20
0.0
 11
558.8
 21
0.0
  0
LINE
  5
20C
100
AcDbEntity
  8
0
100
AcDbLine
 62
7
  6
CONTINUOUS
 10
0.0
 20
431.8
 11
558.8
 21
431.8
  0
LINE
  5
20D
100
AcDbEntity
  8
0
100
AcDbLine
 62
7
  6
CONTINUOUS
 10
558.8
 20
0.0
 11
558.8
 21
431.8
  0
LWPOLYLINE
  5
20E
100
AcDbEntity
  8
0
100
AcDbPolyline
 62
7
  6
CONTINUOUS
 90
3
 70
0
 10
-101.4352292162
 20
979.2535833709
 10
-101.5691810329
 20
978.659518994
 10
-101.629785916
 20
978.2870716346
  0
LWPOLYLINE
  5
20F
100
AcDbEntity
  8
0
100
AcDbPolyline
 62
7
  6
CONTINUOUS
 90
3
 70
0
 10
-101.437286563
 20
979.2439417798
 10
-101.5081184708
 20
978.9414650348
 10
-101.5630811999
 20
978.6713105498
  0
LWPOLYLINE
  5
210
100
AcDbEntity
  8
0
100
AcDbPolyline
 62
7
  6
CONTINUOUS
 90
4
 70
0
 10
-101.4049207883
 20
979.3709398017
 10
-101.4374261425
 20
979.2447094306
 10
-101.4782729498
 20
979.0754580818
 10
-101.490021855
 20
979.0222895798
  0
LWPOLYLINE
  5
211
100
AcDbEntity
  8
0
100
AcDbPolyline
 62
7
  6
CONTINUOUS
 90
6
 70
0
 10
-101.3395126862
 20
979.6599000167
 10
-101.4557258641
 20
979.2345573874
 10
-101.5540508662
 20
978.7997035758
 10
-101.6336502265
 20
978.3560792805
 10
-101.6937133617
 20
977.9044693414
 10
-101.6987516472
 20
977.857599294
  0
LINE
  5
212
100
AcDbEntity
  8
0
100
AcDbLine
 62
7
  6
CONTINUOUS
 10
-101.0432885638
 20
980.4749945734
 11
-101.4353695759
 21
979.2540475628
  0
LWPOLYLINE
  5
213
100
AcDbEntity
  8
0
100
AcDbPolyline
 62
7
  6
CONTINUOUS
 90
3
 70
0
 10
-101.1695292293
 20
980.1810169348
 10
-101.3194203849
 20
979.7280919575
 10
-101.4489654764
 20
979.2628931638
  0
LWPOLYLINE
  5
214
100
AcDbEntity
  8
0
100
AcDbPolyline
 62
7
  6
CONTINUOUS
 90
3
 70
0
 10
-101.1337200356
 20
980.2344603859
 10
-101.2502051285
 20
979.8958192122
 10
-101.3492646901
 20
979.5714980095
  0
LWPOLYLINE
  5
215
100
AcDbEntity
  8
0
100
AcDbPolyline
 62
7
  6
CONTINUOUS
 90
3
 70
0
 10
-100.9328716458
 20
980.7438158798
 10
-101.2106941544
 20
980.0165780132
 10
-101.4352292162
 20
979.2535833709
  0
LWPOLYLINE
  5
216
100
AcDbEntity
  8
0
100
AcDbPolyline
 62
7
  6
CONTINUOUS
 90
5
 70
0
 10
-100.8746662813
 20
980.885782591
 10
-101.0508303219
 20
980.4649617142
 10
-101.2094245845
 20
980.0312304349
 10
-101.3493809428
 20
979.5852473064
 10
-101.4696432305
 20
979.1277513407
  0
LINE
  5
217
100
AcDbEntity
  8
0
100
AcDbLine
 62
7
  6
CONTINUOUS
 10
-100.8317495198
 20
980.9711264111
 11
-100.8995552863
 21
980.8195096167
  0
LINE
  5
218
100
AcDbEntity
  8
0
100
AcDbLine
 62
7
  6
CONTINUOUS
 10
-100.8222869866
 20
980.9917601708
 11
-100.8110350115
 21
981.0161364664
  0
LINE
  5
219
100
AcDbEntity
  8
0
100
AcDbLine
 62
7
  6
CONTINUOUS
 10
-100.9197978388
 20
980.7714471292
 11
-100.9328716458
 21
980.7438158798
  0
LINE
  5
21A
100
AcDbEntity
  8
0
100
AcDbLine
 62
7
  6
CONTINUOUS
 10
-100.4738633832
 20
981.6865703424
 11
-100.6819868822
 21
981.293154095
  0
LWPOLYLINE
  5
21B
100
AcDbEntity
  8
0
100
AcDbPolyline
 62
7
  6
CONTINUOUS
 90
4
 70
0
 10
-100.3884579387
 20
981.8572714729
 10
-100.6088945486
 20
981.4593620511
 10
-100.8132448302
 20
981.0470545584
 10
-101.0004230744
 20
980.6208986204
  0
LWPOLYLINE
  5
21C
100
AcDbEntity
  8
0
100
AcDbPolyline
 62
7
  6
CONTINUOUS
 90
6
 70
0
 10
-99.8699540932
 20
982.6538105423
 10
-100.0979318914
 20
982.3232503404
 10
-100.3150099152
 20
981.9795731282
 10
-100.5203200802
 20
981.6230252115
 10
-100.7129863949
 20
981.2539060061
 10
-100.8921190238
 20
980.8725897374
  0
LWPOLYLINE
  5
21D
100
AcDbEntity
  8
0
100
AcDbPolyline
 62
7
  6
CONTINUOUS
 90
4
 70
0
 10
-99.640484834
 20
982.9614935899
 10
-99.90335709
 20
982.6085075611
 10
-100.1530213582
 20
982.2403083602
 10
-100.3884579387
 20
981.8572714729
  0
LINE
  5
21E
100
AcDbEntity
  8
_SURFACE
100
AcDbLine
 62
7
  6
CONTINUOUS
 10
-101.6987638952
 20
977.8589634339
 11
-103.0700356505
 21
964.8129838139
  0
LINE
  5
21F
100
AcDbEntity
  8
0
100
AcDbLine
 62
7
  6
CONTINUOUS
 10
-101.6428265648
 20
978.2976104222
 11
-101.6987630732
 21
977.8589698476
  0
LINE
  5
220
100
AcDbEntity
  8
0
100
AcDbLine
 62
7
  6
CONTINUOUS
 10
-101.5571568243
 20
978.785753878
 11
-101.6428265648
 21
978.2976104222
  0
LWPOLYLINE
  5
221
100
AcDbEntity
  8
0
100
AcDbPolyline
 62
7
  6
CONTINUOUS
 90
9
 70
0
 10
-97.4633502136
 20
985.0218910007
 10
-97.7534806111
 20
984.8123017283
 10
-98.0394741916
 20
984.5895969746
 10
-98.3207074633
 20
984.3536283985
 10
-98.5964179713
 20
984.1043746473
 10
-98.8661563293
 20
983.8415270496
 10
-99.1292339173
 20
983.5649660432
 10
-99.3847658012
 20
983.2747895107
 10
-99.6319473541
 20
982.9710414901
  0
LWPOLYLINE
  5
222
100
AcDbEntity
  8
0
100
AcDbPolyline
 62
7
  6
CONTINUOUS
 90
8
 70
0
 10
-97.165473239
 20
985.2226246435
 10
-97.5027903506
 20
984.9957025605
 10
-97.8341848217
 20
984.7525173297
 10
-98.1583928591
 20
984.4933447829
 10
-98.4743775882
 20
984.2183913129
 10
-98.7814311333
 20
983.927622229
 10
-99.0787790324
 20
983.6210528466
 10
-99.3654148146
 20
983.2989588277
  0
LINE
  5
223
100
AcDbEntity
  8
_SURFACE
100
AcDbLine
 62
7
  6
CONTINUOUS
 10
-100.7080390949
 20
987.1307579842
 11
-100.7080215795
 21
987.1300794331
  0
LINE
  5
224
100
AcDbEntity
  8
_SURFACE
100
AcDbLine
 62
7
  6
CONTINUOUS
 10
-91.4756008192
 20
979.3037870879
 11
-91.4755833038
 21
979.3031085358
  0
LWPOLYLINE
  5
225
100
AcDbEntity
  8
_SURFACE
100
AcDbPolyline
 62
7
  6
CONTINUOUS
 90
3
 70
0
 10
-10.0094564111
 20
984.0928296936
 10
-10.0083542645
 20
984.0947522917
 10
-10.0092250072
 20
984.0967223635
  0
LWPOLYLINE
  5
226
100
AcDbEntity
  8
0
100
AcDbPolyline
 62
7
  6
CONTINUOUS
 90
3
 70
0
 10
-96.126935883
 20
985.8066114524
 10
-96.4765048586
 20
985.6280427562
 10
-96.8230991288
 20
985.4333636589
  0
LINE
  5
227
100
AcDbEntity
  8
_SURFACE
100
AcDbLine
 62
7
  6
CONTINUOUS
 10
-100.7080407571
 20
987.1288522774
 11
-100.708242565
 21
987.1307422318
  0
LINE
  5
228
100
AcDbEntity
  8
_SURFACE
100
AcDbLine
 62
7
  6
CONTINUOUS
 10
-91.4756030391
 20
979.3038699572
 11
-91.4755952825
 21
979.3037729341
  0
LWPOLYLINE
  5
229
100
AcDbEntity
  8
0
100
AcDbPolyline
 62
7
  6
CONTINUOUS
 90
4
 70
0
 10
-2.1285416735
 20
958.8093359826
 10
-2.1807140726
 20
958.7036653354
 10
-2.2305362427
 20
958.6052563886
 10
-2.2776711216
 20
958.5141070976
  0
LINE
  5
22A
100
AcDbEntity
  8
0
100
AcDbLine
 62
7
  6
CONTINUOUS
 10
-2.1285416735
 20
958.8093359826
 11
-2.4865440389
 21
958.1264062541
  0
LWPOLYLINE
  5
22B
100
AcDbEntity
  8
0
100
AcDbPolyline
 62
7
  6
CONTINUOUS
 90
3
 70
0
 10
-2.3217568877
 20
958.4299814145
 10
-2.3624988286
 20
958.3530927481
 10
-2.3996591303
 20
958.2841368417
  0
LINE
  5
22C
100
AcDbEntity
  8
0
100
AcDbLine
 62
7
  6
CONTINUOUS
 10
-2.3996591303
 20
958.2841368417
 11
-2.4865440389
 21
958.1264062541
  0
LWPOLYLINE
  5
22D
100
AcDbEntity
  8
0
100
AcDbPolyline
 62
7
  6
CONTINUOUS
 90
3
 70
0
 10
-2.4978828384
 20
958.1063844209
 10
-2.5029553733
 20
958.0972958694
 10
-2.5077264726
 20
958.0888507566
  0
LWPOLYLINE
  5
22E
100
AcDbEntity
  8
0
100
AcDbPolyline
 62
7
  6
CONTINUOUS
 90
3
 70
0
 10
-2.5612558608
 20
957.9953846703
 10
-2.5619108036
 20
957.9942298915
 10
-2.5624459258
 20
957.9932340756
  0
LINE
  5
22F
100
AcDbEntity
  8
0
100
AcDbLine
 62
7
  6
CONTINUOUS
 10
-2.5203659231
 20
958.0666747118
 11
-2.5240738962
 21
958.0601833152
  0
LINE
  5
230
100
AcDbEntity
  8
0
100
AcDbLine
 62
7
  6
CONTINUOUS
 10
-2.5566580335
 20
958.0033432755
 11
-2.5577400367
 21
958.001474211
  0
LWPOLYLINE
  5
231
100
AcDbEntity
  8
0
100
AcDbPolyline
 62
7
  6
CONTINUOUS
 90
8
 70
0
 10
-95.0316623437
 20
986.2597050657
 10
-95.3432448283
 20
986.1457617363
 10
-95.6529309065
 20
986.0206761702
 10
-95.961682472
 20
985.8837354011
 10
-96.2682506028
 20
985.7351225291
 10
-96.5716095817
 20
985.5750368257
 10
-96.8718201875
 20
985.4031406227
 10
-97.1692247155
 20
985.2188261885
  0
LWPOLYLINE
  5
232
100
AcDbEntity
  8
0
100
AcDbPolyline
 62
7
  6
CONTINUOUS
 90
5
 70
0
 10
-94.7152528203
 20
986.3650079237
 10
-95.0687209778
 20
986.2481438786
 10
-95.4221248868
 20
986.1164195414
 10
-95.7752286747
 20
985.9693043501
 10
-96.126935883
 20
985.8066114524
  0
LINE
  5
233
100
AcDbEntity
  8
0
100
AcDbLine
 62
7
  6
CONTINUOUS
 10
-2.4788044602
 20
958.0580364678
 11
-2.5665595083
 21
958.0234989062
  0
LINE
  5
234
100
AcDbEntity
  8
_SURFACE
100
AcDbLine
 62
6
  6
CONTINUOUS
 10
-3.6505087107
 20
968.222197613
 11
43.6084334354
 21
523.1500309174
  0
LINE
  5
235
100
AcDbEntity
  8
DATUM_AXIS
100
AcDbLine
 62
7
  6
CONTINUOUS
 10
-0.4371440095
 20
937.9790600771
 11
0.6599818667
 21
927.6468704351
  0
LINE
  5
236
100
AcDbEntity
  8
_SURFACE
100
AcDbLine
 62
7
  6
CONTINUOUS
 10
51.1587096199
 20
523.1116594087
 11
51.5240940828
 21
519.6514047889
  0
LINE
  5
237
100
AcDbEntity
  8
_SURFACE
100
AcDbLine
 62
7
  6
CONTINUOUS
 10
43.5937412052
 20
523.326503985
 11
43.9538676006
 21
519.9156921674
  0
LINE
  5
238
100
AcDbEntity
  8
0
100
AcDbLine
 62
7
  6
CONTINUOUS
 10
-2.5613280409
 20
957.9922626939
 11
46.4066890127
 21
496.812636828
  0
LINE
  5
239
100
AcDbEntity
  8
0
100
AcDbLine
 62
7
  6
CONTINUOUS
 10
46.401555323
 20
496.8636333341
 11
43.7040338316
 21
524.0875989517
  0
LINE
  5
23A
100
AcDbEntity
  8
0
100
AcDbLine
 62
7
  6
CONTINUOUS
 10
547.4868767077
 20
496.8123951775
 11
547.4873261121
 21
496.8123978336
  0
LINE
  5
23B
100
AcDbEntity
  8
0
100
AcDbLine
 62
7
  6
CONTINUOUS
 10
46.4067551792
 20
496.8121313641
 11
46.4072015084
 21
496.8121285579
  0
LINE
  5
23C
100
AcDbEntity
  8
0
100
AcDbLine
 62
7
  6
CONTINUOUS
 10
46.4066538548
 20
496.8124341551
 11
46.4050987988
 21
496.8126098983
  0
LINE
  5
23D
100
AcDbEntity
  8
_SURFACE
100
AcDbLine
 62
6
  6
CONTINUOUS
 10
-3.6391704081
 20
968.1064698311
 11
-3.6315585472
 21
968.0711681827
  0
LINE
  5
23E
100
AcDbEntity
  8
_SURFACE
100
AcDbLine
 62
6
  6
CONTINUOUS
 10
-3.9278796318
 20
969.9286609545
 11
-3.9261056339
 21
969.9204351844
  0
LINE
  5
23F
100
AcDbEntity
  8
_SURFACE
100
AcDbLine
 62
6
  6
CONTINUOUS
 10
-3.9125217637
 20
969.8567258804
 11
-3.9112256746
 21
969.8505789272
  0
LINE
  5
240
100
AcDbEntity
  8
_SURFACE
100
AcDbLine
 62
6
  6
CONTINUOUS
 10
-3.8979219829
 20
969.7867719784
 11
-3.8969645486
 21
969.7821289139
  0
LINE
  5
241
100
AcDbEntity
  8
_SURFACE
100
AcDbLine
 62
6
  6
CONTINUOUS
 10
-3.8837523308
 20
969.717331018
 11
-3.8830312818
 21
969.7137549953
  0
LINE
  5
242
100
AcDbEntity
  8
_SURFACE
100
AcDbLine
 62
6
  6
CONTINUOUS
 10
-3.869719254
 20
969.6469676876
 11
-3.8691538188
 21
969.6440979912
  0
LINE
  5
243
100
AcDbEntity
  8
_SURFACE
100
AcDbLine
 62
6
  6
CONTINUOUS
 10
-3.8558200075
 20
969.5756189368
 11
-3.8553476942
 21
969.5731642468
  0
LINE
  5
244
100
AcDbEntity
  8
_SURFACE
100
AcDbLine
 62
6
  6
CONTINUOUS
 10
-3.8424255903
 20
969.5052046491
 11
-3.8419996504
 21
969.5029376784
  0
LINE
  5
245
100
AcDbEntity
  8
_SURFACE
100
AcDbLine
 62
6
  6
CONTINUOUS
 10
-3.8285238831
 20
969.430292872
 11
-3.8281410158
 21
969.4282021868
  0
LINE
  5
246
100
AcDbEntity
  8
_SURFACE
100
AcDbLine
 62
6
  6
CONTINUOUS
 10
-3.8151453282
 20
969.3563236943
 11
-3.8148104385
 21
969.3544474349
  0
LINE
  5
247
100
AcDbEntity
  8
_SURFACE
100
AcDbLine
 62
6
  6
CONTINUOUS
 10
-3.8022878434
 20
969.2833847895
 11
-3.7893904132
 21
969.2082731699
  0
LINE
  5
248
100
AcDbEntity
  8
_SURFACE
100
AcDbLine
 62
6
  6
CONTINUOUS
 10
-3.7893904132
 20
969.2082731699
 11
-3.7769276708
 21
969.1337134058
  0
LINE
  5
249
100
AcDbEntity
  8
_SURFACE
100
AcDbLine
 62
6
  6
CONTINUOUS
 10
-3.7528748959
 20
968.9848909882
 11
-3.7769276708
 21
969.1337134058
  0
LINE
  5
24A
100
AcDbEntity
  8
_SURFACE
100
AcDbLine
 62
6
  6
CONTINUOUS
 10
-3.7303686031
 20
968.8368761862
 11
-3.7424409296
 21
968.9173066697
  0
LINE
  5
24B
100
AcDbEntity
  8
_SURFACE
100
AcDbLine
 62
6
  6
CONTINUOUS
 10
-3.7209105967
 20
968.7720636597
 11
-3.7094815479
 21
968.6904454372
  0
LINE
  5
24C
100
AcDbEntity
  8
_SURFACE
100
AcDbLine
 62
6
  6
CONTINUOUS
 10
-3.7098220008
 20
968.6931983401
 11
-3.6979430284
 21
968.607168153
  0
LINE
  5
24D
100
AcDbEntity
  8
_SURFACE
100
AcDbLine
 62
6
  6
CONTINUOUS
 10
-3.6774555273
 20
968.452158008
 11
-3.690371046
 21
968.5524290242
  0
LINE
  5
24E
100
AcDbEntity
  8
_SURFACE
100
AcDbLine
 62
6
  6
CONTINUOUS
 10
-3.6791189116
 20
968.4634787487
 11
-3.666367817
 21
968.3595337247
  0
LINE
  5
24F
100
AcDbEntity
  8
_SURFACE
100
AcDbLine
 62
6
  6
CONTINUOUS
 10
-3.6559984367
 20
968.2754112119
 11
-3.6698089671
 21
968.3907212549
  0
LINE
  5
250
100
AcDbEntity
  8
_SURFACE
100
AcDbLine
 62
6
  6
CONTINUOUS
 10
-3.6583802878
 20
968.2921537877
 11
-3.6490916902
 21
968.2101271644
  0
LINE
  5
251
100
AcDbEntity
  8
_SURFACE
100
AcDbLine
 62
6
  6
CONTINUOUS
 10
-3.6484179854
 20
968.2056401803
 11
-3.6341871025
 21
968.0760058128
  0
LINE
  5
252
100
AcDbEntity
  8
_SURFACE
100
AcDbLine
 62
6
  6
CONTINUOUS
 10
542.3694353025
 20
519.6515306994
 11
296.9467858706
 21
511.0801506722
  0
LINE
  5
253
100
AcDbEntity
  8
0
100
AcDbLine
 62
7
  6
CONTINUOUS
 10
46.4071013115
 20
496.8121353869
 11
46.4067551792
 21
496.8121313641
  0
LINE
  5
254
100
AcDbEntity
  8
0
100
AcDbLine
 62
7
  6
CONTINUOUS
 10
46.4066361235
 20
496.8126122109
 11
46.4062351717
 21
496.8126098945
  0
LINE
  5
255
100
AcDbEntity
  8
0
100
AcDbLine
 62
7
  6
CONTINUOUS
 10
46.4123806887
 20
496.8121204918
 11
547.4878020079
 21
496.812361636
  0
LINE
  5
256
100
AcDbEntity
  8
0
100
AcDbLine
 62
7
  6
CONTINUOUS
 10
547.4867842146
 20
496.8123708263
 11
547.4865455879
 21
496.8123767205
  0
LINE
  5
257
100
AcDbEntity
  8
_SURFACE
100
AcDbLine
 62
6
  6
CONTINUOUS
 10
51.5241032224
 20
519.6512974387
 11
296.9467858706
 21
511.0801506722
  0
LINE
  5
258
100
AcDbEntity
  8
0
100
AcDbLine
 62
7
  6
CONTINUOUS
 10
547.48783938
 20
496.812468034
 11
547.4884599578
 21
496.8123978298
  0
LINE
  5
259
100
AcDbEntity
  8
_SURFACE
100
AcDbLine
 62
6
  6
CONTINUOUS
 10
-4.1115086547
 20
970.7750888756
 11
-4.2360373373
 21
971.1558553124
  0
LWPOLYLINE
  5
25A
100
AcDbEntity
  8
_SURFACE
100
AcDbPolyline
 62
6
  6
CONTINUOUS
 90
3
 70
0
 10
-4.3204971242
 20
971.3792297852
 10
-4.2751390257
 20
971.2397214398
 10
-4.2373238283
 20
971.1190073223
  0
LINE
  5
25B
100
AcDbEntity
  8
_SURFACE
100
AcDbLine
 62
6
  6
CONTINUOUS
 10
-4.180422231
 20
970.983302741
 11
-4.0996678247
 21
970.7355370246
  0
LINE
  5
25C
100
AcDbEntity
  8
_SURFACE
100
AcDbLine
 62
6
  6
CONTINUOUS
 10
-4.1506555697
 20
970.8902889277
 11
-4.1372506703
 21
970.8478425575
  0
LWPOLYLINE
  5
25D
100
AcDbEntity
  8
_SURFACE
100
AcDbPolyline
 62
6
  6
CONTINUOUS
 90
4
 70
0
 10
-4.3312419022
 20
971.4379024762
 10
-4.2020608101
 20
971.0228650673
 10
-4.2016894758
 20
971.0213819391
 10
-4.2091714488
 20
971.0455251509
  0
LINE
  5
25E
100
AcDbEntity
  8
_SURFACE
100
AcDbLine
 62
6
  6
CONTINUOUS
 10
-4.1245345336
 20
970.8072491005
 11
-4.0309458555
 21
970.5138156765
  0
LINE
  5
25F
100
AcDbEntity
  8
_SURFACE
100
AcDbLine
 62
6
  6
CONTINUOUS
 10
-4.1970938644
 20
971.0060644222
 11
-4.2467538488
 21
971.1727611171
  0
LINE
  5
260
100
AcDbEntity
  8
_SURFACE
100
AcDbLine
 62
6
  6
CONTINUOUS
 10
-4.0971975297
 20
970.7456732209
 11
-4.0708876055
 21
970.6323617599
  0
LINE
  5
261
100
AcDbEntity
  8
_SURFACE
100
AcDbLine
 62
6
  6
CONTINUOUS
 10
-3.968925284
 20
970.3068784803
 11
-4.0758260054
 21
970.6508755968
  0
LINE
  5
262
100
AcDbEntity
  8
_SURFACE
100
AcDbLine
 62
6
  6
CONTINUOUS
 10
-4.1856790527
 20
970.9680914506
 11
-4.2406113789
 21
971.1532157261
  0
LINE
  5
263
100
AcDbEntity
  8
_SURFACE
100
AcDbLine
 62
6
  6
CONTINUOUS
 10
-4.1801753073
 20
970.9494768892
 11
-4.179270047
 21
970.9463902663
  0
LINE
  5
264
100
AcDbEntity
  8
_SURFACE
100
AcDbLine
 62
6
  6
CONTINUOUS
 10
-4.0071942184
 20
970.4166690595
 11
-4.0005640206
 21
970.3936860287
  0
LINE
  5
265
100
AcDbEntity
  8
_SURFACE
100
AcDbLine
 62
6
  6
CONTINUOUS
 10
-4.0363933584
 20
970.5166769783
 11
-3.9199888573
 21
970.1387873475
  0
LINE
  5
266
100
AcDbEntity
  8
_SURFACE
100
AcDbLine
 62
6
  6
CONTINUOUS
 10
-3.8728882158
 20
969.9729084698
 11
-3.9226121084
 21
970.1484420438
  0
LWPOLYLINE
  5
267
100
AcDbEntity
  8
_SURFACE
100
AcDbPolyline
 62
6
  6
CONTINUOUS
 90
3
 70
0
 10
-4.1433051177
 20
970.8196472706
 10
-4.1576937764
 20
970.8708520973
 10
-4.1861875561
 20
970.9702166369
  0
LINE
  5
268
100
AcDbEntity
  8
_SURFACE
100
AcDbLine
 62
6
  6
CONTINUOUS
 10
-3.883079893
 20
970.0090671153
 11
-3.857910618
 21
969.9190910225
  0
LINE
  5
269
100
AcDbEntity
  8
_SURFACE
100
AcDbLine
 62
6
  6
CONTINUOUS
 10
-4.1290565905
 20
970.7482654342
 11
-4.1132435068
 21
970.6906222071
  0
LINE
  5
26A
100
AcDbEntity
  8
_SURFACE
100
AcDbLine
 62
6
  6
CONTINUOUS
 10
-4.0983343666
 20
970.6353691528
 11
-4.0844860906
 21
970.5832318672
  0
LINE
  5
26B
100
AcDbEntity
  8
_SURFACE
100
AcDbLine
 62
6
  6
CONTINUOUS
 10
-4.0713891809
 20
970.5331748493
 11
-4.0589668656
 21
970.4850007392
  0
LINE
  5
26C
100
AcDbEntity
  8
_SURFACE
100
AcDbLine
 62
6
  6
CONTINUOUS
 10
-4.0472920352
 20
970.4390878066
 11
-4.0363492592
 21
970.3954749588
  0
LINE
  5
26D
100
AcDbEntity
  8
_SURFACE
100
AcDbLine
 62
6
  6
CONTINUOUS
 10
-4.0273494712
 20
970.3591738796
 11
-4.0190076745
 21
970.3251692453
  0
LINE
  5
26E
100
AcDbEntity
  8
_SURFACE
100
AcDbLine
 62
6
  6
CONTINUOUS
 10
-4.0045108328
 20
970.265230295
 11
-3.9983340118
 21
970.2393566895
  0
LINE
  5
26F
100
AcDbEntity
  8
_SURFACE
100
AcDbLine
 62
6
  6
CONTINUOUS
 10
-3.9873005718
 20
970.192625743
 11
-3.9824323507
 21
970.171792681
  0
LINE
  5
270
100
AcDbEntity
  8
_SURFACE
100
AcDbLine
 62
6
  6
CONTINUOUS
 10
-3.9696407753
 20
970.1164083466
 11
-3.9658994549
 21
970.100028963
  0
LINE
  5
271
100
AcDbEntity
  8
_SURFACE
100
AcDbLine
 62
6
  6
CONTINUOUS
 10
-3.9529267394
 20
970.042581969
 11
-3.9501053537
 21
970.0299509565
  0
LINE
  5
272
100
AcDbEntity
  8
_SURFACE
100
AcDbLine
 62
6
  6
CONTINUOUS
 10
-3.9378135305
 20
969.9743320878
 11
-3.9356690887
 21
969.9645285201
  0
LINE
  5
273
100
AcDbEntity
  8
0
100
AcDbLine
 62
7
  6
CONTINUOUS
 10
540.5089066615
 20
525.6880721295
 11
540.3755449466
 21
525.6972499688
  0
LINE
  5
274
100
AcDbEntity
  8
0
100
AcDbLine
 62
7
  6
CONTINUOUS
 10
540.5088224615
 20
525.687231682
 11
540.375625518
 21
525.6980533952
  0
LINE
  5
275
100
AcDbEntity
  8
_SURFACE
100
AcDbLine
 62
6
  6
CONTINUOUS
 10
-4.7783748234
 20
972.5956912533
 11
-4.6177280045
 21
972.1769288705
  0
LWPOLYLINE
  5
276
100
AcDbEntity
  8
_SURFACE
100
AcDbPolyline
 62
6
  6
CONTINUOUS
 90
5
 70
0
 10
-4.6351620577
 20
972.2369870512
 10
-4.7065287388
 20
972.4055585917
 10
-4.7793060265
 20
972.5709295694
 10
-4.8538356693
 20
972.7338697101
 10
-4.9297431879
 20
972.8935545587
  0
LWPOLYLINE
  5
277
100
AcDbEntity
  8
_SURFACE
100
AcDbPolyline
 62
6
  6
CONTINUOUS
 90
3
 70
0
 10
-4.695872847
 20
972.4058020085
 10
-4.6161579164
 20
972.2144670841
 10
-4.5450063993
 20
972.0367146573
  0
LWPOLYLINE
  5
278
100
AcDbEntity
  8
_SURFACE
100
AcDbPolyline
 62
6
  6
CONTINUOUS
 90
3
 70
0
 10
-4.6900163289
 20
972.3463294715
 10
-4.4916962528
 20
971.8601174186
 10
-4.345665933
 20
971.4602650622
  0
LINE
  5
279
100
AcDbEntity
  8
_SURFACE
100
AcDbLine
 62
6
  6
CONTINUOUS
 10
-4.4928487553
 20
971.8801935414
 11
-4.5642107231
 21
972.0626796458
  0
LINE
  5
27A
100
AcDbEntity
  8
_SURFACE
100
AcDbLine
 62
6
  6
CONTINUOUS
 10
-4.5339366145
 20
971.9732739979
 11
-4.4743533913
 21
971.818861982
  0
LINE
  5
27B
100
AcDbEntity
  8
_SURFACE
100
AcDbLine
 62
6
  6
CONTINUOUS
 10
-4.52590392
 20
971.9494919396
 11
-4.4047460682
 21
971.6325589301
  0
LINE
  5
27C
100
AcDbEntity
  8
_SURFACE
100
AcDbLine
 62
6
  6
CONTINUOUS
 10
-4.4441108418
 20
971.733443211
 11
-4.3306090183
 21
971.4282722513
  0
LINE
  5
27D
100
AcDbEntity
  8
_SURFACE
100
AcDbLine
 62
6
  6
CONTINUOUS
 10
-4.2360373373
 20
971.1558553124
 11
-4.4533705419
 21
971.7887306285
  0
LINE
  5
27E
100
AcDbEntity
  8
_SURFACE
100
AcDbLine
 62
6
  6
CONTINUOUS
 10
-4.3027025234
 20
971.3485000633
 11
-4.277491008
 21
971.275328756
  0
LINE
  5
27F
100
AcDbEntity
  8
_SURFACE
100
AcDbLine
 62
6
  6
CONTINUOUS
 10
-4.3758133798
 20
971.5421799967
 11
-4.233936108
 21
971.1463691055
  0
LINE
  5
280
100
AcDbEntity
  8
_SURFACE
100
AcDbLine
 62
6
  6
CONTINUOUS
 10
-4.345665933
 20
971.4602650622
 11
-4.1728909848
 21
970.9634434238
  0
LINE
  5
281
100
AcDbEntity
  8
_SURFACE
100
AcDbLine
 62
6
  6
CONTINUOUS
 10
-5.0877072484
 20
973.2071488739
 11
-5.2080557571
 21
973.4692509173
  0
LINE
  5
282
100
AcDbEntity
  8
_SURFACE
100
AcDbLine
 62
6
  6
CONTINUOUS
 10
-4.8248048413
 20
972.6394861739
 11
-5.0074642439
 21
973.0508858383
  0
LINE
  5
283
100
AcDbEntity
  8
_SURFACE
100
AcDbLine
 62
6
  6
CONTINUOUS
 10
-4.8248048413
 20
972.6394861739
 11
-4.71665312
 21
972.4059883838
  0
LWPOLYLINE
  5
284
100
AcDbEntity
  8
_SURFACE
100
AcDbPolyline
 62
6
  6
CONTINUOUS
 90
3
 70
0
 10
-5.7006919325
 20
974.2779798518
 10
-5.5487924925
 20
974.0070126358
 10
-5.4472738745
 20
973.8453101338
  0
LWPOLYLINE
  5
285
100
AcDbEntity
  8
_SURFACE
100
AcDbPolyline
 62
6
  6
CONTINUOUS
 90
4
 70
0
 10
-5.5136011315
 20
973.9443618273
 10
-5.6026145431
 20
974.0810857682
 10
-5.6934000191
 20
974.2150029741
 10
-5.7861627426
 20
974.3463147949
  0
LWPOLYLINE
  5
286
100
AcDbEntity
  8
_SURFACE
100
AcDbPolyline
 62
6
  6
CONTINUOUS
 90
3
 70
0
 10
-5.5971305756
 20
974.1226053103
 10
-5.4959877304
 20
973.9636911793
 10
-5.3973409139
 20
973.8015430107
  0
LINE
  5
287
100
AcDbEntity
  8
_SURFACE
100
AcDbLine
 62
6
  6
CONTINUOUS
 10
-5.341247223
 20
973.6634081149
 11
-5.4268942511
 21
973.8057807601
  0
LINE
  5
288
100
AcDbEntity
  8
_SURFACE
100
AcDbLine
 62
6
  6
CONTINUOUS
 10
-5.255649976
 20
973.5153941417
 11
-5.3973409139
 21
973.8015430107
  0
LWPOLYLINE
  5
289
100
AcDbEntity
  8
_SURFACE
100
AcDbPolyline
 62
6
  6
CONTINUOUS
 90
8
 70
0
 10
-5.346095552
 20
973.6760700009
 10
-5.2445629945
 20
973.4977746068
 10
-5.141886183
 20
973.3084817106
 10
-5.0376189418
 20
973.1065686884
 10
-4.9366442924
 20
972.9012354489
 10
-4.8408770793
 20
972.6970779985
 10
-4.7461850466
 20
972.4856581309
 10
-4.6653588959
 20
972.2972241029
  0
LINE
  5
28A
100
AcDbEntity
  8
_SURFACE
100
AcDbLine
 62
6
  6
CONTINUOUS
 10
-5.1707511155
 20
973.3626325404
 11
-5.3012177822
 21
973.6363977016
  0
LWPOLYLINE
  5
28B
100
AcDbEntity
  8
_SURFACE
100
AcDbPolyline
 62
6
  6
CONTINUOUS
 90
15
 70
0
 10
601.6689975105
 20
976.0164632716
 10
601.6576667898
 20
976.0114896225
 10
601.6184570081
 20
975.9940338222
 10
601.5510611301
 20
975.9631099674
 10
601.4587731378
 20
975.9187924961
 10
601.3512842451
 20
975.8640149557
 10
601.229089187
 20
975.7971354898
 10
601.0940680583
 20
975.7168927428
 10
600.9575581208
 20
975.6283550135
 10
600.82057788
 20
975.5315563312
 10
600.6799311018
 20
975.4236835788
 10
600.5423261572
 20
975.3094356563
 10
600.4103823374
 20
975.1910738849
 10
600.2810395669
 20
975.0660762409
 10
600.1547693848
 20
974.9350388608
  0
LWPOLYLINE
  5
28C
100
AcDbEntity
  8
_SURFACE
100
AcDbPolyline
 62
6
  6
CONTINUOUS
 90
4
 70
0
 10
-5.9812370885
 20
974.6052133252
 10
-6.0827859508
 20
974.7311929862
 10
-6.1855661482
 20
974.8527944607
 10
-6.2899539218
 20
974.9700349355
  0
LINE
  5
28D
100
AcDbEntity
  8
_SURFACE
100
AcDbLine
 62
6
  6
CONTINUOUS
 10
-5.9632109625
 20
974.5894617433
 11
-5.9727199271
 21
974.6014206578
  0
LINE
  5
28E
100
AcDbEntity
  8
_SURFACE
100
AcDbLine
 62
6
  6
CONTINUOUS
 10
-5.9091895825
 20
974.5206124424
 11
-5.9355784922
 21
974.554450061
  0
LINE
  5
28F
100
AcDbEntity
  8
_SURFACE
100
AcDbLine
 62
6
  6
CONTINUOUS
 10
-5.8584977888
 20
974.4544849434
 11
-5.884619043
 21
974.4887466714
  0
LWPOLYLINE
  5
290
100
AcDbEntity
  8
_SURFACE
100
AcDbPolyline
 62
6
  6
CONTINUOUS
 90
3
 70
0
 10
-5.9045349929
 20
974.5141838861
 10
-5.8402650082
 20
974.4290753532
 10
-5.7584667814
 20
974.3166991542
  0
LINE
  5
291
100
AcDbEntity
  8
_SURFACE
100
AcDbLine
 62
6
  6
CONTINUOUS
 10
-5.9135636152
 20
974.5753644095
 11
-5.7861627426
 21
974.3463147949
  0
LINE
  5
292
100
AcDbEntity
  8
_SURFACE
100
AcDbLine
 62
6
  6
CONTINUOUS
 10
-5.8063254646
 20
974.4291482232
 11
-5.6563005813
 21
974.1697771121
  0
LWPOLYLINE
  5
293
100
AcDbEntity
  8
_SURFACE
100
AcDbPolyline
 62
6
  6
CONTINUOUS
 90
7
 70
0
 10
600.983941262
 20
975.6436483557
 10
601.1345141905
 20
975.7400420565
 10
601.2790291342
 20
975.8241216813
 10
601.4057181855
 20
975.8916848303
 10
601.5109823175
 20
975.9439205046
 10
601.5944927683
 20
975.9830964013
 10
601.6487088631
 20
976.0075254806
  0
LWPOLYLINE
  5
294
100
AcDbEntity
  8
_SURFACE
100
AcDbPolyline
 62
6
  6
CONTINUOUS
 90
7
 70
0
 10
-6.5797302852
 20
975.3252124634
 10
-6.4645088578
 20
975.21596839
 10
-6.3520568009
 20
975.1008211234
 10
-6.2412187369
 20
974.9791744704
 10
-6.1312989393
 20
974.8508413253
 10
-6.021994946
 20
974.7160578627
 10
-5.884619043
 20
974.4887466714
  0
LINE
  5
295
100
AcDbEntity
  8
_CURVE
100
AcDbLine
 62
40
  6
CONTINUOUS
 10
296.9468003302
 20
496.8126080987
 11
296.946558945
 21
986.8112162396
  0
LINE
  5
296
100
AcDbEntity
  8
_CURVE
100
AcDbLine
 62
40
  6
CONTINUOUS
 10
296.9464169487
 20
986.8233679338
 11
296.9462822567
 21
986.8121355828
  0
LINE
  5
297
100
AcDbEntity
  8
_SURFACE
100
AcDbLine
 62
7
  6
CONTINUOUS
 10
596.5824354467
 20
906.4896425297
 11
590.9959255841
 21
902.9988000295
  0
LWPOLYLINE
  5
298
100
AcDbEntity
  8
_SURFACE
100
AcDbPolyline
 62
6
  6
CONTINUOUS
 90
3
 70
0
 10
600.0316027206
 20
974.7983429436
 10
599.9110941028
 20
974.6559127794
 10
599.7936829863
 20
974.5085942184
  0
LINE
  5
299
100
AcDbEntity
  8
_SURFACE
100
AcDbLine
 62
6
  6
CONTINUOUS
 10
599.2365050465
 20
973.6207125053
 11
599.2398744723
 21
973.6259533775
  0
LINE
  5
29A
100
AcDbEntity
  8
_SURFACE
100
AcDbLine
 62
6
  6
CONTINUOUS
 10
599.2558833393
 20
973.6502303427
 11
599.2519560343
 21
973.644180024
  0
LWPOLYLINE
  5
29B
100
AcDbEntity
  8
_SURFACE
100
AcDbPolyline
 62
6
  6
CONTINUOUS
 90
10
 70
0
 10
599.436014093
 20
973.9851201432
 10
599.5788180102
 20
974.1997865775
 10
599.7262552803
 20
974.4062360047
 10
599.8773016551
 20
974.6026573714
 10
600.0300087909
 20
974.7866010375
 10
600.1844109466
 20
974.9583532958
 10
600.3407296729
 20
975.1181201047
 10
600.4982068308
 20
975.2653765826
 10
600.6615810741
 20
975.4046374127
 10
600.8270148989
 20
975.5329548821
  0
LINE
  5
29C
100
AcDbEntity
  8
0
100
AcDbLine
 62
7
  6
CONTINUOUS
 10
695.5911460624
 20
977.859328608
 11
695.5910172299
 21
977.8592931598
  0
LINE
  5
29D
100
AcDbEntity
  8
_SURFACE
100
AcDbLine
 62
6
  6
CONTINUOUS
 10
598.8849002627
 20
973.0159686091
 11
598.875087175
 21
972.9972321626
  0
LINE
  5
29E
100
AcDbEntity
  8
_SURFACE
100
AcDbLine
 62
6
  6
CONTINUOUS
 10
598.8946891009
 20
973.0345476866
 11
599.0034950394
 21
973.2176590566
  0
LINE
  5
29F
100
AcDbEntity
  8
_SURFACE
100
AcDbLine
 62
6
  6
CONTINUOUS
 10
598.9141884768
 20
973.0712306421
 11
599.0217795748
 21
973.2513191564
  0
LINE
  5
2A0
100
AcDbEntity
  8
_SURFACE
100
AcDbLine
 62
6
  6
CONTINUOUS
 10
598.9100573914
 20
973.0629830464
 11
599.1643182159
 21
973.5334931871
  0
LINE
  5
2A1
100
AcDbEntity
  8
_SURFACE
100
AcDbLine
 62
6
  6
CONTINUOUS
 10
599.0776819344
 20
973.352197566
 11
598.972205071
 21
973.1778697819
  0
LINE
  5
2A2
100
AcDbEntity
  8
_SURFACE
100
AcDbLine
 62
6
  6
CONTINUOUS
 10
599.0009623996
 20
973.2293828223
 11
598.9913970008
 21
973.2123449947
  0
LINE
  5
2A3
100
AcDbEntity
  8
_SURFACE
100
AcDbLine
 62
6
  6
CONTINUOUS
 10
599.1035439898
 20
973.3978121528
 11
599.0105041674
 21
973.2462836278
  0
LINE
  5
2A4
100
AcDbEntity
  8
_SURFACE
100
AcDbLine
 62
6
  6
CONTINUOUS
 10
599.1294458843
 20
973.4430171474
 11
598.991583285
 21
973.2121682566
  0
LINE
  5
2A5
100
AcDbEntity
  8
_SURFACE
100
AcDbLine
 62
6
  6
CONTINUOUS
 10
599.0628548182
 20
973.3360258778
 11
599.2976256876
 21
973.7624461041
  0
LINE
  5
2A6
100
AcDbEntity
  8
_SURFACE
100
AcDbLine
 62
6
  6
CONTINUOUS
 10
599.0738652416
 20
973.3549394449
 11
599.0678369285
 21
973.3445969739
  0
LWPOLYLINE
  5
2A7
100
AcDbEntity
  8
_SURFACE
100
AcDbPolyline
 62
6
  6
CONTINUOUS
 90
3
 70
0
 10
599.1294458843
 20
973.4430171474
 10
599.1714613246
 20
973.5149526851
 10
599.200548276
 20
973.5638371817
  0
LINE
  5
2A8
100
AcDbEntity
  8
_SURFACE
100
AcDbLine
 62
6
  6
CONTINUOUS
 10
599.0845070678
 20
973.3734977267
 11
599.0864631276
 21
973.3768198397
  0
LINE
  5
2A9
100
AcDbEntity
  8
_SURFACE
100
AcDbLine
 62
6
  6
CONTINUOUS
 10
599.1013361659
 20
973.4019528505
 11
599.1043440686
 21
973.4070088041
  0
LINE
  5
2AA
100
AcDbEntity
  8
_SURFACE
100
AcDbLine
 62
6
  6
CONTINUOUS
 10
599.1179129341
 20
973.4297058235
 11
599.121691919
 21
973.435995037
  0
LINE
  5
2AB
100
AcDbEntity
  8
_SURFACE
100
AcDbLine
 62
6
  6
CONTINUOUS
 10
599.197731871
 20
973.5594796557
 11
599.1926300083
 21
973.5509965911
  0
LINE
  5
2AC
100
AcDbEntity
  8
_SURFACE
100
AcDbLine
 62
6
  6
CONTINUOUS
 10
599.1528924721
 20
973.488025105
 11
599.1514583447
 21
973.4856623832
  0
LINE
  5
2AD
100
AcDbEntity
  8
_SURFACE
100
AcDbLine
 62
6
  6
CONTINUOUS
 10
599.2195706176
 20
973.5954052919
 11
599.2318738665
 21
973.6156527288
  0
LINE
  5
2AE
100
AcDbEntity
  8
_SURFACE
100
AcDbLine
 62
6
  6
CONTINUOUS
 10
599.2301516364
 20
973.612821368
 11
599.1525368378
 21
973.4868169985
  0
LINE
  5
2AF
100
AcDbEntity
  8
_SURFACE
100
AcDbLine
 62
6
  6
CONTINUOUS
 10
599.436014093
 20
973.9851201432
 11
599.1990087119
 21
973.5631925278
  0
LINE
  5
2B0
100
AcDbEntity
  8
_SURFACE
100
AcDbLine
 62
6
  6
CONTINUOUS
 10
599.2442308947
 20
973.6355496875
 11
599.1805005676
 21
973.5318388422
  0
LINE
  5
2B1
100
AcDbEntity
  8
_SURFACE
100
AcDbLine
 62
6
  6
CONTINUOUS
 10
599.2117167833
 20
973.5818469654
 11
599.2163882318
 21
973.5892131462
  0
LINE
  5
2B2
100
AcDbEntity
  8
_SURFACE
100
AcDbLine
 62
6
  6
CONTINUOUS
 10
599.233544131
 20
973.6161467133
 11
599.2295669327
 21
973.6099470469
  0
LWPOLYLINE
  5
2B3
100
AcDbEntity
  8
_SURFACE
100
AcDbPolyline
 62
7
  6
CONTINUOUS
 90
7
 70
0
 10
603.9549980906
 20
976.6464496721
 10
603.9641866927
 20
976.6487517781
 10
603.97261174
 20
976.6510709967
 10
603.9733962882
 20
976.6531869788
 10
603.964236411
 20
976.6550268965
 10
603.9474055536
 20
976.6566649609
 10
603.9228881606
 20
976.6581018425
  0
LWPOLYLINE
  5
2B4
100
AcDbEntity
  8
_SURFACE
100
AcDbPolyline
 62
7
  6
CONTINUOUS
 90
10
 70
0
 10
603.9298092426
 20
976.6398244624
 10
603.93894615
 20
976.642024371
 10
603.9473451885
 20
976.6442319513
 10
603.9549980906
 20
976.6464496721
 10
603.9624864326
 20
976.6486928993
 10
603.9692161567
 20
976.6509501232
 10
603.9733962882
 20
976.6531869788
 10
603.9744057541
 20
976.6553959709
 10
603.9728147842
 20
976.6575924037
 10
603.9686043679
 20
976.6597775048
  0
LINE
  5
2B5
100
AcDbEntity
  8
0
100
AcDbLine
 62
7
  6
CONTINUOUS
 10
-101.6986089637
 20
977.8589266466
 11
-101.6987639118
 21
977.8589632753
  0
LWPOLYLINE
  5
2B6
100
AcDbEntity
  8
_SURFACE
100
AcDbPolyline
 62
7
  6
CONTINUOUS
 90
10
 70
0
 10
-10.0427219755
 20
984.0234368243
 10
-10.0663228839
 20
984.0304955371
 10
-10.0811324395
 20
984.0374524084
 10
-10.0881424529
 20
984.0443252918
 10
-10.089468706
 20
984.0511569834
 10
-10.0864651991
 20
984.0579896097
 10
-10.0794721243
 20
984.064861564
 10
-10.0682811544
 20
984.0717706325
 10
-10.0529682162
 20
984.0786964544
 10
-10.033318588
 20
984.0856224139
  0
LINE
  5
2B7
100
AcDbEntity
  8
_SURFACE
100
AcDbLine
 62
6
  6
CONTINUOUS
 10
598.5117822931
 20
972.2142754636
 11
598.498115198
 21
972.1809423381
  0
LINE
  5
2B8
100
AcDbEntity
  8
_SURFACE
100
AcDbLine
 62
6
  6
CONTINUOUS
 10
598.5513450441
 20
972.3089910008
 11
598.5383786492
 21
972.2782349892
  0
LINE
  5
2B9
100
AcDbEntity
  8
_SURFACE
100
AcDbLine
 62
6
  6
CONTINUOUS
 10
598.5700400289
 20
972.3146945791
 11
598.5832587301
 21
972.3455699413
  0
LINE
  5
2BA
100
AcDbEntity
  8
_SURFACE
100
AcDbLine
 62
6
  6
CONTINUOUS
 10
598.5797219856
 20
972.3748298181
 11
598.6887336698
 21
972.5872012638
  0
LINE
  5
2BB
100
AcDbEntity
  8
_SURFACE
100
AcDbLine
 62
6
  6
CONTINUOUS
 10
598.5858879345
 20
972.3518283154
 11
598.6663650422
 21
972.5345730491
  0
LINE
  5
2BC
100
AcDbEntity
  8
_SURFACE
100
AcDbLine
 62
6
  6
CONTINUOUS
 10
598.6331278673
 20
972.4963080874
 11
598.6199786625
 21
972.4668020771
  0
LWPOLYLINE
  5
2BD
100
AcDbEntity
  8
_SURFACE
100
AcDbPolyline
 62
6
  6
CONTINUOUS
 90
3
 70
0
 10
598.6470182246
 20
972.5277173696
 10
598.7226704154
 20
972.6574846833
 10
598.7776874909
 20
972.7740516986
  0
LINE
  5
2BE
100
AcDbEntity
  8
_SURFACE
100
AcDbLine
 62
6
  6
CONTINUOUS
 10
598.6692213596
 20
972.5765066626
 11
598.7987340943
 21
972.8256476135
  0
LINE
  5
2BF
100
AcDbEntity
  8
_SURFACE
100
AcDbLine
 62
6
  6
CONTINUOUS
 10
598.7017801681
 20
972.6467788087
 11
598.6910222894
 21
972.6237247968
  0
LWPOLYLINE
  5
2C0
100
AcDbEntity
  8
_SURFACE
100
AcDbPolyline
 62
6
  6
CONTINUOUS
 90
3
 70
0
 10
598.7335776512
 20
972.7139899514
 10
598.8148408605
 20
972.8508646246
 10
598.8825085826
 20
972.9867089163
  0
LINE
  5
2C1
100
AcDbEntity
  8
_SURFACE
100
AcDbLine
 62
6
  6
CONTINUOUS
 10
598.9144931679
 20
973.0632613544
 11
598.7218975581
 21
972.6889437193
  0
LINE
  5
2C2
100
AcDbEntity
  8
_SURFACE
100
AcDbLine
 62
6
  6
CONTINUOUS
 10
598.785211815
 20
972.8202604292
 11
598.7750071156
 21
972.7995325307
  0
LINE
  5
2C3
100
AcDbEntity
  8
_SURFACE
100
AcDbLine
 62
6
  6
CONTINUOUS
 10
598.8255478833
 20
972.9009057226
 11
598.8155317902
 21
972.88106923
  0
LINE
  5
2C4
100
AcDbEntity
  8
_SURFACE
100
AcDbLine
 62
6
  6
CONTINUOUS
 10
598.8355278051
 20
972.9205483692
 11
599.0365415839
 21
973.2999605286
  0
LINE
  5
2C5
100
AcDbEntity
  8
_CURVE
100
AcDbLine
 62
40
  6
CONTINUOUS
 10
0.1123385041
 20
932.8129838139
 11
0.1113728908
 21
932.8129838139
  0
LWPOLYLINE
  5
2C6
100
AcDbEntity
  8
_SURFACE
100
AcDbPolyline
 62
6
  6
CONTINUOUS
 90
23
 70
0
 10
-10.3578786329
 20
976.4383534795
 10
-9.7959394682
 20
976.360011932
 10
-9.3264675594
 20
976.2679198753
 10
-8.9356908835
 20
976.1703045994
 10
-8.6311937033
 20
976.0795888344
 10
-8.3885189618
 20
975.9972974251
 10
-8.1446519666
 20
975.9050346715
 10
-7.8692325916
 20
975.7884471264
 10
-7.5896720017
 20
975.6545241215
 10
-7.3225395489
 20
975.5088947575
 10
-7.0737259597
 20
975.3548170484
 10
-6.8355792925
 20
975.1879966482
 10
-6.6097133352
 20
975.009992562
 10
-6.3951696412
 20
974.8213116046
 10
-6.1879468562
 20
974.6197920619
 10
-5.9914750974
 20
974.4106462704
 10
-5.809246093
 20
974.1994287816
 10
-5.639165357
 20
973.9851091462
 10
-5.4799792637
 20
973.7673584786
 10
-5.3311610654
 20
973.5467444391
 10
-5.1931659532
 20
973.3255257001
 10
-5.0638792555
 20
973.1018789204
 10
-4.9411278085
 20
972.8730302446
  0
LINE
  5
2C7
100
AcDbEntity
  8
_SURFACE
100
AcDbLine
 62
6
  6
CONTINUOUS
 10
598.0776574424
 20
970.9618469718
 11
598.0778454336
 21
970.9624771432
  0
LINE
  5
2C8
100
AcDbEntity
  8
_SURFACE
100
AcDbLine
 62
6
  6
CONTINUOUS
 10
598.1085441686
 20
971.0680455081
 11
598.1064459826
 21
971.0610132947
  0
LINE
  5
2C9
100
AcDbEntity
  8
_SURFACE
100
AcDbLine
 62
6
  6
CONTINUOUS
 10
598.0881240025
 20
970.996644739
 11
598.0883860587
 21
970.9975089005
  0
LINE
  5
2CA
100
AcDbEntity
  8
_SURFACE
100
AcDbLine
 62
6
  6
CONTINUOUS
 10
598.1268763751
 20
971.1294438413
 11
598.1238212614
 21
971.1193721427
  0
LINE
  5
2CB
100
AcDbEntity
  8
_SURFACE
100
AcDbLine
 62
6
  6
CONTINUOUS
 10
597.9578400786
 20
970.6086728953
 11
597.9761020809
 21
970.6684318388
  0
LINE
  5
2CC
100
AcDbEntity
  8
_SURFACE
100
AcDbLine
 62
6
  6
CONTINUOUS
 10
598.0997301742
 20
971.0346123725
 11
598.1000322722
 21
971.0355925756
  0
LINE
  5
2CD
100
AcDbEntity
  8
_SURFACE
100
AcDbLine
 62
6
  6
CONTINUOUS
 10
598.145310137
 20
971.1890907998
 11
598.1420865113
 21
971.1786389984
  0
LINE
  5
2CE
100
AcDbEntity
  8
_SURFACE
100
AcDbLine
 62
6
  6
CONTINUOUS
 10
598.1119594587
 20
971.0739863721
 11
598.1123515325
 21
971.0752388638
  0
LINE
  5
2CF
100
AcDbEntity
  8
_SURFACE
100
AcDbLine
 62
6
  6
CONTINUOUS
 10
598.1634882614
 20
971.2474667431
 11
598.1595483011
 21
971.2348944508
  0
LWPOLYLINE
  5
2D0
100
AcDbEntity
  8
_SURFACE
100
AcDbPolyline
 62
6
  6
CONTINUOUS
 90
6
 70
0
 10
597.9970266458
 20
970.7360839125
 10
598.021738274
 20
970.8148922015
 10
598.0496128633
 20
970.9024237068
 10
598.0816431348
 20
971.0012844073
 10
598.1197060062
 20
971.1164621818
 10
598.192797696
 20
971.3221949894
  0
LINE
  5
2D1
100
AcDbEntity
  8
_SURFACE
100
AcDbLine
 62
6
  6
CONTINUOUS
 10
598.1259106172
 20
971.1187666117
 11
598.1263727279
 21
971.1202199136
  0
LINE
  5
2D2
100
AcDbEntity
  8
_SURFACE
100
AcDbLine
 62
6
  6
CONTINUOUS
 10
598.181220207
 20
971.3035107773
 11
598.1764613529
 21
971.2885554147
  0
LINE
  5
2D3
100
AcDbEntity
  8
_SURFACE
100
AcDbLine
 62
6
  6
CONTINUOUS
 10
598.1392379701
 20
971.1603724305
 11
598.1397189999
 21
971.1618624663
  0
LINE
  5
2D4
100
AcDbEntity
  8
_SURFACE
100
AcDbLine
 62
6
  6
CONTINUOUS
 10
598.201269006
 20
971.3663710215
 11
598.1942568142
 21
971.3446932369
  0
LINE
  5
2D5
100
AcDbEntity
  8
_SURFACE
100
AcDbLine
 62
6
  6
CONTINUOUS
 10
598.1537424031
 20
971.2049697755
 11
598.1542897813
 21
971.2066398453
  0
LINE
  5
2D6
100
AcDbEntity
  8
_SURFACE
100
AcDbLine
 62
6
  6
CONTINUOUS
 10
598.2259095449
 20
971.4415249599
 11
598.216917209
 21
971.4142800768
  0
LINE
  5
2D7
100
AcDbEntity
  8
_SURFACE
100
AcDbLine
 62
6
  6
CONTINUOUS
 10
598.1698495571
 20
971.2537508975
 11
598.1716047618
 21
971.2590265128
  0
LINE
  5
2D8
100
AcDbEntity
  8
_SURFACE
100
AcDbLine
 62
6
  6
CONTINUOUS
 10
598.2445956685
 20
971.4969600588
 11
598.2344212112
 21
971.466596869
  0
LINE
  5
2D9
100
AcDbEntity
  8
_SURFACE
100
AcDbLine
 62
6
  6
CONTINUOUS
 10
598.2710856711
 20
971.5748283134
 11
598.2567525309
 21
971.5329055768
  0
LINE
  5
2DA
100
AcDbEntity
  8
_SURFACE
100
AcDbLine
 62
6
  6
CONTINUOUS
 10
598.1635515384
 20
971.2461601487
 11
598.2416950777
 21
971.4641078374
  0
LINE
  5
2DB
100
AcDbEntity
  8
_SURFACE
100
AcDbLine
 62
6
  6
CONTINUOUS
 10
598.2502918178
 20
971.4890107891
 11
598.2565343757
 21
971.5067439898
  0
LWPOLYLINE
  5
2DC
100
AcDbEntity
  8
_SURFACE
100
AcDbPolyline
 62
6
  6
CONTINUOUS
 90
3
 70
0
 10
598.3130285975
 20
971.6952869915
 10
598.2930494006
 20
971.6386591965
 10
598.2749773793
 20
971.5866536256
  0
LINE
  5
2DD
100
AcDbEntity
  8
_SURFACE
100
AcDbLine
 62
6
  6
CONTINUOUS
 10
598.213594395
 20
971.3904522633
 11
598.335256811
 21
971.7572523055
  0
LINE
  5
2DE
100
AcDbEntity
  8
_SURFACE
100
AcDbLine
 62
6
  6
CONTINUOUS
 10
598.2710774712
 20
971.5514838763
 11
598.360166938
 21
971.8254379557
  0
LINE
  5
2DF
100
AcDbEntity
  8
_SURFACE
100
AcDbLine
 62
6
  6
CONTINUOUS
 10
598.3304305139
 20
971.7111781849
 11
598.3422516397
 21
971.7430600668
  0
LINE
  5
2E0
100
AcDbEntity
  8
_SURFACE
100
AcDbLine
 62
6
  6
CONTINUOUS
 10
598.3842326983
 20
971.8900935283
 11
598.360166938
 21
971.8254379557
  0
LINE
  5
2E1
100
AcDbEntity
  8
_SURFACE
100
AcDbLine
 62
6
  6
CONTINUOUS
 10
598.4226166079
 20
971.9908350838
 11
598.3355199572
 21
971.7262737848
  0
LINE
  5
2E2
100
AcDbEntity
  8
_SURFACE
100
AcDbLine
 62
6
  6
CONTINUOUS
 10
598.4392834256
 20
972.0336984462
 11
598.400868632
 21
971.8977844045
  0
LINE
  5
2E3
100
AcDbEntity
  8
_SURFACE
100
AcDbLine
 62
6
  6
CONTINUOUS
 10
598.4551934563
 20
972.0741334682
 11
598.4186004416
 21
971.9434844539
  0
LWPOLYLINE
  5
2E4
100
AcDbEntity
  8
_SURFACE
100
AcDbPolyline
 62
6
  6
CONTINUOUS
 90
3
 70
0
 10
598.4079496819
 20
971.9158046295
 10
598.49050586
 20
972.1232963418
 10
598.5848575337
 20
972.3498759102
  0
LINE
  5
2E5
100
AcDbEntity
  8
_SURFACE
100
AcDbLine
 62
6
  6
CONTINUOUS
 10
598.4612012813
 20
972.0512696219
 11
598.4847595911
 21
972.1097218797
  0
LINE
  5
2E6
100
AcDbEntity
  8
_SURFACE
100
AcDbLine
 62
6
  6
CONTINUOUS
 10
598.4847595911
 20
972.1097218797
 11
598.5104251664
 21
972.1724850758
  0
LWPOLYLINE
  5
2E7
100
AcDbEntity
  8
_SURFACE
100
AcDbPolyline
 62
7
  6
CONTINUOUS
 90
7
 70
0
 10
603.7121310626
 20
984.1373042514
 10
603.7328940604
 20
984.1405015366
 10
603.7442950385
 20
984.1435724276
 10
603.7462646104
 20
984.1465186099
 10
603.7387285307
 20
984.1493418625
 10
603.7216076065
 20
984.1520440484
 10
603.6948176025
 20
984.1546271041
  0
LINE
  5
2E8
100
AcDbEntity
  8
_SURFACE
100
AcDbLine
 62
6
  6
CONTINUOUS
 10
604.4397073255
 20
976.4771990378
 11
604.4356482069
 21
976.4770380216
  0
LINE
  5
2E9
100
AcDbEntity
  8
0
100
AcDbLine
 62
7
  6
CONTINUOUS
 10
-103.0543487723
 20
964.8129838139
 11
696.9567870032
 21
964.8129838139
  0
LINE
  5
2EA
100
AcDbEntity
  8
0
100
AcDbLine
 62
7
  6
CONTINUOUS
 10
-2.5613280409
 20
957.9922626939
 11
-2.5654230421
 21
957.9922931958
  0
LINE
  5
2EB
100
AcDbEntity
  8
_SURFACE
100
AcDbLine
 62
6
  6
CONTINUOUS
 10
-11.1901562679
 20
976.4997528578
 11
-11.1906103873
 21
976.4997694437
  0
LINE
  5
2EC
100
AcDbEntity
  8
_SURFACE
100
AcDbLine
 62
7
  6
CONTINUOUS
 10
-10.5604763166
 20
976.4775293766
 11
-11.2204521782
 21
976.5016094319
  0
LINE
  5
2ED
100
AcDbEntity
  8
_SURFACE
100
AcDbLine
 62
6
  6
CONTINUOUS
 10
-10.5822579707
 20
976.4786811698
 11
-10.5762519021
 21
976.4784592524
  0
LINE
  5
2EE
100
AcDbEntity
  8
_SURFACE
100
AcDbLine
 62
6
  6
CONTINUOUS
 10
-11.1631133527
 20
976.4986756109
 11
-11.1593287095
 21
976.4985206866
  0
LINE
  5
2EF
100
AcDbEntity
  8
_SURFACE
100
AcDbLine
 62
6
  6
CONTINUOUS
 10
-10.5624987116
 20
976.4779490701
 11
-10.5671360409
 21
976.4781409688
  0
LINE
  5
2F0
100
AcDbEntity
  8
_SURFACE
100
AcDbLine
 62
6
  6
CONTINUOUS
 10
-11.1132579385
 20
976.4965402091
 11
-11.1009503644
 21
976.4959818947
  0
LINE
  5
2F1
100
AcDbEntity
  8
_SURFACE
100
AcDbLine
 62
6
  6
CONTINUOUS
 10
-11.0468413775
 20
976.4933814532
 11
-11.0288423219
 21
976.4924635818
  0
LWPOLYLINE
  5
2F2
100
AcDbEntity
  8
_SURFACE
100
AcDbPolyline
 62
6
  6
CONTINUOUS
 90
5
 70
0
 10
-11.0018656744
 20
976.4910381989
 10
-10.9234436238
 20
976.4865529962
 10
-10.7826172475
 20
976.477199571
 10
-10.5961147576
 20
976.4621610216
 10
-10.3675043503
 20
976.4394178857
  0
LINE
  5
2F3
100
AcDbEntity
  8
_SURFACE
100
AcDbLine
 62
6
  6
CONTINUOUS
 10
-10.3667832608
 20
976.4393383825
 11
-10.3425677339
 21
976.4366395633
  0
LINE
  5
2F4
100
AcDbEntity
  8
_SURFACE
100
AcDbLine
 62
6
  6
CONTINUOUS
 10
-10.318176773
 20
976.4338641123
 11
-10.2936128551
 21
976.4310107313
  0
LINE
  5
2F5
100
AcDbEntity
  8
_SURFACE
100
AcDbLine
 62
6
  6
CONTINUOUS
 10
-10.2688836711
 20
976.4280787431
 11
-10.2439963644
 21
976.425067452
  0
LINE
  5
2F6
100
AcDbEntity
  8
_SURFACE
100
AcDbLine
 62
6
  6
CONTINUOUS
 10
-10.2189289801
 20
976.4219725781
 11
-10.1936599324
 21
976.4187896421
  0
LWPOLYLINE
  5
2F7
100
AcDbEntity
  8
_SURFACE
100
AcDbPolyline
 62
6
  6
CONTINUOUS
 90
3
 70
0
 10
-10.1681968374
 20
976.4155177039
 10
-10.1425477377
 20
976.4121559231
 10
-10.1167155286
 20
976.4087028146
  0
LINE
  5
2F8
100
AcDbEntity
  8
_SURFACE
100
AcDbLine
 62
6
  6
CONTINUOUS
 10
597.7295293196
 20
969.4783296495
 11
597.7286968232
 21
969.4738289453
  0
LINE
  5
2F9
100
AcDbEntity
  8
_SURFACE
100
AcDbLine
 62
6
  6
CONTINUOUS
 10
598.0348974835
 20
970.8132319434
 11
598.0347318947
 21
970.8126377474
  0
LINE
  5
2FA
100
AcDbEntity
  8
_SURFACE
100
AcDbLine
 62
6
  6
CONTINUOUS
 10
598.0542324749
 20
970.881462231
 11
598.0532044047
 21
970.8778364974
  0
LINE
  5
2FB
100
AcDbEntity
  8
_SURFACE
100
AcDbLine
 62
6
  6
CONTINUOUS
 10
597.8736261797
 20
970.3235410818
 11
597.8726785465
 21
970.3202171407
  0
LINE
  5
2FC
100
AcDbEntity
  8
_SURFACE
100
AcDbLine
 62
6
  6
CONTINUOUS
 10
597.8888878071
 20
970.3765162883
 11
597.8962376569
 21
970.4017964458
  0
LINE
  5
2FD
100
AcDbEntity
  8
_SURFACE
100
AcDbLine
 62
6
  6
CONTINUOUS
 10
598.0859017713
 20
970.9919637326
 11
598.084035922
 21
970.9855769877
  0
LWPOLYLINE
  5
2FE
100
AcDbEntity
  8
_SURFACE
100
AcDbPolyline
 62
6
  6
CONTINUOUS
 90
3
 70
0
 10
597.9156259419
 20
970.4678372993
 10
597.927662301
 20
970.5083921864
 10
597.9415572098
 20
970.5548078068
  0
LINE
  5
2FF
100
AcDbEntity
  8
_SURFACE
100
AcDbLine
 62
6
  6
CONTINUOUS
 10
598.0745206991
 20
970.9518457905
 11
598.074714543
 21
970.9524985986
  0
LINE
  5
300
100
AcDbEntity
  8
_SURFACE
100
AcDbLine
 62
6
  6
CONTINUOUS
 10
598.1050419578
 20
971.05683659
 11
598.1026755366
 21
971.0488788129
  0
LINE
  5
301
100
AcDbEntity
  8
_SURFACE
100
AcDbLine
 62
7
  6
CONTINUOUS
 10
605.0637969082
 20
976.4993336938
 11
604.4533093284
 21
976.4778206568
  0
LINE
  5
302
100
AcDbEntity
  8
_SURFACE
100
AcDbLine
 62
7
  6
CONTINUOUS
 10
604.8020471076
 20
983.9947647716
 11
604.1915595278
 21
983.9732517346
  0
LINE
  5
303
100
AcDbEntity
  8
_SURFACE
100
AcDbLine
 62
6
  6
CONTINUOUS
 10
685.3682216075
 20
979.3034703041
 11
605.0637969082
 21
976.4993336938
  0
LINE
  5
304
100
AcDbEntity
  8
_SURFACE
100
AcDbLine
 62
6
  6
CONTINUOUS
 10
602.6910541733
 20
976.4162899558
 11
604.4533093284
 21
976.4778206568
  0
LINE
  5
305
100
AcDbEntity
  8
_SURFACE
100
AcDbLine
 62
6
  6
CONTINUOUS
 10
694.6004817017
 20
987.1304211449
 11
604.8020471076
 21
983.9947647716
  0
LINE
  5
306
100
AcDbEntity
  8
_SURFACE
100
AcDbLine
 62
6
  6
CONTINUOUS
 10
602.4885992981
 20
983.9137916476
 11
604.1915595278
 21
983.9732517346
  0
LINE
  5
307
100
AcDbEntity
  8
_SURFACE
100
AcDbLine
 62
6
  6
CONTINUOUS
 10
685.494240666
 20
986.8123626924
 11
685.4947577752
 21
986.8123785213
  0
LINE
  5
308
100
AcDbEntity
  8
_SURFACE
100
AcDbLine
 62
6
  6
CONTINUOUS
 10
604.5075058426
 20
976.480267894
 11
604.5360177633
 21
976.4811023381
  0
LINE
  5
309
100
AcDbEntity
  8
_SURFACE
100
AcDbLine
 62
6
  6
CONTINUOUS
 10
685.4984366205
 20
986.8124840455
 11
685.4985790545
 21
986.812487778
  0
LINE
  5
30A
100
AcDbEntity
  8
_SURFACE
100
AcDbLine
 62
6
  6
CONTINUOUS
 10
685.5197857172
 20
986.8140401177
 11
685.519845486
 21
986.8140414179
  0
LWPOLYLINE
  5
30B
100
AcDbEntity
  8
0
100
AcDbPolyline
 62
7
  6
CONTINUOUS
 90
4
 70
0
 10
-91.9063370166
 20
986.8116878499
 10
-91.9589099636
 20
986.8106312673
 10
-92.0228233604
 20
986.8090177977
 10
-92.1009554455
 20
986.806528694
  0
LINE
  5
30C
100
AcDbEntity
  8
_SURFACE
100
AcDbLine
 62
6
  6
CONTINUOUS
 10
685.5946112597
 20
986.8150967392
 11
685.3123868912
 21
986.8101108771
  0
LWPOLYLINE
  5
30D
100
AcDbEntity
  8
0
100
AcDbPolyline
 62
7
  6
CONTINUOUS
 90
3
 70
0
 10
-91.8476558443
 20
986.8139827302
 10
-91.9866871281
 20
986.8105197626
 10
-92.2294645293
 20
986.8010367081
  0
LINE
  5
30E
100
AcDbEntity
  8
_SURFACE
100
AcDbLine
 62
6
  6
CONTINUOUS
 10
685.367553991
 20
979.3101883027
 11
682.4570153731
 21
979.2792461896
  0
LINE
  5
30F
100
AcDbEntity
  8
0
100
AcDbLine
 62
7
  6
CONTINUOUS
 10
685.5218574343
 20
986.8110363454
 11
685.521992207
 21
986.8110376938
  0
LINE
  5
310
100
AcDbEntity
  8
_SURFACE
100
AcDbLine
 62
6
  6
CONTINUOUS
 10
681.8312336147
 20
986.7730262099
 11
694.2593357903
 21
986.8983835967
  0
LINE
  5
311
100
AcDbEntity
  8
0
100
AcDbLine
 62
7
  6
CONTINUOUS
 10
-91.700509137
 20
986.8139604758
 11
-91.9657258536
 21
986.8123503235
  0
LINE
  5
312
100
AcDbEntity
  8
0
100
AcDbLine
 62
7
  6
CONTINUOUS
 10
-91.8645650257
 20
986.8123629547
 11
-91.9528095366
 21
986.8119927753
  0
LINE
  5
313
100
AcDbEntity
  8
0
100
AcDbLine
 62
7
  6
CONTINUOUS
 10
-91.5040091638
 20
986.814667184
 11
-91.7078915089
 21
986.8152971873
  0
LINE
  5
314
100
AcDbEntity
  8
_SURFACE
100
AcDbLine
 62
7
  6
CONTINUOUS
 10
-100.7391215142
 20
986.8740892145
 11
694.6406899894
 21
987.1300636185
  0
LINE
  5
315
100
AcDbEntity
  8
0
100
AcDbLine
 62
7
  6
CONTINUOUS
 10
695.5911822772
 20
977.8579484908
 11
-101.6987279623
 21
977.8575909699
  0
LINE
  5
316
100
AcDbEntity
  8
_SURFACE
100
AcDbLine
 62
7
  6
CONTINUOUS
 10
-91.4873883117
 20
979.3026716369
 11
685.3800713766
 21
979.3130845061
  0
LINE
  5
317
100
AcDbEntity
  8
0
100
AcDbLine
 62
7
  6
CONTINUOUS
 10
-61.1272711169
 20
986.8121162475
 11
-91.4492375289
 21
986.8161428475
  0
LINE
  5
318
100
AcDbEntity
  8
0
100
AcDbLine
 62
7
  6
CONTINUOUS
 10
685.785208379
 20
986.814105365
 11
-61.1272711169
 21
986.8121162475
  0
LINE
  5
319
100
AcDbEntity
  8
0
100
AcDbLine
 62
7
  6
CONTINUOUS
 10
685.627432352
 20
986.8141142629
 11
685.5912172907
 21
986.8143526962
  0
LINE
  5
31A
100
AcDbEntity
  8
0
100
AcDbLine
 62
7
  6
CONTINUOUS
 10
-91.629738776
 20
986.8142655708
 11
-91.7120449348
 21
986.8148403736
  0
LINE
  5
31B
100
AcDbEntity
  8
_SURFACE
100
AcDbLine
 62
6
  6
CONTINUOUS
 10
-91.4688449002
 20
979.3087467223
 11
-88.6282906063
 21
979.2796186264
  0
LINE
  5
31C
100
AcDbEntity
  8
_SURFACE
100
AcDbLine
 62
6
  6
CONTINUOUS
 10
-100.366811649
 20
986.8978850662
 11
-87.9976843892
 21
986.7733664201
  0
LINE
  5
31D
100
AcDbEntity
  8
0
100
AcDbLine
 62
7
  6
CONTINUOUS
 10
685.7344047004
 20
986.8130513151
 11
685.6967096335
 21
986.8134986745
  0
LINE
  5
31E
100
AcDbEntity
  8
_SURFACE
100
AcDbLine
 62
6
  6
CONTINUOUS
 10
-91.6068757905
 20
986.8133683479
 11
-91.6102615893
 21
986.8134192757
  0
LINE
  5
31F
100
AcDbEntity
  8
0
100
AcDbLine
 62
7
  6
CONTINUOUS
 10
685.8149048932
 20
986.8117570757
 11
685.7726847331
 21
986.8124978955
  0
LINE
  5
320
100
AcDbEntity
  8
_SURFACE
100
AcDbLine
 62
6
  6
CONTINUOUS
 10
-91.627993406
 20
986.8136856578
 11
-91.6278433911
 21
986.8136827295
  0
LINE
  5
321
100
AcDbEntity
  8
_SURFACE
100
AcDbLine
 62
6
  6
CONTINUOUS
 10
-91.6067753179
 20
986.8121383116
 11
-91.6067095591
 21
986.8121367348
  0
LINE
  5
322
100
AcDbEntity
  8
_SURFACE
100
AcDbLine
 62
6
  6
CONTINUOUS
 10
-91.6046175274
 20
986.8120814455
 11
-91.6043863474
 21
986.8120748764
  0
LINE
  5
323
100
AcDbEntity
  8
_SURFACE
100
AcDbLine
 62
6
  6
CONTINUOUS
 10
-91.4755833038
 20
979.3031085358
 11
-8.7978249209
 21
976.4159777011
  0
LINE
  5
324
100
AcDbEntity
  8
_SURFACE
100
AcDbLine
 62
6
  6
CONTINUOUS
 10
-8.5953584814
 20
983.9134789325
 11
-10.2987336667
 21
983.9729607041
  0
LINE
  5
325
100
AcDbEntity
  8
_SURFACE
100
AcDbLine
 62
6
  6
CONTINUOUS
 10
-10.9587321966
 20
983.9970403659
 11
-100.708024904
 21
987.1300478039
  0
LINE
  5
326
100
AcDbEntity
  8
_SURFACE
100
AcDbLine
 62
7
  6
CONTINUOUS
 10
-10.2987336667
 20
983.9729607041
 11
-10.9587321966
 21
983.9970403659
  0
LINE
  5
327
100
AcDbEntity
  8
_SURFACE
100
AcDbLine
 62
7
  6
CONTINUOUS
 10
581.4552565961
 20
887.7528655731
 11
581.4552565963
 21
887.752574762
  0
LINE
  5
328
100
AcDbEntity
  8
0
100
AcDbLine
 62
7
  6
CONTINUOUS
 10
547.4865440844
 20
496.8123616354
 11
547.6035663424
 21
497.9850769267
  0
LINE
  5
329
100
AcDbEntity
  8
_SURFACE
100
AcDbLine
 62
7
  6
CONTINUOUS
 10
542.7348268149
 20
523.1123544515
 11
542.3694443326
 21
519.6516380491
  0
LINE
  5
32A
100
AcDbEntity
  8
_SURFACE
100
AcDbLine
 62
7
  6
CONTINUOUS
 10
550.2997956653
 20
523.3272143418
 11
549.9396705437
 21
519.9159327647
  0
LINE
  5
32B
100
AcDbEntity
  8
0
100
AcDbLine
 62
7
  6
CONTINUOUS
 10
596.4577308481
 20
957.9923380986
 11
547.4877492706
 21
496.8124782278
  0
LINE
  5
32C
100
AcDbEntity
  8
0
100
AcDbLine
 62
7
  6
CONTINUOUS
 10
596.9154031736
 20
905.7368769137
 11
602.4241888183
 21
957.6161950263
  0
LINE
  5
32D
100
AcDbEntity
  8
0
100
AcDbLine
 62
7
  6
CONTINUOUS
 10
600.8216976602
 20
911.5499448997
 11
606.4776636214
 21
964.8129838139
  0
LINE
  5
32E
100
AcDbEntity
  8
_SURFACE
100
AcDbLine
 62
6
  6
CONTINUOUS
 10
550.2997956653
 20
523.3272143418
 11
597.5451655187
 21
968.2386576958
  0
LINE
  5
32F
100
AcDbEntity
  8
_SURFACE
100
AcDbLine
 62
6
  6
CONTINUOUS
 10
597.5409728606
 20
968.2052851549
 11
597.5338487286
 21
968.1413269054
  0
LINE
  5
330
100
AcDbEntity
  8
_SURFACE
100
AcDbLine
 62
6
  6
CONTINUOUS
 10
597.5544273998
 20
968.3211793376
 11
597.5479425254
 21
968.2660789362
  0
LINE
  5
331
100
AcDbEntity
  8
_SURFACE
100
AcDbLine
 62
6
  6
CONTINUOUS
 10
597.5601923107
 20
968.3690536289
 11
597.5770821091
 21
968.5013638814
  0
LINE
  5
332
100
AcDbEntity
  8
_SURFACE
100
AcDbLine
 62
6
  6
CONTINUOUS
 10
597.5747393149
 20
968.4856077463
 11
597.590891304
 21
968.6064989171
  0
LINE
  5
333
100
AcDbEntity
  8
_SURFACE
100
AcDbLine
 62
6
  6
CONTINUOUS
 10
597.5864447053
 20
968.5753886054
 11
597.6024350371
 21
968.6910514699
  0
LINE
  5
334
100
AcDbEntity
  8
_SURFACE
100
AcDbLine
 62
6
  6
CONTINUOUS
 10
597.6126156577
 20
968.7649753312
 11
597.5991941266
 21
968.6695472355
  0
LINE
  5
335
100
AcDbEntity
  8
0
100
AcDbLine
 62
7
  6
CONTINUOUS
 10
596.6715424772
 20
959.4702185411
 11
596.4585365918
 21
957.9921234567
  0
LINE
  5
336
100
AcDbEntity
  8
_SURFACE
100
AcDbLine
 62
6
  6
CONTINUOUS
 10
597.6126156577
 20
968.7649753312
 11
597.6299931095
 21
968.8821843636
  0
LINE
  5
337
100
AcDbEntity
  8
_SURFACE
100
AcDbLine
 62
6
  6
CONTINUOUS
 10
597.6285520745
 20
968.8738555516
 11
597.6264291278
 21
968.8596112282
  0
LINE
  5
338
100
AcDbEntity
  8
_SURFACE
100
AcDbLine
 62
6
  6
CONTINUOUS
 10
597.6404776752
 20
968.9524784781
 11
597.6385801454
 21
968.9401226262
  0
LINE
  5
339
100
AcDbEntity
  8
_SURFACE
100
AcDbLine
 62
6
  6
CONTINUOUS
 10
597.6529413158
 20
969.0322597697
 11
597.6512420075
 21
969.0215192495
  0
LINE
  5
33A
100
AcDbEntity
  8
_SURFACE
100
AcDbLine
 62
6
  6
CONTINUOUS
 10
597.6634765244
 20
969.0972113887
 11
597.6686558977
 21
969.1290112842
  0
LINE
  5
33B
100
AcDbEntity
  8
_SURFACE
100
AcDbLine
 62
6
  6
CONTINUOUS
 10
597.6771734526
 20
969.1810479603
 11
597.6923810513
 21
969.2702413217
  0
LINE
  5
33C
100
AcDbEntity
  8
0
100
AcDbLine
 62
7
  6
CONTINUOUS
 10
596.6107566285
 20
959.1341318412
 11
596.6694551744
 21
959.4705992517
  0
LINE
  5
33D
100
AcDbEntity
  8
_SURFACE
100
AcDbLine
 62
6
  6
CONTINUOUS
 10
597.7036205494
 20
969.3347803361
 11
597.7060335647
 21
969.3484501811
  0
LINE
  5
33E
100
AcDbEntity
  8
_SURFACE
100
AcDbLine
 62
6
  6
CONTINUOUS
 10
597.7041590718
 20
969.3380372769
 11
597.6901259927
 21
969.2574675902
  0
LINE
  5
33F
100
AcDbEntity
  8
_SURFACE
100
AcDbLine
 62
6
  6
CONTINUOUS
 10
597.7179793816
 20
969.415278576
 11
597.7169585373
 21
969.4096414313
  0
LWPOLYLINE
  5
340
100
AcDbEntity
  8
_SURFACE
100
AcDbPolyline
 62
7
  6
CONTINUOUS
 90
10
 70
0
 10
-10.290317049
 20
976.5901651443
 10
-10.2827753218
 20
976.5912209398
 10
-10.2763539618
 20
976.5923190192
 10
-10.2710527452
 20
976.5934605326
 10
-10.2668062682
 20
976.5946430956
 10
-10.2636821062
 20
976.5958703831
 10
-10.261880505
 20
976.5971521591
 10
-10.2614708119
 20
976.5984913437
 10
-10.2623919676
 20
976.5998839096
 10
-10.264650324
 20
976.6013285375
  0
LINE
  5
341
100
AcDbEntity
  8
0
100
AcDbLine
 62
7
  6
CONTINUOUS
 10
-92.5393389224
 20
986.7829437674
 11
-92.8405720072
 21
986.7542182115
  0
LINE
  5
342
100
AcDbEntity
  8
0
100
AcDbLine
 62
7
  6
CONTINUOUS
 10
-92.2752825133
 20
986.7992470257
 11
-92.5678683274
 21
986.7790256626
  0
LINE
  5
343
100
AcDbEntity
  8
0
100
AcDbLine
 62
7
  6
CONTINUOUS
 10
-91.9528095366
 20
986.8119927753
 11
-92.5174421062
 21
986.7829091367
  0
LINE
  5
344
100
AcDbEntity
  8
0
100
AcDbLine
 62
7
  6
CONTINUOUS
 10
686.0297768256
 20
986.8055331415
 11
685.9431911487
 21
986.8085592701
  0
LINE
  5
345
100
AcDbEntity
  8
0
100
AcDbLine
 62
7
  6
CONTINUOUS
 10
686.6150774552
 20
986.7656538455
 11
686.3655997006
 21
986.7868387708
  0
LINE
  5
346
100
AcDbEntity
  8
_SURFACE
100
AcDbLine
 62
6
  6
CONTINUOUS
 10
590.9921821898
 20
902.9964626707
 11
590.9921821899
 21
902.9961718595
  0
LINE
  5
347
100
AcDbEntity
  8
_SURFACE
100
AcDbLine
 62
6
  6
CONTINUOUS
 10
609.9501161598
 20
974.2676163862
 11
609.95011616
 21
974.267325575
  0
LINE
  5
348
100
AcDbEntity
  8
_SURFACE
100
AcDbLine
 62
7
  6
CONTINUOUS
 10
609.9501161598
 20
974.2676163862
 11
604.0142671905
 21
918.368877949
  0
LINE
  5
349
100
AcDbEntity
  8
0
100
AcDbLine
 62
7
  6
CONTINUOUS
 10
610.765788874
 20
910.9229899159
 11
616.4883308667
 21
964.8129838139
  0
LWPOLYLINE
  5
34A
100
AcDbEntity
  8
_SURFACE
100
AcDbPolyline
 62
7
  6
CONTINUOUS
 90
4
 70
0
 10
-10.033318588
 20
984.0856224139
 10
-10.0244586031
 20
984.0873507627
 10
-10.0175219711
 20
984.0891284873
 10
-10.0125171473
 20
984.0909549596
  0
LINE
  5
34B
100
AcDbEntity
  8
0
100
AcDbLine
 62
7
  6
CONTINUOUS
 10
-93.313004276
 20
986.6913507151
 11
-93.6611844877
 21
986.6300400549
  0
LWPOLYLINE
  5
34C
100
AcDbEntity
  8
0
100
AcDbPolyline
 62
7
  6
CONTINUOUS
 90
6
 70
0
 10
-93.2665892556
 20
986.6971921782
 10
-93.5409882132
 20
986.6512630205
 10
-93.8228710701
 20
986.5958498087
 10
-94.1151374693
 20
986.5294338013
 10
-94.4141384002
 20
986.4518504322
 10
-94.7200656607
 20
986.3621350271
  0
LINE
  5
34D
100
AcDbEntity
  8
0
100
AcDbLine
 62
7
  6
CONTINUOUS
 10
-93.1534688784
 20
986.7145918145
 11
-93.474698486
 21
986.6634083028
  0
LINE
  5
34E
100
AcDbEntity
  8
0
100
AcDbLine
 62
7
  6
CONTINUOUS
 10
-92.8405720072
 20
986.7542182115
 11
-93.1534688784
 21
986.7145918145
  0
LINE
  5
34F
100
AcDbEntity
  8
0
100
AcDbLine
 62
7
  6
CONTINUOUS
 10
-92.5504708495
 20
986.7812078604
 11
-93.0033333829
 21
986.7339310835
  0
LWPOLYLINE
  5
350
100
AcDbEntity
  8
0
100
AcDbPolyline
 62
7
  6
CONTINUOUS
 90
3
 70
0
 10
-92.7161794204
 20
986.7673007918
 10
-92.9966023283
 20
986.7361540415
 10
-93.313004276
 20
986.6913507151
  0
LWPOLYLINE
  5
351
100
AcDbEntity
  8
0
100
AcDbPolyline
 62
7
  6
CONTINUOUS
 90
3
 70
0
 10
687.0519292781
 20
986.7130822327
 10
686.3994168333
 20
986.7850442741
 10
685.8714767948
 20
986.8105241163
  0
LWPOLYLINE
  5
352
100
AcDbEntity
  8
0
100
AcDbPolyline
 62
7
  6
CONTINUOUS
 90
5
 70
0
 10
687.0012490991
 20
986.721255337
 10
686.6858495306
 20
986.7597132848
 10
686.3755337386
 20
986.7876763019
 10
686.077650396
 20
986.8053821747
 10
685.785208379
 20
986.814105365
  0
LINE
  5
353
100
AcDbEntity
  8
0
100
AcDbLine
 62
7
  6
CONTINUOUS
 10
687.3192210779
 20
986.6721214278
 11
687.0012490991
 21
986.721255337
  0
LINE
  5
354
100
AcDbEntity
  8
0
100
AcDbLine
 62
7
  6
CONTINUOUS
 10
687.0782057384
 20
986.7083332217
 11
687.0519292781
 21
986.7130822327
  0
LINE
  5
355
100
AcDbEntity
  8
0
100
AcDbLine
 62
7
  6
CONTINUOUS
 10
687.6414863742
 20
986.6115478164
 11
687.3192210779
 21
986.6721214278
  0
LINE
  5
356
100
AcDbEntity
  8
0
100
AcDbLine
 62
7
  6
CONTINUOUS
 10
596.4577308481
 20
957.9923380986
 11
596.4585365784
 21
957.9921234596
  0
LINE
  5
357
100
AcDbEntity
  8
_SURFACE
100
AcDbLine
 62
7
  6
CONTINUOUS
 10
621.000407566
 20
984.5607226561
 11
621.0004075661
 21
984.560431845
  0
LWPOLYLINE
  5
358
100
AcDbEntity
  8
0
100
AcDbPolyline
 62
7
  6
CONTINUOUS
 90
3
 70
0
 10
-93.6611844877
 20
986.6300400549
 10
-94.0140158035
 20
986.5548344969
 10
-94.3628625173
 20
986.4672359935
  0
LWPOLYLINE
  5
359
100
AcDbEntity
  8
0
100
AcDbPolyline
 62
7
  6
CONTINUOUS
 90
3
 70
0
 10
687.0140735792
 20
986.7174605701
 10
687.0034173176
 20
986.7196302881
 10
685.7582886647
 20
986.8127060214
  0
LINE
  5
35A
100
AcDbEntity
  8
0
100
AcDbLine
 62
7
  6
CONTINUOUS
 10
687.7642028283
 20
986.5842519521
 11
687.6414863742
 21
986.6115478164
  0
LINE
  5
35B
100
AcDbEntity
  8
_SURFACE
100
AcDbLine
 62
6
  6
CONTINUOUS
 10
597.528524207
 20
968.0801791295
 11
597.5298511706
 21
968.0747616206
  0
LINE
  5
35C
100
AcDbEntity
  8
_SURFACE
100
AcDbLine
 62
6
  6
CONTINUOUS
 10
597.5261183635
 20
968.0719421541
 11
597.5246671704
 21
968.0795601637
  0
LINE
  5
35D
100
AcDbEntity
  8
_SURFACE
100
AcDbLine
 62
7
  6
CONTINUOUS
 10
605.063355882
 20
976.4996093659
 11
605.0637969082
 21
976.4993336938
  0
LINE
  5
35E
100
AcDbEntity
  8
_SURFACE
100
AcDbLine
 62
7
  6
CONTINUOUS
 10
604.8016060814
 20
983.9950404437
 11
604.8020471076
 21
983.9947647716
  0
LINE
  5
35F
100
AcDbEntity
  8
_SURFACE
100
AcDbLine
 62
6
  6
CONTINUOUS
 10
597.5261183635
 20
968.0779419275
 11
597.528524207
 21
968.0760990572
  0
LINE
  5
360
100
AcDbEntity
  8
0
100
AcDbLine
 62
7
  6
CONTINUOUS
 10
596.4562934273
 20
957.9923699313
 11
596.4562559195
 21
957.9924207733
  0
LINE
  5
361
100
AcDbEntity
  8
0
100
AcDbLine
 62
7
  6
CONTINUOUS
 10
596.4561383569
 20
957.9926347596
 11
596.4560946023
 21
957.9927094334
  0
LINE
  5
362
100
AcDbEntity
  8
0
100
AcDbLine
 62
7
  6
CONTINUOUS
 10
596.4527334599
 20
957.9984923119
 11
596.4524683899
 21
957.998949404
  0
LINE
  5
363
100
AcDbEntity
  8
0
100
AcDbLine
 62
7
  6
CONTINUOUS
 10
596.4406135497
 20
958.0195855699
 11
596.4003094506
 21
958.0901257323
  0
LINE
  5
364
100
AcDbEntity
  8
0
100
AcDbLine
 62
7
  6
CONTINUOUS
 10
596.3878253449
 20
958.1122151638
 11
596.3830436615
 21
958.1206625936
  0
LINE
  5
365
100
AcDbEntity
  8
0
100
AcDbLine
 62
7
  6
CONTINUOUS
 10
596.3721956417
 20
958.1401061445
 11
596.3660315624
 21
958.151118111
  0
LWPOLYLINE
  5
366
100
AcDbEntity
  8
0
100
AcDbPolyline
 62
7
  6
CONTINUOUS
 90
3
 70
0
 10
596.3593143921
 20
958.163221989
 10
596.3159392951
 20
958.2419085454
 10
596.3049991169
 20
958.2619923045
  0
LINE
  5
367
100
AcDbEntity
  8
0
100
AcDbLine
 62
7
  6
CONTINUOUS
 10
596.2804957941
 20
958.307135918
 11
596.266873939
 21
958.3324576884
  0
LINE
  5
368
100
AcDbEntity
  8
0
100
AcDbLine
 62
7
  6
CONTINUOUS
 10
596.4562189249
 20
957.9924904655
 11
596.0215807639
 21
958.8096439701
  0
LINE
  5
369
100
AcDbEntity
  8
0
100
AcDbLine
 62
7
  6
CONTINUOUS
 10
596.2200582579
 20
958.4202866059
 11
596.2023964935
 21
958.4538359281
  0
LINE
  5
36A
100
AcDbEntity
  8
0
100
AcDbLine
 62
7
  6
CONTINUOUS
 10
596.1836471879
 20
958.4895765715
 11
596.163831049
 21
958.527716681
  0
LINE
  5
36B
100
AcDbEntity
  8
0
100
AcDbLine
 62
7
  6
CONTINUOUS
 10
596.142915815
 20
958.5682727438
 11
596.1208701081
 21
958.6112531393
  0
LINE
  5
36C
100
AcDbEntity
  8
0
100
AcDbLine
 62
7
  6
CONTINUOUS
 10
596.0977277498
 20
958.6568514307
 11
596.0734881864
 21
958.7051389384
  0
LINE
  5
36D
100
AcDbEntity
  8
0
100
AcDbLine
 62
7
  6
CONTINUOUS
 10
596.048111494
 20
958.7560661619
 11
596.0215807639
 21
958.8096439701
  0
LINE
  5
36E
100
AcDbEntity
  8
_SURFACE
100
AcDbLine
 62
7
  6
CONTINUOUS
 10
685.3682216075
 20
979.3034703041
 11
685.368204092
 21
979.3041488565
  0
LINE
  5
36F
100
AcDbEntity
  8
_SURFACE
100
AcDbLine
 62
7
  6
CONTINUOUS
 10
694.6006524162
 20
987.1304500092
 11
694.6006349007
 21
987.1311285607
  0
LINE
  5
370
100
AcDbEntity
  8
_SURFACE
100
AcDbLine
 62
7
  6
CONTINUOUS
 10
696.9623598668
 20
964.8129838139
 11
695.5911816642
 21
977.8579543227
  0
LINE
  5
371
100
AcDbEntity
  8
_SURFACE
100
AcDbLine
 62
7
  6
CONTINUOUS
 10
694.600854989
 20
987.1285043815
 11
694.6006536165
 21
987.1304385892
  0
LWPOLYLINE
  5
372
100
AcDbEntity
  8
0
100
AcDbPolyline
 62
7
  6
CONTINUOUS
 90
26
 70
0
 10
694.7670874955
 20
980.8780671295
 10
694.502542004
 20
981.4560100329
 10
694.2823155224
 20
981.8537967598
 10
694.0470800688
 20
982.2367574437
 10
693.797586959
 20
982.604946873
 10
693.5348477505
 20
982.95798507
 10
693.2598656272
 20
983.2955586856
 10
692.9732484301
 20
983.6178305397
 10
692.6758274544
 20
983.9246524502
 10
692.3686144442
 20
984.2157245997
 10
692.052402686
 20
984.4910009578
 10
691.7278757076
 20
984.7505257888
 10
691.3960878472
 20
984.9940676466
 10
691.0583965164
 20
985.2212822086
 10
690.7156728541
 20
985.4322545203
 10
690.368759676
 20
985.627112356
 10
690.019011061
 20
985.8057600807
 10
689.6672756846
 20
985.9684490097
 10
689.3143014807
 20
986.1154962742
 10
688.9612937273
 20
986.2470709027
 10
688.6085788625
 20
986.3637076133
 10
688.2572258133
 20
986.465691225
 10
687.9095599835
 20
986.5530897592
 10
687.5583768765
 20
986.6280922868
 10
687.2119889495
 20
986.6892930708
 10
686.8963844868
 20
986.734210191
  0
LINE
  5
373
100
AcDbEntity
  8
0
100
AcDbLine
 62
7
  6
CONTINUOUS
 10
694.9138676982
 20
980.5292843833
 11
694.8945594211
 21
980.5771653743
  0
LINE
  5
374
100
AcDbEntity
  8
0
100
AcDbLine
 62
7
  6
CONTINUOUS
 10
695.1176795977
 20
979.9747964118
 11
694.7222168093
 21
980.9780719124
  0
LWPOLYLINE
  5
375
100
AcDbEntity
  8
0
100
AcDbPolyline
 62
7
  6
CONTINUOUS
 90
5
 70
0
 10
695.0799526384
 20
980.0957249086
 10
694.9317311436
 20
980.494914554
 10
694.7683874048
 20
980.8835323328
 10
694.5907091791
 20
981.2610966868
 10
694.399489237
 20
981.6271774806
  0
LINE
  5
376
100
AcDbEntity
  8
0
100
AcDbLine
 62
7
  6
CONTINUOUS
 10
695.0814572679
 20
980.079591062
 11
694.9907142984
 21
980.3312183749
  0
LINE
  5
377
100
AcDbEntity
  8
0
100
AcDbLine
 62
7
  6
CONTINUOUS
 10
695.2124696631
 20
979.6858383984
 11
695.0799526384
 21
980.0957249086
  0
LINE
  5
378
100
AcDbEntity
  8
0
100
AcDbLine
 62
7
  6
CONTINUOUS
 10
695.2306187666
 20
979.6109400932
 11
695.1632119703
 21
979.8326631682
  0
LINE
  5
379
100
AcDbEntity
  8
0
100
AcDbLine
 62
7
  6
CONTINUOUS
 10
695.3483419474
 20
979.1707417003
 11
695.2624090692
 21
979.5005306208
  0
LINE
  5
37A
100
AcDbEntity
  8
0
100
AcDbLine
 62
7
  6
CONTINUOUS
 10
695.3448339546
 20
979.1840912608
 11
695.2909670213
 21
979.3948451902
  0
LINE
  5
37B
100
AcDbEntity
  8
0
100
AcDbLine
 62
7
  6
CONTINUOUS
 10
695.4378132933
 20
978.7632411134
 11
695.3548873654
 21
979.1409303498
  0
LWPOLYLINE
  5
37C
100
AcDbEntity
  8
0
100
AcDbPolyline
 62
7
  6
CONTINUOUS
 90
3
 70
0
 10
695.4181583196
 20
978.8579902421
 10
695.3925176868
 20
978.9793773217
 10
695.3448339546
 20
979.1840912608
  0
LWPOLYLINE
  5
37D
100
AcDbEntity
  8
0
100
AcDbPolyline
 62
7
  6
CONTINUOUS
 90
3
 70
0
 10
695.3638890459
 20
979.0999318598
 10
695.3585836432
 20
979.1282054099
 10
695.0997136996
 20
980.0274858621
  0
LWPOLYLINE
  5
37E
100
AcDbEntity
  8
0
100
AcDbPolyline
 62
7
  6
CONTINUOUS
 90
7
 70
0
 10
695.5353361251
 20
978.296028485
 10
695.4497514594
 20
978.7838912401
 10
695.3416761342
 20
979.260742369
 10
695.2122790807
 20
979.7256479498
 10
695.0625597607
 20
980.1783027856
 10
694.8936463367
 20
980.6179385461
 10
694.706678846
 20
981.0438736153
  0
LWPOLYLINE
  5
37F
100
AcDbEntity
  8
0
100
AcDbPolyline
 62
7
  6
CONTINUOUS
 90
3
 70
0
 10
695.4157290806
 20
978.8638244851
 10
695.4090771974
 20
978.9056581559
 10
695.1176795977
 20
979.9747964118
  0
LINE
  5
380
100
AcDbEntity
  8
_SURFACE
100
AcDbLine
 62
7
  6
CONTINUOUS
 10
685.3682151497
 20
979.3035134606
 11
685.3682229822
 21
979.3034521124
  0
LINE
  5
381
100
AcDbEntity
  8
0
100
AcDbLine
 62
7
  6
CONTINUOUS
 10
695.5911445309
 20
977.859331499
 11
695.5355374963
 21
978.2957724816
  0
ARC
  5
382
100
AcDbEntity
  8
0
100
AcDbCircle
 62
7
  6
CONTINUOUS
 10
-36770.5122284967
 20
-3174.2144705114
 40
36999.5128871832
100
AcDbArc
 50
5.7366038388
 51
6.4125359056
  0
ARC
  5
383
100
AcDbEntity
  8
_SURFACE
100
AcDbCircle
 62
6
  6
CONTINUOUS
 10
37185.4647533417
 20
-3155.2834730356
 40
36819.5846645992
100
AcDbArc
 50
173.5701429751
 51
174.2648735314
  0
ARC
  5
384
100
AcDbEntity
  8
_SURFACE
100
AcDbCircle
 62
6
  6
CONTINUOUS
 10
-36589.7774818151
 20
-3155.4367156102
 40
36817.8136568864
100
AcDbArc
 50
5.7356415249
 51
6.4304053361
  0
ARC
  5
385
100
AcDbEntity
  8
0
100
AcDbCircle
 62
7
  6
CONTINUOUS
 10
3921.4989629977
 20
277.5988781655
 40
3390.0799638877
100
AcDbArc
 50
175.8033044148
 51
176.2924848345
  0
ARC
  5
386
100
AcDbEntity
  8
0
100
AcDbCircle
 62
7
  6
CONTINUOUS
 10
-2825.2439480893
 20
317.661571914
 40
2890.3096606378
100
AcDbArc
 50
3.5536586154
 51
4.1333520032
  0
ARC
  5
387
100
AcDbEntity
  8
0
100
AcDbCircle
 62
7
  6
CONTINUOUS
 10
121.0807189714
 20
378.2003041842
 40
594.0602866832
100
AcDbArc
 50
99.0821395719
 51
99.5989693641
  0
ARC
  5
388
100
AcDbEntity
  8
0
100
AcDbCircle
 62
7
  6
CONTINUOUS
 10
473.9604255238
 20
384.7568501428
 40
587.4043894342
100
AcDbArc
 50
80.4047830246
 51
80.9276831357
  0
ARC
  5
389
100
AcDbEntity
  8
0
100
AcDbCircle
 62
7
  6
CONTINUOUS
 10
588.0402776068
 20
821.8943383289
 40
136.4819375857
100
AcDbArc
 50
83.9503297213
 51
84.3861315615
  0
ARC
  5
38A
100
AcDbEntity
  8
0
100
AcDbCircle
 62
7
  6
CONTINUOUS
 10
591.175191701
 20
956.6782339074
 40
20.6282484492
100
AcDbArc
 50
156.7249315375
 51
159.3763371164
  0
ARC
  5
38B
100
AcDbEntity
  8
0
100
AcDbCircle
 62
7
  6
CONTINUOUS
 10
2.7180704643
 20
956.6778676558
 40
20.6280870371
100
AcDbArc
 50
20.6230548888
 51
23.276388117
  0
ARC
  5
38C
100
AcDbEntity
  8
0
100
AcDbCircle
 62
7
  6
CONTINUOUS
 10
-22.0694525845
 20
955.8098984321
 40
20.1652313047
100
AcDbArc
 50
8.5540899918
 51
26.5534030391
  0
ARC
  5
38D
100
AcDbEntity
  8
0
100
AcDbCircle
 62
7
  6
CONTINUOUS
 10
615.9624854325
 20
955.8102136457
 40
20.1652268377
100
AcDbArc
 50
153.4475801188
 51
171.445926487
  0
ARC
  5
38E
100
AcDbEntity
  8
0
100
AcDbCircle
 62
7
  6
CONTINUOUS
 10
615.543943555
 20
955.852216689
 40
20.1462377017
100
AcDbArc
 50
153.5461540866
 51
169.5319320127
  0
ARC
  5
38F
100
AcDbEntity
  8
0
100
AcDbCircle
 62
7
  6
CONTINUOUS
 10
-21.1445906507
 20
955.9181807784
 40
20.1453664212
100
AcDbArc
 50
11.9795705857
 51
26.2335346432
  0
ARC
  5
390
100
AcDbEntity
  8
0
100
AcDbCircle
 62
7
  6
CONTINUOUS
 10
616.3459261006
 20
955.8805251078
 40
20.0
100
AcDbArc
 50
153.4706595633
 51
173.9388030261
  0
ARC
  5
391
100
AcDbEntity
  8
0
100
AcDbCircle
 62
7
  6
CONTINUOUS
 10
-22.4494738281
 20
955.8799993706
 40
20.0
100
AcDbArc
 50
6.0624948271
 51
26.5293910368
  0
ARC
  5
392
100
AcDbEntity
  8
0
100
AcDbCircle
 62
7
  6
CONTINUOUS
 10
593.3649309935
 20
912.7707753335
 40
17.4986906045
100
AcDbArc
 50
274.4823006003
 51
353.9385158852
  0
ARC
  5
393
100
AcDbEntity
  8
_SURFACE
100
AcDbCircle
 62
7
  6
CONTINUOUS
 10
588.1037207469
 20
920.0581172125
 40
16.0
100
AcDbArc
 50
302.0000273301
 51
353.938515591
  0
ARC
  5
394
100
AcDbEntity
  8
0
100
AcDbCircle
 62
7
  6
CONTINUOUS
 10
616.3340223068
 20
956.1420023027
 40
13.9877343363
100
AcDbArc
 50
141.6211747792
 51
173.9502587808
  0
ARC
  5
395
100
AcDbEntity
  8
0
100
AcDbCircle
 62
7
  6
CONTINUOUS
 10
685.6301796085
 20
976.8110995626
 40
10.0
100
AcDbArc
 50
10.0072490731
 51
34.6624214949
  0
ARC
  5
396
100
AcDbEntity
  8
0
100
AcDbCircle
 62
7
  6
CONTINUOUS
 10
593.3648661582
 20
912.3418041695
 40
7.498758374
100
AcDbArc
 50
298.2606450418
 51
353.9383376565
  0
ARC
  5
397
100
AcDbEntity
  8
0
100
AcDbCircle
 62
7
  6
CONTINUOUS
 10
595.2019478416
 20
889.3441591804
 40
6.0001590046
100
AcDbArc
 50
94.4878566812
 51
173.9388028965
  0
ARC
  5
398
100
AcDbEntity
  8
_SURFACE
100
AcDbCircle
 62
7
  6
CONTINUOUS
 10
548.3564984668
 20
523.4342751211
 40
1.9462424704
100
AcDbArc
 50
356.8466295042
 51
19.6378910161
  0
ARC
  5
399
100
AcDbEntity
  8
_SURFACE
100
AcDbCircle
 62
7
  6
CONTINUOUS
 10
45.5367424068
 20
523.4335720868
 40
1.9459473063
100
AcDbArc
 50
160.3606712818
 51
183.1540651848
  0
SPLINE
  5
39A
100
AcDbEntity
  8
0
100
AcDbSpline
 62
7
  6
CONTINUOUS
 70
0
 71
3
 72
8
 73
4
 74
0
 42
0.0000001
 43
0.0000001
 44
0.0000000001
 40
0.0
 40
0.0
 40
0.0
 40
0.0
 40
1.0
 40
1.0
 40
1.0
 40
1.0
 10
-4.468363806
 20
964.8155845611
 30
0.0
 10
-3.4299748435
 20
962.7347607742
 30
0.0
 10
-2.748115487
 20
960.4371768003
 30
0.0
 10
-2.486544067
 20
958.1264064392
 30
0.0
  0
SPLINE
  5
39B
100
AcDbEntity
  8
0
100
AcDbSpline
 62
7
  6
CONTINUOUS
 70
0
 71
3
 72
9
 73
5
 74
0
 42
0.0000001
 43
0.0000001
 44
0.0000000001
 40
0.0
 40
0.0
 40
0.0
 40
0.0
 40
0.5032435338
 40
1.0
 40
1.0
 40
1.0
 40
1.0
 10
540.3755919202
 20
525.6980450738
 30
0.0
 10
545.9512141383
 20
598.8678570546
 30
0.0
 10
561.6450303607
 20
743.8962942823
 30
0.0
 10
582.7512959766
 20
888.2492740255
 30
0.0
 10
595.7330119094
 20
959.5125205191
 30
0.0
  0
SPLINE
  5
39C
100
AcDbEntity
  8
0
100
AcDbSpline
 62
7
  6
CONTINUOUS
 70
0
 71
3
 72
10
 73
6
 74
0
 42
0.0000001
 43
0.0000001
 44
0.0000000001
 40
0.0
 40
0.0
 40
0.0
 40
0.0
 40
0.2544317928
 40
0.5042122788
 40
1.0
 40
1.0
 40
1.0
 40
1.0
 10
57.5417919104
 20
525.990815233
 30
0.0
 10
54.8631941791
 20
563.0678190941
 30
0.0
 10
48.1371632728
 20
636.449837799
 30
0.0
 10
30.1873770484
 20
781.4456793725
 30
0.0
 10
13.0726685086
 20
889.131015981
 30
0.0
 10
-1.437938551
 20
960.0995728096
 30
0.0
  0
SPLINE
  5
39D
100
AcDbEntity
  8
0
100
AcDbSpline
 62
7
  6
CONTINUOUS
 70
0
 71
3
 72
17
 73
13
 74
0
 42
0.0000001
 43
0.0000001
 44
0.0000000001
 40
0.0
 40
0.0
 40
0.0
 40
0.0
 40
0.0374894205
 40
0.0848061824
 40
0.2040593851
 40
0.3464684702
 40
0.4999999485
 40
0.6535349502
 40
0.7959409126
 40
0.915195112
 40
0.9625114651
 40
1.0
 40
1.0
 40
1.0
 40
1.0
 10
22.0204785071
 20
963.9434354293
 30
0.0
 10
28.8731862999
 20
963.3876172162
 30
0.0
 10
44.3901259699
 20
962.3186476208
 30
0.0
 10
81.7580362202
 20
960.2828685429
 30
0.0
 10
138.3882466883
 20
958.2082769567
 30
0.0
 10
214.5169039458
 20
956.6335638396
 30
0.0
 10
296.947363194
 20
956.0808039263
 30
0.0
 10
379.3772498073
 20
956.6336503895
 30
0.0
 10
455.5061599444
 20
958.2084879872
 30
0.0
 10
512.1359061581
 20
960.2830847676
 30
0.0
 10
549.503755725
 20
962.3189625136
 30
0.0
 10
565.0204612539
 20
963.3878782257
 30
0.0
 10
571.8730062217
 20
963.943694952
 30
0.0
  0
SPLINE
  5
39E
100
AcDbEntity
  8
0
100
AcDbSpline
 62
7
  6
CONTINUOUS
 70
0
 71
3
 72
13
 73
9
 74
0
 42
0.0000001
 43
0.0000001
 44
0.0000000001
 40
0.0
 40
0.0
 40
0.0
 40
0.0
 40
0.388895499
 40
0.6862443091
 40
0.7998823176
 40
0.8899314971
 40
0.9564385428
 40
1.0
 40
1.0
 40
1.0
 40
1.0
 10
22.0203350539
 20
963.9430728031
 30
0.0
 10
18.9437723322
 20
963.641270402
 30
0.0
 10
13.5197172838
 20
963.0621802243
 30
0.0
 10
7.2145523315
 20
962.2210829315
 30
0.0
 10
3.2921659862
 20
961.533290604
 30
0.0
 10
1.1898935721
 20
961.0787416342
 30
0.0
 10
-0.3351593934
 20
960.6379700598
 30
0.0
 10
-1.1537555651
 20
960.2974186241
 30
0.0
 10
-1.4379622078
 20
960.0996068212
 30
0.0
  0
SPLINE
  5
39F
100
AcDbEntity
  8
0
100
AcDbSpline
 62
7
  6
CONTINUOUS
 70
0
 71
3
 72
17
 73
13
 74
0
 42
0.0000001
 43
0.0000001
 44
0.0000000001
 40
0.0
 40
0.0
 40
0.0
 40
0.0
 40
0.0087210188
 40
0.0217644982
 40
0.040892613
 40
0.0673487642
 40
0.1015557201
 40
0.1436744702
 40
0.2518634199
 40
0.3919490321
 40
0.5636488534
 40
1.0
 40
1.0
 40
1.0
 40
1.0
 10
595.7330127331
 20
959.5125384648
 30
0.0
 10
595.710169876
 20
959.5802349214
 30
0.0
 10
595.6686675959
 20
959.7550097939
 30
0.0
 10
595.4641246896
 20
960.0349985011
 30
0.0
 10
595.0450358205
 20
960.2824869418
 30
0.0
 10
594.4477174076
 20
960.5459802345
 30
0.0
 10
593.6461285369
 20
960.809201357
 30
0.0
 10
592.1865194905
 20
961.202310136
 30
0.0
 10
589.8536065398
 20
961.6787050118
 30
0.0
 10
586.4581704458
 20
962.2349430877
 30
0.0
 10
580.3847156685
 20
963.0638840643
 30
0.0
 10
575.4306913941
 20
963.5943678524
 30
0.0
 10
571.8729865278
 20
963.943408954
 30
0.0
  0
SPLINE
  5
3A0
100
AcDbEntity
  8
0
100
AcDbSpline
 62
7
  6
CONTINUOUS
 70
0
 71
3
 72
11
 73
7
 74
0
 42
0.0000001
 43
0.0000001
 44
0.0000000001
 40
0.0
 40
0.0
 40
0.0
 40
0.0
 40
0.2261164605
 40
0.3867849906
 40
0.6183363894
 40
1.0
 40
1.0
 40
1.0
 40
1.0
 10
-1.4379596506
 20
960.0996095313
 30
0.0
 10
-1.5298899619
 20
960.0350729635
 30
0.0
 10
-1.6929803814
 20
959.9168217425
 30
0.0
 10
-1.8050620267
 20
959.6239241105
 30
0.0
 10
-1.9244583903
 20
959.2611137621
 30
0.0
 10
-2.0448950241
 20
958.9794742812
 30
0.0
 10
-2.1285416735
 20
958.8093359826
 30
0.0
  0
SPLINE
  5
3A1
100
AcDbEntity
  8
0
100
AcDbSpline
 62
7
  6
CONTINUOUS
 70
0
 71
3
 72
9
 73
5
 74
0
 42
0.0000001
 43
0.0000001
 44
0.0000000001
 40
0.0
 40
0.0
 40
0.0
 40
0.0
 40
0.2162251155
 40
1.0
 40
1.0
 40
1.0
 40
1.0
 10
596.0215807639
 20
958.8096439701
 30
0.0
 10
595.9974323937
 20
958.8588156594
 30
0.0
 10
595.8900506628
 20
959.0883308371
 30
0.0
 10
595.7983272134
 20
959.324994083
 30
0.0
 10
595.7330106251
 20
959.5125163535
 30
0.0
  0
SPLINE
  5
3A2
100
AcDbEntity
  8
0
100
AcDbSpline
 62
7
  6
CONTINUOUS
 70
0
 71
3
 72
18
 73
14
 74
0
 42
0.0000001
 43
0.0000001
 44
0.0000000001
 40
0.0
 40
0.0
 40
0.0
 40
0.0
 40
0.0050038472
 40
0.01990216
 40
0.0445427294
 40
0.0786308843
 40
0.1217890874
 40
0.1735236039
 40
0.3003056342
 40
0.4532986161
 40
0.6257220542
 40
0.8102196962
 40
1.0
 40
1.0
 40
1.0
 40
1.0
 10
594.731237242
 20
895.3258261186
 30
0.0
 10
594.7488832012
 20
895.3279168844
 30
0.0
 10
594.7235414824
 20
895.4352550675
 30
0.0
 10
594.7806275735
 20
895.5558640645
 30
0.0
 10
594.7989490899
 20
895.8348660387
 30
0.0
 10
594.8599399031
 20
896.1840225335
 30
0.0
 10
594.9242362667
 20
896.6403978065
 30
0.0
 10
595.0440421538
 20
897.4171189363
 30
0.0
 10
595.2276619657
 20
898.5807812089
 30
0.0
 10
595.5014235715
 20
900.1628629773
 30
0.0
 10
595.8511064521
 20
901.9398899628
 30
0.0
 10
596.2995915429
 20
903.8296694407
 30
0.0
 10
596.6933440854
 20
905.1005689437
 30
0.0
 10
596.9153980591
 20
905.7368736703
 30
0.0
  0
SPLINE
  5
3A3
100
AcDbEntity
  8
0
100
AcDbSpline
 62
7
  6
CONTINUOUS
 70
0
 71
3
 72
16
 73
12
 74
0
 42
0.0000001
 43
0.0000001
 44
0.0000000001
 40
0.0
 40
0.0
 40
0.0
 40
0.0
 40
0.3817659112
 40
0.5541900102
 40
0.7051820596
 40
0.8291256108
 40
0.9215118518
 40
0.9546314666
 40
0.9786880504
 40
0.9936297236
 40
1.0
 40
1.0
 40
1.0
 40
1.0
 10
600.8216976602
 20
911.5499448997
 30
0.0
 10
602.0856322096
 20
911.4159755618
 30
0.0
 10
603.9221019053
 20
911.235619677
 30
0.0
 10
606.2614800841
 20
911.0400965757
 30
0.0
 10
607.7477192557
 20
910.9333527203
 30
0.0
 10
608.9670721045
 20
910.8651707822
 30
0.0
 10
609.8010661936
 20
910.8385819018
 30
0.0
 10
610.2939293294
 20
910.8418814383
 30
0.0
 10
610.5425681877
 20
910.8563965186
 30
0.0
 10
610.6760798207
 20
910.8735862971
 30
0.0
 10
610.7635493906
 20
910.9018998994
 30
0.0
 10
610.765788874
 20
910.9229899159
 30
0.0
  0
SPLINE
  5
3A4
100
AcDbEntity
  8
0
100
AcDbSpline
 62
7
  6
CONTINUOUS
 70
0
 71
3
 72
10
 73
6
 74
0
 42
0.0000001
 43
0.0000001
 44
0.0000000001
 40
0.0
 40
0.0
 40
0.0
 40
0.0
 40
0.6574851303
 40
0.87882086
 40
1.0
 40
1.0
 40
1.0
 40
1.0
 10
601.3914582269
 20
957.7216745436
 30
0.0
 10
600.3337872931
 20
957.8256472168
 30
0.0
 10
598.9171826157
 20
957.9589388713
 30
0.0
 10
597.3054695587
 20
958.0340825797
 30
0.0
 10
596.7488710016
 20
958.0518504641
 30
0.0
 10
596.5546290423
 20
958.0266036692
 30
0.0
  0
SPLINE
  5
3A5
100
AcDbEntity
  8
0
100
AcDbSpline
 62
7
  6
CONTINUOUS
 70
0
 71
3
 72
9
 73
5
 74
0
 42
0.0000001
 43
0.0000001
 44
0.0000000001
 40
0.0
 40
0.0
 40
0.0
 40
0.0
 40
0.6932485742
 40
1.0
 40
1.0
 40
1.0
 40
1.0
 10
596.5546290423
 20
958.0266036692
 30
0.0
 10
596.5305604128
 20
958.0234753248
 30
0.0
 10
596.5004817807
 20
958.0194401842
 30
0.0
 10
596.4588626891
 20
958.0030178565
 30
0.0
 10
596.4577308481
 20
957.9923380986
 30
0.0
  0
SPLINE
  5
3A6
100
AcDbEntity
  8
0
100
AcDbSpline
 62
7
  6
CONTINUOUS
 70
0
 71
3
 72
14
 73
10
 74
0
 42
0.0000001
 43
0.0000001
 44
0.0000000001
 40
0.0
 40
0.0
 40
0.0
 40
0.0
 40
0.3814443788
 40
0.554481626
 40
0.7055921232
 40
0.8296193114
 40
0.9217579202
 40
0.978964359
 40
1.0
 40
1.0
 40
1.0
 40
1.0
 10
596.9154031179
 20
905.7368763894
 30
0.0
 10
596.1580210015
 20
905.8171507095
 30
0.0
 10
595.0551421975
 20
905.9255407379
 30
0.0
 10
593.653521929
 20
906.0422291266
 30
0.0
 10
592.7554241736
 20
906.1086064644
 30
0.0
 10
592.0384565153
 20
906.143139369
 30
0.0
 10
591.4563255037
 20
906.1758085049
 30
0.0
 10
591.1831607297
 20
906.1421924989
 30
0.0
 10
590.9533716837
 20
906.1547871073
 30
0.0
 10
590.9489451477
 20
906.1130194617
 30
0.0
  0
SPLINE
  5
3A7
100
AcDbEntity
  8
_SURFACE
100
AcDbSpline
 62
7
  6
CONTINUOUS
 70
0
 71
3
 72
9
 73
5
 74
0
 42
0.0000001
 43
0.0000001
 44
0.0000000001
 40
0.0
 40
0.0
 40
0.0
 40
0.0
 40
0.4921673316
 40
1.0
 40
1.0
 40
1.0
 40
1.0
 10
603.9666781686
 20
984.0054272874
 30
0.0
 10
604.0029949568
 20
983.9935959165
 30
0.0
 10
604.0777178927
 20
983.9762347165
 30
0.0
 10
604.1543373824
 20
983.9724423283
 30
0.0
 10
604.1937363722
 20
983.974015745
 30
0.0
  0
SPLINE
  5
3A8
100
AcDbEntity
  8
_SURFACE
100
AcDbSpline
 62
7
  6
CONTINUOUS
 70
0
 71
3
 72
89
 73
85
 74
0
 42
0.0000001
 43
0.0000001
 44
0.0000000001
 40
0.0
 40
0.0
 40
0.0
 40
0.0
 40
0.0001529606
 40
0.0002672177
 40
0.0003515803
 40
0.0004153803
 40
0.0005277296
 40
0.0007325544
 40
0.0010555728
 40
0.0015006498
 40
0.0020684902
 40
0.0025979089
 40
0.003204964
 40
0.0046582473
 40
0.0064410895
 40
0.0085642307
 40
0.0109975261
 40
0.0137912226
 40
0.0169587645
 40
0.0205135844
 40
0.0244691073
 40
0.0288387527
 40
0.0336359365
 40
0.0388740719
 40
0.0444956781
 40
0.0505035091
 40
0.0569442309
 40
0.0638559986
 40
0.0712409368
 40
0.0791011678
 40
0.0873619602
 40
0.0960521405
 40
0.105038806
 40
0.1144790028
 40
0.1243746534
 40
0.1347276801
 40
0.1455400045
 40
0.1568135483
 40
0.1685502326
 40
0.1807519783
 40
0.1934207065
 40
0.2065583377
 40
0.2201667926
 40
0.2340551331
 40
0.2482537161
 40
0.2628311761
 40
0.2778214676
 40
0.2932154942
 40
0.3090041593
 40
0.3250059509
 40
0.3412745209
 40
0.3578985626
 40
0.3748694252
 40
0.3921784575
 40
0.4098170083
 40
0.4277764263
 40
0.44604806
 40
0.4646232581
 40
0.4834933688
 40
0.5026497407
 40
0.522083722
 40
0.5417866611
 40
0.5617499062
 40
0.5817719104
 40
0.6019496728
 40
0.6223222649
 40
0.6429031566
 40
0.6636809659
 40
0.684644311
 40
0.7056842469
 40
0.7268171683
 40
0.7480992676
 40
0.7695194271
 40
0.7910665289
 40
0.812729455
 40
0.8344970876
 40
0.8563583088
 40
0.8783020007
 40
0.9003170455
 40
0.9223923251
 40
0.9445167216
 40
0.9666791172
 40
0.988868394
 40
1.0
 40
1.0
 40
1.0
 40
1.0
 10
603.9666781686
 20
984.0054272874
 30
0.0
 10
603.9820773279
 20
984.0106544903
 30
0.0
 10
604.0070694399
 20
984.0203938772
 30
0.0
 10
604.041274991
 20
984.0300942247
 30
0.0
 10
604.0699076222
 20
984.0337378546
 30
0.0
 10
604.082408839
 20
984.0652818196
 30
0.0
 10
604.033971682
 20
984.0809467499
 30
0.0
 10
603.9792404265
 20
984.1021768467
 30
0.0
 10
603.8774153977
 20
984.1211597944
 30
0.0
 10
603.744024326
 20
984.1430736255
 30
0.0
 10
603.5866889453
 20
984.1632404509
 30
0.0
 10
603.4133696994
 20
984.1827437809
 30
0.0
 10
603.1493257848
 20
984.2090857721
 30
0.0
 10
602.757090252
 20
984.2424432339
 30
0.0
 10
602.2095217812
 20
984.2820714975
 30
0.0
 10
601.5614432258
 20
984.3229033359
 30
0.0
 10
600.8096995346
 20
984.3648864112
 30
0.0
 10
599.9508833561
 20
984.4079360613
 30
0.0
 10
598.9771089922
 20
984.4521459453
 30
0.0
 10
597.8842576614
 20
984.4974007447
 30
0.0
 10
596.6682098211
 20
984.5435883424
 30
0.0
 10
595.3248466394
 20
984.5905979584
 30
0.0
 10
593.8500493036
 20
984.6383194413
 30
0.0
 10
592.2469578545
 20
984.6864274589
 30
0.0
 10
590.5198048336
 20
984.7346280254
 30
0.0
 10
588.6694032003
 20
984.7821582569
 30
0.0
 10
586.6867977821
 20
984.8294284714
 30
0.0
 10
584.5630885646
 20
984.8765660382
 30
0.0
 10
582.2939370585
 20
984.9236089958
 30
0.0
 10
579.8865646544
 20
984.9703380864
 30
0.0
 10
577.3454584781
 20
985.0166319275
 30
0.0
 10
574.6889346828
 20
985.0621483383
 30
0.0
 10
571.9115712145
 20
985.1069952064
 30
0.0
 10
569.0107006632
 20
985.1512061515
 30
0.0
 10
565.9698455993
 20
985.1949820504
 30
0.0
 10
562.7884164886
 20
985.2382672467
 30
0.0
 10
559.4658238038
 20
985.2810061754
 30
0.0
 10
556.0014780212
 20
985.3231433218
 30
0.0
 10
552.3947896205
 20
985.3646232215
 30
0.0
 10
548.6451690839
 20
985.4053904391
 30
0.0
 10
544.7520268955
 20
985.4453896049
 30
0.0
 10
540.7147735414
 20
985.4845652442
 30
0.0
 10
536.5525740737
 20
985.5226815139
 30
0.0
 10
532.2816811968
 20
985.5595723169
 30
0.0
 10
527.9115150591
 20
985.5952653412
 30
0.0
 10
523.4284591591
 20
985.6299223545
 30
0.0
 10
518.8229379481
 20
985.6636504226
 30
0.0
 10
514.0933378166
 20
985.696480913
 30
0.0
 10
509.2601157856
 20
985.7282954791
 30
0.0
 10
504.3373015252
 20
985.7590426704
 30
0.0
 10
499.3289077878
 20
985.7887433577
 30
0.0
 10
494.2212405317
 20
985.8175085836
 30
0.0
 10
489.0069874405
 20
985.8453954629
 30
0.0
 10
483.6888074627
 20
985.8724019913
 30
0.0
 10
478.2693595469
 20
985.8985261782
 30
0.0
 10
472.7513026425
 20
985.9237660445
 30
0.0
 10
467.137295699
 20
985.9481196207
 30
0.0
 10
461.4299976662
 20
985.9715849463
 30
0.0
 10
455.6320674944
 20
985.9941600682
 30
0.0
 10
449.7461641338
 20
986.0158430406
 30
0.0
 10
443.774946535
 20
986.0366319213
 30
0.0
 10
437.7210736487
 20
986.0565247831
 30
0.0
 10
431.6069634672
 20
986.075458478
 30
0.0
 10
425.4442117795
 20
986.0934178324
 30
0.0
 10
419.2395258596
 20
986.1104093351
 30
0.0
 10
412.9775878859
 20
986.12649201
 30
0.0
 10
406.6541819092
 20
986.1416864392
 30
0.0
 10
400.2702601442
 20
986.1559970795
 30
0.0
 10
393.8393142634
 20
986.169401032
 30
0.0
 10
387.3719906827
 20
986.1818878102
 30
0.0
 10
380.8720138687
 20
986.1934637788
 30
0.0
 10
374.333087407
 20
986.2041492834
 30
0.0
 10
367.7517330937
 20
986.2139545919
 30
0.0
 10
361.1313676285
 20
986.2228776946
 30
0.0
 10
354.4754077108
 20
986.230916584
 30
0.0
 10
347.7872700403
 20
986.2380692542
 30
0.0
 10
341.0703713165
 20
986.2443337015
 30
0.0
 10
334.3281282392
 20
986.2497079234
 30
0.0
 10
327.5639575079
 20
986.2541899198
 30
0.0
 10
320.7812758224
 20
986.2577776895
 30
0.0
 10
313.9834998821
 20
986.2604692424
 30
0.0
 10
307.1740463873
 20
986.2622625532
 30
0.0
 10
301.4906354986
 20
986.263007132
 30
0.0
 10
298.0774221016
 20
986.2631151599
 30
0.0
 10
296.9371597888
 20
986.2631134137
 30
0.0
  0
SPLINE
  5
3A9
100
AcDbEntity
  8
_SURFACE
100
AcDbSpline
 62
7
  6
CONTINUOUS
 70
0
 71
3
 72
89
 73
85
 74
0
 42
0.0000001
 43
0.0000001
 44
0.0000000001
 40
0.0
 40
0.0
 40
0.0
 40
0.0
 40
0.0001524818
 40
0.0002662753
 40
0.0003504343
 40
0.000414709
 40
0.0005233077
 40
0.0007229781
 40
0.0010392358
 40
0.0014751284
 40
0.0020331693
 40
0.0025574498
 40
0.0031616624
 40
0.0046164628
 40
0.0064127354
 40
0.0085654906
 40
0.0110401802
 40
0.0138752212
 40
0.0170750351
 40
0.020629449
 40
0.0245820055
 40
0.0289459733
 40
0.0337346175
 40
0.0389125998
 40
0.0443409436
 40
0.0503528237
 40
0.0567356767
 40
0.0635829978
 40
0.070896861
 40
0.0786793386
 40
0.0869325013
 40
0.0956584185
 40
0.1048591586
 40
0.1145367895
 40
0.1246933781
 40
0.1351286024
 40
0.1459960391
 40
0.157324166
 40
0.1690066903
 40
0.181148532
 40
0.1937515704
 40
0.206817685
 40
0.2202387399
 40
0.2339413742
 40
0.2480064153
 40
0.2624885444
 40
0.2773788232
 40
0.2926683129
 40
0.3083480748
 40
0.3244091697
 40
0.3408426586
 40
0.3576396018
 40
0.37479106
 40
0.3922880933
 40
0.4101217622
 40
0.4282831265
 40
0.4467412394
 40
0.4652338241
 40
0.484018068
 40
0.503085445
 40
0.5224274289
 40
0.542030449
 40
0.5618095528
 40
0.581696931
 40
0.6017901414
 40
0.6221018521
 40
0.642620782
 40
0.66333565
 40
0.684235175
 40
0.705308076
 40
0.7265430717
 40
0.7479288811
 40
0.7694542229
 40
0.7911078159
 40
0.812878379
 40
0.834754631
 40
0.8567252905
 40
0.878650028
 40
0.9006209965
 40
0.9226518309
 40
0.944731484
 40
0.9668489086
 40
0.9889686595
 40
1.0
 40
1.0
 40
1.0
 40
1.0
 10
-10.0730844822
 20
984.0052011827
 30
0.0
 10
-10.0882980137
 20
984.0104091989
 30
0.0
 10
-10.1133880282
 20
984.0199757402
 30
0.0
 10
-10.1476224926
 20
984.0295061019
 30
0.0
 10
-10.1758288788
 20
984.0332149698
 30
0.0
 10
-10.1895962818
 20
984.0638200414
 30
0.0
 10
-10.1425149898
 20
984.0804161571
 30
0.0
 10
-10.0891799583
 20
984.1009143983
 30
0.0
 10
-9.9896259578
 20
984.1199972853
 30
0.0
 10
-9.8588520427
 20
984.1416432964
 30
0.0
 10
-9.7040118415
 20
984.161727708
 30
0.0
 10
-9.5325313442
 20
984.1811892161
 30
0.0
 10
-9.2691826291
 20
984.207676265
 30
0.0
 10
-8.8757494446
 20
984.2413025894
 30
0.0
 10
-8.3236697808
 20
984.2813773674
 30
0.0
 10
-7.6670005651
 20
984.322781273
 30
0.0
 10
-6.9038096841
 20
984.3653593542
 30
0.0
 10
-6.0332750108
 20
984.4088953124
 30
0.0
 10
-5.0520628071
 20
984.4533118115
 30
0.0
 10
-3.9563151698
 20
984.498559955
 30
0.0
 10
-2.7412635676
 20
984.544601983
 30
0.0
 10
-1.3997379799
 20
984.5914563718
 30
0.0
 10
0.0673583714
 20
984.6388539594
 30
0.0
 10
1.6435339645
 20
984.6861111558
 30
0.0
 10
3.3450482277
 20
984.7336431114
 30
0.0
 10
5.1700349328
 20
984.7806177642
 30
0.0
 10
7.1404069413
 20
984.8276963351
 30
0.0
 10
9.2441805488
 20
984.8745090512
 30
0.0
 10
11.4913504919
 20
984.9212303449
 30
0.0
 10
13.8825508005
 20
984.9677952618
 30
0.0
 10
16.4184153165
 20
985.0141440295
 30
0.0
 10
19.0995778998
 20
985.0602157373
 30
0.0
 10
21.9266723782
 20
985.1059501042
 30
0.0
 10
24.900332569
 20
985.1512868837
 30
0.0
 10
28.0004640557
 20
985.1958679466
 30
0.0
 10
31.2224889099
 20
985.23962136
 30
0.0
 10
34.564534346
 20
985.2825170606
 30
0.0
 10
38.0343585705
 20
985.3246218305
 30
0.0
 10
41.6347364899
 20
985.3659364303
 30
0.0
 10
45.3657189455
 20
985.4064241805
 30
0.0
 10
49.2384362737
 20
985.4461518992
 30
0.0
 10
53.2421971281
 20
985.4849559541
 30
0.0
 10
57.3586034906
 20
985.5226303546
 30
0.0
 10
61.5773432687
 20
985.5590781449
 30
0.0
 10
65.9047800614
 20
985.5944505886
 30
0.0
 10
70.3538766979
 20
985.6288860697
 30
0.0
 10
74.9284018949
 20
985.6624371936
 30
0.0
 10
79.6256081939
 20
985.6951013363
 30
0.0
 10
84.4427481299
 20
985.7268764717
 30
0.0
 10
89.3770742376
 20
985.757760447
 30
0.0
 10
94.4258390503
 20
985.7877511792
 30
0.0
 10
99.5862951008
 20
985.8168465946
 30
0.0
 10
104.8556949207
 20
985.845044642
 30
0.0
 10
110.2312910411
 20
985.8723432854
 30
0.0
 10
115.7103359929
 20
985.8987405031
 30
0.0
 10
121.2878281722
 20
985.9242239855
 30
0.0
 10
126.932817345
 20
985.9486714805
 30
0.0
 10
132.6416119478
 20
985.972101312
 30
0.0
 10
138.4128169885
 20
985.9945383334
 30
0.0
 10
144.271028616
 20
986.0160923678
 30
0.0
 10
150.2131099143
 20
986.0367597397
 30
0.0
 10
156.2280957766
 20
986.056511536
 30
0.0
 10
162.2989488587
 20
986.0753070514
 30
0.0
 10
168.4200144494
 20
986.093150052
 30
0.0
 10
174.5956369488
 20
986.1100732801
 30
0.0
 10
180.8359508595
 20
986.1261157583
 30
0.0
 10
187.139942558
 20
986.1412822128
 30
0.0
 10
193.5041453642
 20
986.1555706185
 30
0.0
 10
199.9250925981
 20
986.1689789628
 30
0.0
 10
206.3993175795
 20
986.1815052338
 30
0.0
 10
212.9233536281
 20
986.193147423
 30
0.0
 10
219.4937340638
 20
986.2039035244
 30
0.0
 10
226.1069922062
 20
986.2137715345
 30
0.0
 10
232.7596613749
 20
986.2227494519
 30
0.0
 10
239.4482748897
 20
986.2308352775
 30
0.0
 10
246.16936607
 20
986.2380270138
 30
0.0
 10
252.9062500075
 20
986.2443103374
 30
0.0
 10
259.6528363998
 20
986.2496874508
 30
0.0
 10
266.4055870671
 20
986.2541636877
 30
0.0
 10
273.1742060337
 20
986.2577487226
 30
0.0
 10
279.9578266813
 20
986.2604422911
 30
0.0
 10
286.7505551993
 20
986.2622417559
 30
0.0
 10
292.4116225767
 20
986.2629950822
 30
0.0
 10
295.8072368782
 20
986.2631117103
 30
0.0
 10
296.9371597888
 20
986.2631134137
 30
0.0
  0
SPLINE
  5
3AA
100
AcDbEntity
  8
_SURFACE
100
AcDbSpline
 62
7
  6
CONTINUOUS
 70
0
 71
3
 72
9
 73
5
 74
0
 42
0.0000001
 43
0.0000001
 44
0.0000000001
 40
0.0
 40
0.0
 40
0.0
 40
0.0
 40
0.5064640075
 40
1.0
 40
1.0
 40
1.0
 40
1.0
 10
-10.3011381129
 20
983.9737226159
 30
0.0
 10
-10.2616845506
 20
983.972189022
 30
0.0
 10
-10.1847377624
 20
983.9760088283
 30
0.0
 10
-10.1096731292
 20
983.9933495316
 30
0.0
 10
-10.0730844822
 20
984.0052011827
 30
0.0
  0
SPLINE
  5
3AB
100
AcDbEntity
  8
_SURFACE
100
AcDbSpline
 62
7
  6
CONTINUOUS
 70
0
 71
3
 72
9
 73
5
 74
0
 42
0.0000001
 43
0.0000001
 44
0.0000000001
 40
0.0
 40
0.0
 40
0.0
 40
0.0
 40
0.7237891181
 40
1.0
 40
1.0
 40
1.0
 40
1.0
 10
604.193756627
 20
983.9733372814
 30
0.0
 10
604.1439035402
 20
983.9715903459
 30
0.0
 10
604.0747198662
 20
983.978143563
 30
0.0
 10
604.0069510992
 20
983.9905444401
 30
0.0
 10
603.9883579015
 20
983.9946287517
 30
0.0
  0
LINE
  5
3AC
100
AcDbEntity
  8
_SURFACE
100
AcDbLine
 62
7
  6
CONTINUOUS
 10
-10.0427219755
 20
984.0234368243
 11
-10.2984840299
 21
983.9729519876
  0
SPLINE
  5
3AD
100
AcDbEntity
  8
_SURFACE
100
AcDbSpline
 62
7
  6
CONTINUOUS
 70
0
 71
3
 72
9
 73
5
 74
0
 42
0.0000001
 43
0.0000001
 44
0.0000000001
 40
0.0
 40
0.0
 40
0.0
 40
0.0
 40
0.3334210464
 40
1.0
 40
1.0
 40
1.0
 40
1.0
 10
-10.0092250072
 20
984.0967223635
 30
0.0
 10
-9.8020874799
 20
984.1354986762
 30
0.0
 10
-9.1775041805
 20
984.2245299149
 30
0.0
 10
-8.5467961872
 20
984.2611018467
 30
0.0
 10
-8.1271005459
 20
984.2882163085
 30
0.0
  0
SPLINE
  5
3AE
100
AcDbEntity
  8
_SURFACE
100
AcDbSpline
 62
7
  6
CONTINUOUS
 70
0
 71
3
 72
12
 73
8
 74
0
 42
0.0000001
 43
0.0000001
 44
0.0000000001
 40
0.0
 40
0.0
 40
0.0
 40
0.0
 40
0.0884353434
 40
0.2353442629
 40
0.4387658547
 40
0.6943632376
 40
1.0
 40
1.0
 40
1.0
 40
1.0
 10
-8.1271005459
 20
984.2882163085
 30
0.0
 10
-5.5961903334
 20
984.4581820694
 30
0.0
 10
1.1523150055
 20
984.6852391538
 30
0.0
 10
13.7329443208
 20
984.988536247
 30
0.0
 10
31.1115731702
 20
985.2501421594
 30
0.0
 10
53.0428263599
 20
985.4947373195
 30
0.0
 10
69.1404250025
 20
985.6205926126
 30
0.0
 10
77.9068649441
 20
985.6810177028
 30
0.0
  0
SPLINE
  5
3AF
100
AcDbEntity
  8
_SURFACE
100
AcDbSpline
 62
7
  6
CONTINUOUS
 70
0
 71
3
 72
81
 73
77
 74
0
 42
0.0000001
 43
0.0000001
 44
0.0000000001
 40
0.0
 40
0.0
 40
0.0
 40
0.0
 40
0.0039107109
 40
0.0148051263
 40
0.0259644948
 40
0.0373826053
 40
0.0490532466
 40
0.0609702075
 40
0.0731272766
 40
0.0855182425
 40
0.0981368937
 40
0.1109617279
 40
0.1238105135
 40
0.136861946
 40
0.1501101015
 40
0.1635490559
 40
0.1771693802
 40
0.1909120486
 40
0.204729947
 40
0.2186908591
 40
0.2328035868
 40
0.2470602919
 40
0.2614531363
 40
0.2759742818
 40
0.2906158901
 40
0.305370123
 40
0.3202291424
 40
0.3351851099
 40
0.3502301873
 40
0.3653565363
 40
0.3805563188
 40
0.3958216963
 40
0.4110551669
 40
0.426320759
 40
0.4416279464
 40
0.4569690534
 40
0.4723364043
 40
0.4877053715
 40
0.5031048219
 40
0.5185230341
 40
0.5339225679
 40
0.5492956981
 40
0.5646346993
 40
0.5799318464
 40
0.5951794139
 40
0.6103696767
 40
0.6254949095
 40
0.640547387
 40
0.6555193839
 40
0.670403175
 40
0.6851910351
 40
0.6998752388
 40
0.7144948317
 40
0.7290612054
 40
0.7434986595
 40
0.7577992855
 40
0.7719551747
 40
0.7859756864
 40
0.7998879696
 40
0.813759424
 40
0.8274500048
 40
0.8409537004
 40
0.8542644991
 40
0.8673763894
 40
0.8802833596
 40
0.8929793982
 40
0.9054584938
 40
0.9177146349
 40
0.9297418102
 40
0.9415340083
 40
0.9530852181
 40
0.9643894283
 40
0.9755082677
 40
0.9864790162
 40
0.9971755502
 40
1.0
 40
1.0
 40
1.0
 40
1.0
 10
77.8561585239
 20
985.6814885991
 30
0.0
 10
78.4326613268
 20
985.6854708478
 30
0.0
 10
80.6151803036
 20
985.7004002477
 30
0.0
 10
84.4427800286
 20
985.7256406778
 30
0.0
 10
89.377106366
 20
985.7565156458
 30
0.0
 10
94.4258714078
 20
985.7864975304
 30
0.0
 10
99.5863276807
 20
985.8155843175
 30
0.0
 10
104.8557277179
 20
985.8437739462
 30
0.0
 10
110.2313240499
 20
985.87106439
 30
0.0
 10
115.7103692074
 20
985.8974536316
 30
0.0
 10
121.2878615866
 20
985.9229293702
 30
0.0
 10
126.9328509522
 20
985.947369396
 30
0.0
 10
132.6416457407
 20
985.9707920326
 30
0.0
 10
138.4128509601
 20
985.993222131
 30
0.0
 10
144.2710627599
 20
986.0147694853
 30
0.0
 10
150.2131442242
 20
986.0354304256
 30
0.0
 10
156.2281302457
 20
986.0551760525
 30
0.0
 10
162.2989834798
 20
986.073965678
 30
0.0
 10
168.4200492153
 20
986.0918030722
 30
0.0
 10
174.5956718522
 20
986.1087209695
 30
0.0
 10
180.8359858937
 20
986.1247583815
 30
0.0
 10
187.1399777161
 20
986.1399200345
 30
0.0
 10
193.5041806393
 20
986.1542039054
 30
0.0
 10
199.9251279833
 20
986.1676079837
 30
0.0
 10
206.3993530678
 20
986.1801302595
 30
0.0
 10
212.9233892125
 20
986.1917687263
 30
0.0
 10
219.4937697372
 20
986.2025213804
 30
0.0
 10
226.1070279613
 20
986.2123862202
 30
0.0
 10
232.7596972047
 20
986.2213612464
 30
0.0
 10
239.4483107868
 20
986.2294444619
 30
0.0
 10
246.1694020272
 20
986.2366338714
 30
0.0
 10
252.9062860173
 20
986.2429151575
 30
0.0
 10
259.6528724547
 20
986.2482905235
 30
0.0
 10
266.4056231595
 20
986.2527653023
 30
0.0
 10
273.1742421563
 20
986.2563491685
 30
0.0
 10
279.9578628264
 20
986.259041852
 30
0.0
 10
286.75059136
 20
986.2608407456
 30
0.0
 10
293.5519210487
 20
986.2617454471
 30
0.0
 10
300.3607487641
 20
986.2617538254
 30
0.0
 10
307.1740825473
 20
986.2608615346
 30
0.0
 10
313.9835360271
 20
986.2590688094
 30
0.0
 10
320.7813119444
 20
986.2563781422
 30
0.0
 10
327.5639935996
 20
986.252791547
 30
0.0
 10
334.3281642931
 20
986.2483110142
 30
0.0
 10
341.0704073252
 20
986.2429385425
 30
0.0
 10
347.7873059964
 20
986.2366761299
 30
0.0
 10
354.4754436071
 20
986.2295257769
 30
0.0
 10
361.1314034577
 20
986.2214894854
 30
0.0
 10
367.7517688486
 20
986.2125692589
 30
0.0
 10
374.3331230804
 20
986.2027671032
 30
0.0
 10
380.8720494536
 20
986.1920850256
 30
0.0
 10
387.3720261719
 20
986.1805127605
 30
0.0
 10
393.8393496496
 20
986.168029967
 30
0.0
 10
400.2702954201
 20
986.154630281
 30
0.0
 10
406.6542170678
 20
986.1403241843
 30
0.0
 10
412.9776229202
 20
986.1251345671
 30
0.0
 10
419.2395607626
 20
986.1090569724
 30
0.0
 10
425.4442465442
 20
986.0920708231
 30
0.0
 10
431.606998086
 20
986.0741171127
 30
0.0
 10
437.7211081142
 20
986.0551893518
 30
0.0
 10
443.77498084
 20
986.035302704
 30
0.0
 10
449.7461982717
 20
986.0145202929
 30
0.0
 10
455.6321014587
 20
985.9928440405
 30
0.0
 10
461.4300314506
 20
985.9702758839
 30
0.0
 10
467.1373292972
 20
985.9468177635
 30
0.0
 10
472.7513360485
 20
985.9224716271
 30
0.0
 10
478.2693927547
 20
985.8972394301
 30
0.0
 10
483.6888404665
 20
985.8711231365
 30
0.0
 10
489.0070202348
 20
985.844124721
 30
0.0
 10
494.2212731108
 20
985.8162461663
 30
0.0
 10
499.3289401464
 20
985.7874894803
 30
0.0
 10
504.3373336571
 20
985.7577975288
 30
0.0
 10
509.2601476863
 20
985.727059411
 30
0.0
 10
514.0933694718
 20
985.6952538401
 30
0.0
 10
517.7038510189
 20
985.6701996436
 30
0.0
 10
519.697061477
 20
985.6558796217
 30
0.0
 10
520.1134306488
 20
985.6528665218
 30
0.0
  0
SPLINE
  5
3B0
100
AcDbEntity
  8
_SURFACE
100
AcDbSpline
 62
7
  6
CONTINUOUS
 70
0
 71
3
 72
12
 73
8
 74
0
 42
0.0000001
 43
0.0000001
 44
0.0000000001
 40
0.0
 40
0.0
 40
0.0
 40
0.0
 40
0.2974305898
 40
0.5473001148
 40
0.7495341141
 40
0.9014313523
 40
1.0
 40
1.0
 40
1.0
 40
1.0
 10
520.0500647428
 20
985.652284527
 30
0.0
 10
528.0675731954
 20
985.5941205204
 30
0.0
 10
542.820468585
 20
985.4728914989
 30
0.0
 10
563.0240329426
 20
985.2437552428
 30
0.0
 10
579.3042028917
 20
984.9959922458
 30
0.0
 10
591.5041018489
 20
984.7202026485
 30
0.0
 10
598.2529632358
 20
984.4972987141
 30
0.0
 10
600.9062027531
 20
984.3545599426
 30
0.0
  0
SPLINE
  5
3B1
100
AcDbEntity
  8
_SURFACE
100
AcDbSpline
 62
7
  6
CONTINUOUS
 70
0
 71
3
 72
9
 73
5
 74
0
 42
0.0000001
 43
0.0000001
 44
0.0000000001
 40
0.0
 40
0.0
 40
0.0
 40
0.0
 40
0.5949357847
 40
1.0
 40
1.0
 40
1.0
 40
1.0
 10
600.9062027531
 20
984.3545599426
 30
0.0
 10
601.4597868465
 20
984.3233181555
 30
0.0
 10
602.3902049835
 20
984.2679150248
 30
0.0
 10
603.3190174907
 20
984.1911027285
 30
0.0
 10
603.6948176025
 20
984.1546271041
 30
0.0
  0
LINE
  5
3B2
100
AcDbEntity
  8
_SURFACE
100
AcDbLine
 62
7
  6
CONTINUOUS
 10
603.9726965811
 20
983.994087319
 11
603.7121310626
 21
984.1373042514
  0
SPLINE
  5
3B3
100
AcDbEntity
  8
_SURFACE
100
AcDbSpline
 62
7
  6
CONTINUOUS
 70
0
 71
3
 72
10
 73
6
 74
0
 42
0.0000001
 43
0.0000001
 44
0.0000000001
 40
0.0
 40
0.0
 40
0.0
 40
0.0
 40
0.4673578275
 40
0.811861636
 40
1.0
 40
1.0
 40
1.0
 40
1.0
 10
-10.5553097114
 20
976.4780269077
 30
0.0
 10
-10.5186714765
 20
976.4767516276
 30
0.0
 10
-10.4446905597
 20
976.4841013859
 30
0.0
 10
-10.3981638301
 20
976.4888782829
 30
0.0
 10
-10.3114757727
 20
976.50102733
 30
0.0
 10
-10.3236209796
 20
976.5094112619
 30
0.0
  0
SPLINE
  5
3B4
100
AcDbEntity
  8
_SURFACE
100
AcDbSpline
 62
7
  6
CONTINUOUS
 70
0
 71
3
 72
21
 73
17
 74
0
 42
0.0000001
 43
0.0000001
 44
0.0000000001
 40
0.0
 40
0.0
 40
0.0
 40
0.0
 40
0.002509089
 40
0.0090072939
 40
0.0209032247
 40
0.0404106632
 40
0.070412367
 40
0.1145588069
 40
0.176569055
 40
0.2570658593
 40
0.3548145428
 40
0.4665119801
 40
0.5896288536
 40
0.7213818365
 40
0.8596850093
 40
1.0
 40
1.0
 40
1.0
 40
1.0
 10
604.2176526727
 20
976.5096587004
 30
0.0
 10
603.9725233402
 20
976.5961005761
 30
0.0
 10
603.0779952547
 20
976.8195984364
 30
0.0
 10
600.9184340175
 20
976.8329347044
 30
0.0
 10
597.0532333269
 20
977.075920117
 30
0.0
 10
590.7581577469
 20
977.2317363272
 30
0.0
 10
581.1700315469
 20
977.4681624902
 30
0.0
 10
567.2217949659
 20
977.6886978231
 30
0.0
 10
548.1028095611
 20
977.9264990661
 30
0.0
 10
523.4911839904
 20
978.141548696
 30
0.0
 10
493.789577418
 20
978.3305349614
 30
0.0
 10
459.7215227226
 20
978.4877479815
 30
0.0
 10
422.1698936525
 20
978.611168884
 30
0.0
 10
381.8926078165
 20
978.7005104781
 30
0.0
 10
339.8534570143
 20
978.7544532594
 30
0.0
 10
311.3112936071
 20
978.768491351
 30
0.0
 10
296.9371655381
 20
978.7676630276
 30
0.0
  0
SPLINE
  5
3B5
100
AcDbEntity
  8
_SURFACE
100
AcDbSpline
 62
7
  6
CONTINUOUS
 70
0
 71
3
 72
10
 73
6
 74
0
 42
0.0000001
 43
0.0000001
 44
0.0000000001
 40
0.0
 40
0.0
 40
0.0
 40
0.0
 40
0.1875600524
 40
0.5308161125
 40
1.0
 40
1.0
 40
1.0
 40
1.0
 10
604.2183068583
 20
976.509681229
 30
0.0
 10
604.2062807655
 20
976.5012936673
 30
0.0
 10
604.2922247653
 20
976.4891396021
 30
0.0
 10
604.3387357783
 20
976.4844204156
 30
0.0
 10
604.4125157341
 20
976.477088162
 30
0.0
 10
604.4491710431
 20
976.4783641373
 30
0.0
  0
SPLINE
  5
3B6
100
AcDbEntity
  8
_SURFACE
100
AcDbSpline
 62
7
  6
CONTINUOUS
 70
0
 71
3
 72
9
 73
5
 74
0
 42
0.0000001
 43
0.0000001
 44
0.0000000001
 40
0.0
 40
0.0
 40
0.0
 40
0.0
 40
0.2022026272
 40
1.0
 40
1.0
 40
1.0
 40
1.0
 10
604.4151734375
 20
976.4764977394
 30
0.0
 10
604.4002811951
 20
976.4759758897
 30
0.0
 10
604.3266309399
 20
976.4773753609
 30
0.0
 10
604.252324575
 20
976.4830218345
 30
0.0
 10
604.1952956458
 20
976.497319585
 30
0.0
  0
LINE
  5
3B7
100
AcDbEntity
  8
_SURFACE
100
AcDbLine
 62
7
  6
CONTINUOUS
 10
604.2200651512
 20
976.4981758811
 11
603.9298079667
 21
976.6398656154
  0
SPLINE
  5
3B8
100
AcDbEntity
  8
_SURFACE
100
AcDbSpline
 62
7
  6
CONTINUOUS
 70
0
 71
3
 72
10
 73
6
 74
0
 42
0.0000001
 43
0.0000001
 44
0.0000000001
 40
0.0
 40
0.0
 40
0.0
 40
0.0
 40
0.4313716903
 40
0.7560410315
 40
1.0
 40
1.0
 40
1.0
 40
1.0
 10
601.0925661371
 20
976.8572287107
 30
0.0
 10
601.500056924
 20
976.836507976
 30
0.0
 10
602.214142017
 20
976.7977397224
 30
0.0
 10
603.1575872359
 20
976.7293561732
 30
0.0
 10
603.6932613136
 20
976.6809369942
 30
0.0
 10
603.9228881606
 20
976.6581018425
 30
0.0
  0
SPLINE
  5
3B9
100
AcDbEntity
  8
_SURFACE
100
AcDbSpline
 62
7
  6
CONTINUOUS
 70
0
 71
3
 72
11
 73
7
 74
0
 42
0.0000001
 43
0.0000001
 44
0.0000000001
 40
0.0
 40
0.0
 40
0.0
 40
0.0
 40
0.3650424246
 40
0.654564607
 40
0.868559239
 40
1.0
 40
1.0
 40
1.0
 40
1.0
 10
520.0636758249
 20
978.1525556546
 30
0.0
 10
529.9247250932
 20
978.0815726096
 30
0.0
 10
547.6065038451
 20
977.9319984097
 30
0.0
 10
571.0686085896
 20
977.645052487
 30
0.0
 10
588.2176210129
 20
977.3172734421
 30
0.0
 10
597.5470160732
 20
977.0494756577
 30
0.0
 10
601.0925661371
 20
976.8572287107
 30
0.0
  0
SPLINE
  5
3BA
100
AcDbEntity
  8
_SURFACE
100
AcDbSpline
 62
7
  6
CONTINUOUS
 70
0
 71
3
 72
17
 73
13
 74
0
 42
0.0000001
 43
0.0000001
 44
0.0000000001
 40
0.0
 40
0.0
 40
0.0
 40
0.0
 40
0.0837001242
 40
0.1777548794
 40
0.2808607886
 40
0.3905301122
 40
0.5028210295
 40
0.6145970466
 40
0.7238694675
 40
0.8260008304
 40
0.9189409475
 40
1.0
 40
1.0
 40
1.0
 40
1.0
 10
77.8934125397
 20
978.1812985877
 30
0.0
 10
90.2297449981
 20
978.2676846549
 30
0.0
 10
116.4288148274
 20
978.4134159845
 30
0.0
 10
157.8248460287
 20
978.5705987754
 30
0.0
 10
203.0486558671
 20
978.6844647218
 30
0.0
 10
250.9604024787
 20
978.7518358981
 30
0.0
 10
300.1500860927
 20
978.7732739014
 30
0.0
 10
349.2812675391
 20
978.7460653708
 30
0.0
 10
396.9149728691
 20
978.6718291596
 30
0.0
 10
441.7723422985
 20
978.5529130182
 30
0.0
 10
482.471149672
 20
978.3898047536
 30
0.0
 10
508.1166322349
 20
978.2401950764
 30
0.0
 10
520.0636758249
 20
978.1525556546
 30
0.0
  0
SPLINE
  5
3BB
100
AcDbEntity
  8
_SURFACE
100
AcDbSpline
 62
7
  6
CONTINUOUS
 70
0
 71
3
 72
11
 73
7
 74
0
 42
0.0000001
 43
0.0000001
 44
0.0000000001
 40
0.0
 40
0.0
 40
0.0
 40
0.0
 40
0.1198283593
 40
0.3301402305
 40
0.6251176632
 40
1.0
 40
1.0
 40
1.0
 40
1.0
 10
-8.3276081081
 20
976.7911165423
 30
0.0
 10
-4.8908139171
 20
977.0217562156
 30
0.0
 10
4.599008859
 20
977.2859379467
 30
0.0
 10
22.5625554674
 20
977.6526101688
 30
0.0
 10
47.8629971821
 20
977.9493828373
 30
0.0
 10
67.1174896758
 20
978.1075577328
 30
0.0
 10
77.8934125397
 20
978.1812985877
 30
0.0
  0
SPLINE
  5
3BC
100
AcDbEntity
  8
_SURFACE
100
AcDbSpline
 62
7
  6
CONTINUOUS
 70
0
 71
3
 72
10
 73
6
 74
0
 42
0.0000001
 43
0.0000001
 44
0.0000000001
 40
0.0
 40
0.0
 40
0.0
 40
0.0
 40
0.1790064913
 40
0.5049326951
 40
1.0
 40
1.0
 40
1.0
 40
1.0
 10
-10.251308348
 20
976.6007500199
 30
0.0
 10
-10.1383447765
 20
976.6255590676
 30
0.0
 10
-9.8175283342
 20
976.6811630449
 30
0.0
 10
-9.1743324994
 20
976.736776603
 30
0.0
 10
-8.6463087542
 20
976.7723866298
 30
0.0
 10
-8.3276081081
 20
976.7911165423
 30
0.0
  0
SPLINE
  5
3BD
100
AcDbEntity
  8
_SURFACE
100
AcDbSpline
 62
7
  6
CONTINUOUS
 70
0
 71
3
 72
9
 73
5
 74
0
 42
0.0000001
 43
0.0000001
 44
0.0000000001
 40
0.0
 40
0.0
 40
0.0
 40
0.0
 40
0.3918919217
 40
1.0
 40
1.0
 40
1.0
 40
1.0
 10
-10.3023276286
 20
976.5279769923
 30
0.0
 10
-10.3180510921
 20
976.5329740753
 30
0.0
 10
-10.3748138475
 20
976.5690671601
 30
0.0
 10
-10.2965533198
 20
976.5828264621
 30
0.0
 10
-10.2718437126
 20
976.5895232405
 30
0.0
  0
SPLINE
  5
3BE
100
AcDbEntity
  8
_SURFACE
100
AcDbSpline
 62
7
  6
CONTINUOUS
 70
0
 71
3
 72
11
 73
7
 74
0
 42
0.0000001
 43
0.0000001
 44
0.0000000001
 40
0.0
 40
0.0
 40
0.0
 40
0.0
 40
0.2393131791
 40
0.5323374275
 40
0.7910573421
 40
1.0
 40
1.0
 40
1.0
 40
1.0
 10
-10.3387767643
 20
976.5292231598
 30
0.0
 10
-10.3153244875
 20
976.5217697373
 30
0.0
 10
-10.2222935713
 20
976.4934556428
 30
0.0
 10
-10.3696475978
 20
976.4865358489
 30
0.0
 10
-10.4307766466
 20
976.4761504855
 30
0.0
 10
-10.4818828594
 20
976.4747823654
 30
0.0
 10
-10.5033549174
 20
976.4755347016
 30
0.0
  0
SPLINE
  5
3BF
100
AcDbEntity
  8
_SURFACE
100
AcDbSpline
 62
6
  6
CONTINUOUS
 70
0
 71
3
 72
11
 73
7
 74
0
 42
0.0000001
 43
0.0000001
 44
0.0000000001
 40
0.0
 40
0.0
 40
0.0
 40
0.0
 40
0.3404659756
 40
0.5648296541
 40
0.7466080774
 40
1.0
 40
1.0
 40
1.0
 40
1.0
 10
597.528524207
 20
968.0760990572
 30
0.0
 10
597.6790317327
 20
969.4935176455
 30
0.0
 10
598.1609057021
 20
971.8416968774
 30
0.0
 10
599.7780937713
 20
974.6149173854
 30
0.0
 10
602.1482239324
 20
976.1845292427
 30
0.0
 10
604.0035984198
 20
976.4623102401
 30
0.0
 10
605.0637969082
 20
976.4993336938
 30
0.0
  0
SPLINE
  5
3C0
100
AcDbEntity
  8
_SURFACE
100
AcDbSpline
 62
6
  6
CONTINUOUS
 70
0
 71
3
 72
11
 73
7
 74
0
 42
0.0000001
 43
0.0000001
 44
0.0000000001
 40
0.0
 40
0.0
 40
0.0
 40
0.0
 40
0.2533924825
 40
0.435176902
 40
0.6594211818
 40
1.0
 40
1.0
 40
1.0
 40
1.0
 10
605.063355882
 20
976.4996093659
 30
0.0
 10
604.0032716076
 20
976.4625899013
 30
0.0
 10
602.1481197663
 20
976.1848349856
 30
0.0
 10
599.7784913207
 20
974.6156403718
 30
0.0
 10
598.1622496322
 20
971.8427299512
 30
0.0
 10
597.6766592206
 20
969.4956744185
 30
0.0
 10
597.5261183635
 20
968.0779419275
 30
0.0
  0
SPLINE
  5
3C1
100
AcDbEntity
  8
_SURFACE
100
AcDbSpline
 62
7
  6
CONTINUOUS
 70
0
 71
3
 72
22
 73
18
 74
0
 42
0.0000001
 43
0.0000001
 44
0.0000000001
 40
0.0
 40
0.0
 40
0.0
 40
0.0
 40
0.0112267915
 40
0.0225875604
 40
0.0340370883
 40
0.045566574
 40
0.0573196355
 40
0.069731386
 40
0.0832947699
 40
0.1019635706
 40
0.1351473616
 40
0.1887431449
 40
0.2684163764
 40
0.3806804438
 40
0.5333837766
 40
0.7361302075
 40
1.0
 40
1.0
 40
1.0
 40
1.0
 10
550.2850990978
 20
523.1501159571
 30
0.0
 10
550.2887984879
 20
523.1909911955
 30
0.0
 10
550.2957596928
 20
523.2733180692
 30
0.0
 10
550.3022010506
 20
523.397638564
 30
0.0
 10
550.301906759
 20
523.5233258141
 30
0.0
 10
550.2922234657
 20
523.6499960865
 30
0.0
 10
550.2743832706
 20
523.7796324041
 30
0.0
 10
550.2423325584
 20
523.9132233346
 30
0.0
 10
550.2126693442
 20
524.0770165117
 30
0.0
 10
550.0409240488
 20
524.2604276863
 30
0.0
 10
549.6855655165
 20
524.4175784102
 30
0.0
 10
549.1060923204
 20
524.6036519895
 30
0.0
 10
548.2276943675
 20
524.7959960001
 30
0.0
 10
546.9852150903
 20
525.0066379661
 30
0.0
 10
545.2892520552
 20
525.2309559327
 30
0.0
 10
543.0373035848
 20
525.4716167651
 30
0.0
 10
541.337377785
 20
525.6201869022
 30
0.0
 10
540.375625518
 20
525.6980533952
 30
0.0
  0
SPLINE
  5
3C2
100
AcDbEntity
  8
_SURFACE
100
AcDbSpline
 62
6
  6
CONTINUOUS
 70
0
 71
3
 72
11
 73
7
 74
0
 42
0.0000001
 43
0.0000001
 44
0.0000000001
 40
0.0
 40
0.0
 40
0.0
 40
0.0
 40
0.2079513613
 40
0.4758720423
 40
0.7427141419
 40
1.0
 40
1.0
 40
1.0
 40
1.0
 10
540.3755928846
 20
525.6980556386
 30
0.0
 10
542.7218266055
 20
556.4880672887
 30
0.0
 10
549.0153762583
 20
626.8794591953
 30
0.0
 10
561.6745023202
 20
736.4486072757
 30
0.0
 10
577.527042799
 20
852.9975771836
 30
0.0
 10
590.2296001956
 20
929.8010348811
 30
0.0
 10
597.174876854
 20
967.369534322
 30
0.0
  0
SPLINE
  5
3C3
100
AcDbEntity
  8
_SURFACE
100
AcDbSpline
 62
6
  6
CONTINUOUS
 70
0
 71
3
 72
11
 73
7
 74
0
 42
0.0000001
 43
0.0000001
 44
0.0000000001
 40
0.0
 40
0.0
 40
0.0
 40
0.0
 40
0.171734912
 40
0.3882145499
 40
0.5903770282
 40
1.0
 40
1.0
 40
1.0
 40
1.0
 10
597.1739598795
 20
967.3688951433
 30
0.0
 10
597.1924531278
 20
967.4101538153
 30
0.0
 10
597.2351138834
 20
967.5030150093
 30
0.0
 10
597.2978101472
 20
967.6453551822
 30
0.0
 10
597.4017504264
 20
967.8371287624
 30
0.0
 10
597.4827469954
 20
967.9766919646
 30
0.0
 10
597.5270380803
 20
968.0750719378
 30
0.0
  0
SPLINE
  5
3C4
100
AcDbEntity
  8
_SURFACE
100
AcDbSpline
 62
7
  6
CONTINUOUS
 70
0
 71
3
 72
16
 73
12
 74
0
 42
0.0000001
 43
0.0000001
 44
0.0000000001
 40
0.0
 40
0.0
 40
0.0
 40
0.0
 40
0.0325436824
 40
0.0803463761
 40
0.1475324079
 40
0.2390245604
 40
0.3577159072
 40
0.4993433684
 40
0.6581346705
 40
0.8278399698
 40
1.0
 40
1.0
 40
1.0
 40
1.0
 10
540.3754956478
 20
525.6980667446
 30
0.0
 10
537.7428355253
 20
525.9112208696
 30
0.0
 10
531.2338641995
 20
526.3203440095
 30
0.0
 10
519.2715882685
 20
526.8525467018
 30
0.0
 10
502.5217538363
 20
527.3925796422
 30
0.0
 10
480.0161831394
 20
527.9198601318
 30
0.0
 10
451.4667538274
 20
528.4002127068
 30
0.0
 10
417.4536363412
 20
528.8002049981
 30
0.0
 10
379.2989913587
 20
529.0953324627
 30
0.0
 10
338.6655637263
 20
529.2727643794
 30
0.0
 10
310.9194429161
 20
529.3114461707
 30
0.0
 10
296.9467771742
 20
529.3114401263
 30
0.0
  0
SPLINE
  5
3C5
100
AcDbEntity
  8
_SURFACE
100
AcDbSpline
 62
6
  6
CONTINUOUS
 70
0
 71
3
 72
15
 73
11
 74
0
 42
0.0000001
 43
0.0000001
 44
0.0000000001
 40
0.0
 40
0.0
 40
0.0
 40
0.0
 40
0.0729075923
 40
0.2090235702
 40
0.3435228698
 40
0.4772419951
 40
0.6107824872
 40
0.74404469
 40
0.8768129136
 40
1.0
 40
1.0
 40
1.0
 40
1.0
 10
57.541865193
 20
525.9896770754
 30
0.0
 10
56.7618958044
 20
536.7860279015
 30
0.0
 10
54.3542638701
 20
567.7265611842
 30
0.0
 10
49.615588339
 20
618.5116962669
 30
0.0
 10
42.9620055674
 20
678.1755732332
 30
0.0
 10
35.4360614325
 20
737.3492963009
 30
0.0
 10
27.1965639033
 20
796.2423564736
 30
0.0
 10
18.0769803069
 20
854.863835075
 30
0.0
 10
8.1530814993
 20
911.7955148471
 30
0.0
 10
0.8562631623
 20
949.0932115261
 30
0.0
 10
-2.8594926092
 20
967.0011938639
 30
0.0
  0
SPLINE
  5
3C6
100
AcDbEntity
  8
_SURFACE
100
AcDbSpline
 62
6
  6
CONTINUOUS
 70
0
 71
3
 72
62
 73
58
 74
0
 42
0.0000001
 43
0.0000001
 44
0.0000000001
 40
0.0
 40
0.0
 40
0.0
 40
0.0
 40
0.0003094717
 40
0.002486627
 40
0.0058545665
 40
0.0104194833
 40
0.0161758358
 40
0.0231131883
 40
0.0312145711
 40
0.0508318373
 40
0.062296877
 40
0.0748249957
 40
0.0883838706
 40
0.0955370308
 40
0.1029314293
 40
0.1105667502
 40
0.1184328651
 40
0.1348395729
 40
0.1521079746
 40
0.1701891264
 40
0.2085854557
 40
0.2496124197
 40
0.2928397054
 40
0.3378357803
 40
0.3841763145
 40
0.4314429149
 40
0.4792475713
 40
0.5272138676
 40
0.5749670816
 40
0.6221356268
 40
0.6683143777
 40
0.6909060044
 40
0.7130947598
 40
0.7560474583
 40
0.776702037
 40
0.7967398825
 40
0.8161051557
 40
0.8347449409
 40
0.8526089293
 40
0.8696469762
 40
0.8778411615
 40
0.8858106549
 40
0.8935502084
 40
0.9010555076
 40
0.908319297
 40
0.9153381093
 40
0.9286191041
 40
0.9408598742
 40
0.9520277629
 40
0.9620948919
 40
0.971030986
 40
0.9788162894
 40
0.9854329179
 40
0.9908647542
 40
0.9951034581
 40
0.9981456642
 40
1.0
 40
1.0
 40
1.0
 40
1.0
 10
-2.8595573534
 20
967.0012488683
 30
0.0
 10
-2.8024868924
 20
966.9771815272
 30
0.0
 10
-2.3368889979
 20
966.800489578
 30
0.0
 10
-1.1922277517
 20
966.5308972785
 30
0.0
 10
0.7972316186
 20
966.1693178726
 30
0.0
 10
3.5103203182
 20
965.7793676377
 30
0.0
 10
6.9385797469
 20
965.3587785282
 30
0.0
 10
11.0772004927
 20
964.9165459096
 30
0.0
 10
17.9821446974
 20
964.2597725822
 30
0.0
 10
25.7994568128
 20
963.6298549664
 30
0.0
 10
34.5054271355
 20
963.0074503464
 30
0.0
 10
42.0050033938
 20
962.5151837632
 30
0.0
 10
48.6455789541
 20
962.1135638335
 30
0.0
 10
54.2616808607
 20
961.7933007391
 30
0.0
 10
58.6947191811
 20
961.550445893
 30
0.0
 10
63.2707601199
 20
961.3095739049
 30
0.0
 10
69.648712602
 20
960.9870876487
 30
0.0
 10
77.9534202971
 20
960.5923512454
 30
0.0
 10
88.3020042664
 20
960.1387402024
 30
0.0
 10
103.0495395513
 20
959.5438876206
 30
0.0
 10
122.552071282
 20
958.8553209466
 30
0.0
 10
147.0889270597
 20
958.135335344
 30
0.0
 10
172.9498743281
 20
957.5191972602
 30
0.0
 10
199.8769248488
 20
957.0170028595
 30
0.0
 10
227.6144673688
 20
956.6362180433
 30
0.0
 10
255.9155878133
 20
956.3821061035
 30
0.0
 10
284.5429600413
 20
956.2581022047
 30
0.0
 10
313.2679908048
 20
956.2672725605
 30
0.0
 10
341.8653593861
 20
956.4092207841
 30
0.0
 10
370.1040116481
 20
956.6809006494
 30
0.0
 10
393.3057271466
 20
957.014758956
 30
0.0
 10
411.5073148316
 20
957.3448186956
 30
0.0
 10
429.0624737058
 20
957.707919216
 30
0.0
 10
446.2286186755
 20
958.1294417102
 30
0.0
 10
462.9624351752
 20
958.6113557227
 30
0.0
 10
474.9763651044
 20
958.9922636264
 30
0.0
 10
486.5860850295
 20
959.3956543898
 30
0.0
 10
497.7597060816
 20
959.8193634359
 30
0.0
 10
508.466471221
 20
960.2612768314
 30
0.0
 10
517.0831203335
 20
960.6474738117
 30
0.0
 10
523.7205748252
 20
960.9639977722
 30
0.0
 10
528.4986858705
 20
961.2012258923
 30
0.0
 10
533.1386148706
 20
961.4410515122
 30
0.0
 10
537.6369930458
 20
961.6830582976
 30
0.0
 10
541.9908068815
 20
961.9268622882
 30
0.0
 10
547.4980395775
 20
962.2479027036
 30
0.0
 10
553.998324601
 20
962.6498655732
 30
0.0
 10
561.3249194161
 20
963.1419933195
 30
0.0
 10
568.006961606
 20
963.6307505591
 30
0.0
 10
574.02619033
 20
964.1126846122
 30
0.0
 10
579.3670310969
 20
964.5835587418
 30
0.0
 10
584.0155702634
 20
965.0397422712
 30
0.0
 10
587.9614629781
 20
965.4760287576
 30
0.0
 10
591.1942561283
 20
965.8898732412
 30
0.0
 10
593.7122342912
 20
966.2702274942
 30
0.0
 10
595.5030178627
 20
966.6228519235
 30
0.0
 10
596.458599423
 20
966.8700066247
 30
0.0
 10
596.7976110772
 20
967.0210238089
 30
0.0
  0
SPLINE
  5
3C7
100
AcDbEntity
  8
_SURFACE
100
AcDbSpline
 62
6
  6
CONTINUOUS
 70
0
 71
3
 72
10
 73
6
 74
0
 42
0.0000001
 43
0.0000001
 44
0.0000000001
 40
0.0
 40
0.0
 40
0.0
 40
0.0
 40
0.3077634159
 40
0.545806965
 40
1.0
 40
1.0
 40
1.0
 40
1.0
 10
596.7976148049
 20
967.0209821089
 30
0.0
 10
596.8472132942
 20
967.043039255
 30
0.0
 10
596.9325830578
 20
967.08629937
 30
0.0
 10
597.0874516612
 20
967.1775426419
 30
0.0
 10
597.1411747803
 20
967.2956907893
 30
0.0
 10
597.1739407293
 20
967.3687918756
 30
0.0
  0
SPLINE
  5
3C8
100
AcDbEntity
  8
_SURFACE
100
AcDbSpline
 62
7
  6
CONTINUOUS
 70
0
 71
3
 72
10
 73
6
 74
0
 42
0.0000001
 43
0.0000001
 44
0.0000000001
 40
0.0
 40
0.0
 40
0.0
 40
0.0
 40
0.5265012182
 40
0.8615440818
 40
1.0
 40
1.0
 40
1.0
 40
1.0
 10
57.543722257
 20
525.9897940136
 30
0.0
 10
55.0872176864
 20
525.829477416
 30
0.0
 10
51.0973017127
 20
525.4417501382
 30
0.0
 10
46.3785290556
 20
525.1176467326
 30
0.0
 10
44.294439518
 20
524.3764963327
 30
0.0
 10
43.7039913812
 20
524.0876032791
 30
0.0
  0
SPLINE
  5
3C9
100
AcDbEntity
  8
_SURFACE
100
AcDbSpline
 62
6
  6
CONTINUOUS
 70
0
 71
3
 72
10
 73
6
 74
0
 42
0.0000001
 43
0.0000001
 44
0.0000000001
 40
0.0
 40
0.0
 40
0.0
 40
0.0
 40
0.3948289942
 40
0.6932487629
 40
1.0
 40
1.0
 40
1.0
 40
1.0
 10
-3.6072332657
 20
968.0206310707
 30
0.0
 10
-3.5701821196
 20
967.9465014865
 30
0.0
 10
-3.4997003828
 20
967.819174266
 30
0.0
 10
-3.3992118444
 20
967.6347589135
 30
0.0
 10
-3.3484731368
 20
967.5181951057
 30
0.0
 10
-3.3221159543
 20
967.4594510486
 30
0.0
  0
SPLINE
  5
3CA
100
AcDbEntity
  8
_SURFACE
100
AcDbSpline
 62
6
  6
CONTINUOUS
 70
0
 71
3
 72
12
 73
8
 74
0
 42
0.0000001
 43
0.0000001
 44
0.0000000001
 40
0.0
 40
0.0
 40
0.0
 40
0.0
 40
0.0813669343
 40
0.3054802438
 40
0.50092418
 40
0.6975971544
 40
1.0
 40
1.0
 40
1.0
 40
1.0
 10
-3.3221363516
 20
967.4595648283
 30
0.0
 10
-3.314591884
 20
967.4427426268
 30
0.0
 10
-3.285603501
 20
967.3798807576
 30
0.0
 10
-3.2467022079
 20
967.2729662365
 30
0.0
 10
-3.161319344
 20
967.1581084655
 30
0.0
 10
-3.0243476242
 20
967.0768483541
 30
0.0
 10
-2.9227129937
 20
967.0279677193
 30
0.0
 10
-2.8595774105
 20
967.0013429076
 30
0.0
  0
SPLINE
  5
3CB
100
AcDbEntity
  8
_SURFACE
100
AcDbSpline
 62
7
  6
CONTINUOUS
 70
0
 71
3
 72
22
 73
18
 74
0
 42
0.0000001
 43
0.0000001
 44
0.0000000001
 40
0.0
 40
0.0
 40
0.0
 40
0.0
 40
0.0112284634
 40
0.0225910035
 40
0.0340423287
 40
0.0455733997
 40
0.057327934
 40
0.0697411109
 40
0.0833057502
 40
0.1019668754
 40
0.1351400592
 40
0.1887257043
 40
0.2683908977
 40
0.3806507862
 40
0.533355435
 40
0.7361099828
 40
1.0
 40
1.0
 40
1.0
 40
1.0
 10
43.6084654148
 20
523.1500343132
 30
0.0
 10
43.604764507
 20
523.1909170196
 30
0.0
 10
43.5977984898
 20
523.2732589918
 30
0.0
 10
43.5913450693
 20
523.3976023802
 30
0.0
 10
43.5916228145
 20
523.5233128159
 30
0.0
 10
43.6012895541
 20
523.6500068703
 30
0.0
 10
43.619117016
 20
523.7796655136
 30
0.0
 10
43.6511540727
 20
523.9132829693
 30
0.0
 10
43.68080523
 20
524.0770521105
 30
0.0
 10
43.8523203075
 20
524.260578003
 30
0.0
 10
44.2076320566
 20
524.4177318172
 30
0.0
 10
44.7869731821
 20
524.6038552396
 30
0.0
 10
45.6653290021
 20
524.7962278726
 30
0.0
 10
46.9077989402
 20
525.0069133946
 30
0.0
 10
48.6038397099
 20
525.2312731141
 30
0.0
 10
50.8559710578
 20
525.4719831016
 30
0.0
 10
52.5560590094
 20
525.6205837508
 30
0.0
 10
53.5179184944
 20
525.6984636214
 30
0.0
  0
SPLINE
  5
3CC
100
AcDbEntity
  8
_SURFACE
100
AcDbSpline
 62
6
  6
CONTINUOUS
 70
0
 71
3
 72
11
 73
7
 74
0
 42
0.0000001
 43
0.0000001
 44
0.0000000001
 40
0.0
 40
0.0
 40
0.0
 40
0.0
 40
0.2079521533
 40
0.4758738319
 40
0.7427169341
 40
1.0
 40
1.0
 40
1.0
 40
1.0
 10
53.5179508714
 20
525.6984658475
 30
0.0
 10
51.1716918836
 20
556.4884820587
 30
0.0
 10
44.8780853784
 20
626.8798803413
 30
0.0
 10
32.2188688563
 20
736.449035724
 30
0.0
 10
16.3663103763
 20
852.9974573524
 30
0.0
 10
3.6637987426
 20
929.8003685835
 30
0.0
 10
-3.2813849669
 20
967.3683237308
 30
0.0
  0
SPLINE
  5
3CD
100
AcDbEntity
  8
_SURFACE
100
AcDbSpline
 62
6
  6
CONTINUOUS
 70
0
 71
3
 72
8
 73
4
 74
0
 42
0.0000001
 43
0.0000001
 44
0.0000000001
 40
0.0
 40
0.0
 40
0.0
 40
0.0
 40
1.0
 40
1.0
 40
1.0
 40
1.0
 10
-3.2794746112
 20
967.3684107658
 30
0.0
 10
-3.3025922239
 20
967.4228438889
 30
0.0
 10
-3.3295849315
 20
967.4755514436
 30
0.0
 10
-3.3540235177
 20
967.5294044325
 30
0.0
  0
SPLINE
  5
3CE
100
AcDbEntity
  8
_SURFACE
100
AcDbSpline
 62
6
  6
CONTINUOUS
 70
0
 71
3
 72
15
 73
11
 74
0
 42
0.0000001
 43
0.0000001
 44
0.0000000001
 40
0.0
 40
0.0
 40
0.0
 40
0.0
 40
0.0726461251
 40
0.2084542863
 40
0.3428287397
 40
0.4765140367
 40
0.6100458472
 40
0.7433331878
 40
0.8761800436
 40
1.0
 40
1.0
 40
1.0
 40
1.0
 10
538.4526125523
 20
525.8460034679
 30
0.0
 10
539.2526099049
 20
536.6033039059
 30
0.0
 10
541.7038045122
 20
567.4593708178
 30
0.0
 10
546.442728913
 20
618.1467011636
 30
0.0
 10
552.9962367583
 20
677.7589353278
 30
0.0
 10
560.3363328569
 20
736.9380678019
 30
0.0
 10
568.3200713083
 20
795.8708540987
 30
0.0
 10
577.0975827548
 20
854.565694537
 30
0.0
 10
586.6001483462
 20
911.6866758246
 30
0.0
 10
593.5512030187
 20
949.1619593437
 30
0.0
 10
597.0894438269
 20
967.2039437396
 30
0.0
  0
SPLINE
  5
3CF
100
AcDbEntity
  8
_SURFACE
100
AcDbSpline
 62
6
  6
CONTINUOUS
 70
0
 71
3
 72
33
 73
29
 74
0
 42
0.0000001
 43
0.0000001
 44
0.0000000001
 40
0.0
 40
0.0
 40
0.0
 40
0.0
 40
0.003739706
 40
0.0101138561
 40
0.0190777965
 40
0.0306189607
 40
0.0447115712
 40
0.0527056056
 40
0.0613240379
 40
0.080411833
 40
0.1019259725
 40
0.1258013962
 40
0.1519724479
 40
0.1803587092
 40
0.1953552395
 40
0.2108736779
 40
0.226902703
 40
0.243429329
 40
0.2779213183
 40
0.314247913
 40
0.3523000693
 40
0.4331173755
 40
0.5194337604
 40
0.6102787281
 40
0.7046869766
 40
0.8017113997
 40
0.9004377971
 40
1.0
 40
1.0
 40
1.0
 40
1.0
 10
596.7971748821
 20
967.0220325029
 30
0.0
 10
596.4467408636
 20
966.8704923986
 30
0.0
 10
595.4761498874
 20
966.6133838416
 30
0.0
 10
593.5945394566
 20
966.251355054
 30
0.0
 10
590.9364435481
 20
965.8542223602
 30
0.0
 10
587.4999617152
 20
965.421970339
 30
0.0
 10
584.1545659846
 20
965.0588753518
 30
0.0
 10
581.0968633221
 20
964.7544486044
 30
0.0
 10
577.5398605616
 20
964.4204954068
 30
0.0
 10
572.6323458096
 20
963.9973291462
 30
0.0
 10
566.1994436007
 20
963.4946466087
 30
0.0
 10
559.0562020923
 20
962.9856035198
 30
0.0
 10
551.2238206433
 20
962.4741672242
 30
0.0
 10
544.2757861627
 20
962.0575554767
 30
0.0
 10
538.3907035805
 20
961.7254880548
 30
0.0
 10
533.7396953682
 20
961.4737729029
 30
0.0
 10
528.9352302782
 20
961.2243334534
 30
0.0
 10
522.2338503151
 20
960.8906564294
 30
0.0
 10
513.5024169021
 20
960.4829479969
 30
0.0
 10
502.617353751
 20
960.015928555
 30
0.0
 10
487.0983449798
 20
959.4055488561
 30
0.0
 10
466.576559174
 20
958.7038479846
 30
0.0
 10
440.7698342438
 20
957.9786142573
 30
0.0
 10
413.5996900289
 20
957.3682324679
 30
0.0
 10
385.3552775469
 20
956.8832518304
 30
0.0
 10
356.3201189773
 20
956.5312112482
 30
0.0
 10
326.7678382357
 20
956.3173084773
 30
0.0
 10
306.9244129651
 20
956.2692352954
 30
0.0
 10
296.960895953
 20
956.2692176113
 30
0.0
  0
SPLINE
  5
3D0
100
AcDbEntity
  8
_SURFACE
100
AcDbSpline
 62
6
  6
CONTINUOUS
 70
0
 71
3
 72
11
 73
7
 74
0
 42
0.0000001
 43
0.0000001
 44
0.0000000001
 40
0.0
 40
0.0
 40
0.0
 40
0.0
 40
0.129733395
 40
0.4248500666
 40
0.6417754465
 40
1.0
 40
1.0
 40
1.0
 40
1.0
 10
-2.8594986318
 20
967.0013854809
 30
0.0
 10
-2.8825491812
 20
967.0112935319
 30
0.0
 10
-2.9574705421
 20
967.0448653226
 30
0.0
 10
-3.0673994083
 20
967.101835104
 30
0.0
 10
-3.2122065716
 20
967.1963038966
 30
0.0
 10
-3.2528294196
 20
967.3071713968
 30
0.0
 10
-3.2799700958
 20
967.3710872199
 30
0.0
  0
SPLINE
  5
3D1
100
AcDbEntity
  8
_SURFACE
100
AcDbSpline
 62
7
  6
CONTINUOUS
 70
0
 71
3
 72
16
 73
12
 74
0
 42
0.0000001
 43
0.0000001
 44
0.0000000001
 40
0.0
 40
0.0
 40
0.0
 40
0.0
 40
0.0324201346
 40
0.0800186773
 40
0.1468729917
 40
0.2379651867
 40
0.3564241991
 40
0.4981485696
 40
0.6573204625
 40
0.8274998539
 40
1.0
 40
1.0
 40
1.0
 40
1.0
 10
53.5180484348
 20
525.6984769781
 30
0.0
 10
56.1407132828
 20
525.9108343614
 30
0.0
 10
62.6231056857
 20
526.3187347209
 30
0.0
 10
74.5318756845
 20
526.8495010883
 30
0.0
 10
91.2057511154
 20
527.3884825946
 30
0.0
 10
113.6330664684
 20
527.9156250612
 30
0.0
 10
142.1390247501
 20
528.3969474895
 30
0.0
 10
176.1720270981
 20
528.7985599857
 30
0.0
 10
214.4038996267
 20
529.0952094808
 30
0.0
 10
255.1343001323
 20
529.2735443207
 30
0.0
 10
282.9465058252
 20
529.312424741
 30
0.0
 10
296.9467771737
 20
529.3124320324
 30
0.0
  0
SPLINE
  5
3D2
100
AcDbEntity
  8
_SURFACE
100
AcDbSpline
 62
7
  6
CONTINUOUS
 70
0
 71
3
 72
10
 73
6
 74
0
 42
0.0000001
 43
0.0000001
 44
0.0000000001
 40
0.0
 40
0.0
 40
0.0
 40
0.0
 40
0.4852598159
 40
0.8368522584
 40
1.0
 40
1.0
 40
1.0
 40
1.0
 10
538.4525139672
 20
525.8460100235
 30
0.0
 10
540.3754599024
 20
525.7060508758
 30
0.0
 10
543.6699332335
 20
525.3728888209
 30
0.0
 10
547.6730172819
 20
525.0624107901
 30
0.0
 10
549.599552195
 20
524.3819195641
 30
0.0
 10
550.1894816658
 20
524.0883657393
 30
0.0
  0
SPLINE
  5
3D3
100
AcDbEntity
  8
_SURFACE
100
AcDbSpline
 62
6
  6
CONTINUOUS
 70
0
 71
3
 72
10
 73
6
 74
0
 42
0.0000001
 43
0.0000001
 44
0.0000000001
 40
0.0
 40
0.0
 40
0.0
 40
0.0
 40
0.413017725
 40
0.7384124426
 40
1.0
 40
1.0
 40
1.0
 40
1.0
 10
597.5003219705
 20
968.0214626934
 30
0.0
 10
597.4663196097
 20
967.9536782382
 30
0.0
 10
597.4022160535
 20
967.8342002427
 30
0.0
 10
597.3112839696
 20
967.6745198916
 30
0.0
 10
597.2673880225
 20
967.5759810027
 30
0.0
 10
597.2475329205
 20
967.5322466634
 30
0.0
  0
SPLINE
  5
3D4
100
AcDbEntity
  8
_SURFACE
100
AcDbSpline
 62
6
  6
CONTINUOUS
 70
0
 71
3
 72
10
 73
6
 74
0
 42
0.0000001
 43
0.0000001
 44
0.0000000001
 40
0.0
 40
0.0
 40
0.0
 40
0.0
 40
0.2955702812
 40
0.6304356708
 40
1.0
 40
1.0
 40
1.0
 40
1.0
 10
597.2475316168
 20
967.5322390379
 30
0.0
 10
597.2326557757
 20
967.4994403782
 30
0.0
 10
597.2013677621
 20
967.4290977628
 30
0.0
 10
597.150627455
 20
967.3192762901
 30
0.0
 10
597.1185073029
 20
967.2370006239
 30
0.0
 10
597.0886015038
 20
967.2033348271
 30
0.0
  0
SPLINE
  5
3D5
100
AcDbEntity
  8
_SURFACE
100
AcDbSpline
 62
6
  6
CONTINUOUS
 70
0
 71
3
 72
19
 73
15
 74
0
 42
0.0000001
 43
0.0000001
 44
0.0000000001
 40
0.0
 40
0.0
 40
0.0
 40
0.0
 40
0.1646024723
 40
0.3084861578
 40
0.4303172115
 40
0.5299529856
 40
0.6081322422
 40
0.6676155438
 40
0.7134469899
 40
0.7535857326
 40
0.7961082273
 40
0.8479103792
 40
0.9134839699
 40
1.0
 40
1.0
 40
1.0
 40
1.0
 10
596.7976207269
 20
967.0210100646
 30
0.0
 10
596.9484229399
 20
967.7328820167
 30
0.0
 10
597.256758052
 20
969.0618502522
 30
0.0
 10
597.7769699778
 20
970.8926117936
 30
0.0
 10
598.3177975485
 20
972.4161714668
 30
0.0
 10
598.8693768882
 20
973.6227811681
 30
0.0
 10
599.3989728587
 20
974.5304023064
 30
0.0
 10
599.8876028236
 20
975.1811837169
 30
0.0
 10
600.3495047908
 20
975.6320194023
 30
0.0
 10
600.8134308539
 20
975.9638504686
 30
0.0
 10
601.3499477012
 20
976.2253850305
 30
0.0
 10
602.025277817
 20
976.4413117049
 30
0.0
 10
602.9140973026
 20
976.6030819597
 30
0.0
 10
603.5862629177
 20
976.6499624515
 30
0.0
 10
603.9686043679
 20
976.6597775048
 30
0.0
  0
LINE
  5
3D6
100
AcDbEntity
  8
_SURFACE
100
AcDbLine
 62
7
  6
CONTINUOUS
 10
603.9298092426
 20
976.6398244624
 11
604.1122871305
 21
976.5312007045
  0
SPLINE
  5
3D7
100
AcDbEntity
  8
_SURFACE
100
AcDbSpline
 62
7
  6
CONTINUOUS
 70
0
 71
3
 72
8
 73
4
 74
0
 42
0.0000001
 43
0.0000001
 44
0.0000000001
 40
0.0
 40
0.0
 40
0.0
 40
0.0
 40
1.0
 40
1.0
 40
1.0
 40
1.0
 10
604.4236087372
 20
976.4767440177
 30
0.0
 10
604.3526435062
 20
976.4750904213
 30
0.0
 10
604.2810415177
 20
976.4826572251
 30
0.0
 10
604.2117052663
 20
976.4978652045
 30
0.0
  0
SPLINE
  5
3D8
100
AcDbEntity
  8
_SURFACE
100
AcDbSpline
 62
7
  6
CONTINUOUS
 70
0
 71
3
 72
9
 73
5
 74
0
 42
0.0000001
 43
0.0000001
 44
0.0000000001
 40
0.0
 40
0.0
 40
0.0
 40
0.0
 40
0.2671942305
 40
1.0
 40
1.0
 40
1.0
 40
1.0
 10
604.2088202663
 20
976.5093317708
 30
0.0
 10
604.2298795821
 20
976.503685367
 30
0.0
 10
604.3092422187
 20
976.4847408871
 30
0.0
 10
604.3913991197
 20
976.476764537
 30
0.0
 10
604.4511732639
 20
976.4784243138
 30
0.0
  0
SPLINE
  5
3D9
100
AcDbEntity
  8
_SURFACE
100
AcDbSpline
 62
6
  6
CONTINUOUS
 70
0
 71
3
 72
11
 73
7
 74
0
 42
0.0000001
 43
0.0000001
 44
0.0000000001
 40
0.0
 40
0.0
 40
0.0
 40
0.0
 40
0.3993555849
 40
0.644152133
 40
0.7953956969
 40
1.0
 40
1.0
 40
1.0
 40
1.0
 10
597.2475330253
 20
967.5322472008
 30
0.0
 10
597.5300893597
 20
969.1698363015
 30
0.0
 10
598.1710658089
 20
971.7805284682
 30
0.0
 10
599.7524241756
 20
974.7852876594
 30
0.0
 10
601.8474051111
 20
976.288151351
 30
0.0
 10
603.3696082253
 20
976.4801151494
 30
0.0
 10
604.2204856652
 20
976.5097562797
 30
0.0
  0
SPLINE
  5
3DA
100
AcDbEntity
  8
_SURFACE
100
AcDbSpline
 62
6
  6
CONTINUOUS
 70
0
 71
3
 72
20
 73
16
 74
0
 42
0.0000001
 43
0.0000001
 44
0.0000000001
 40
0.0
 40
0.0
 40
0.0
 40
0.0
 40
0.1415355865
 40
0.2686911122
 40
0.3804773194
 40
0.4765822456
 40
0.5568507762
 40
0.6224101419
 40
0.675524242
 40
0.7206635461
 40
0.7634215998
 40
0.809152084
 40
0.8620349347
 40
0.9250303103
 40
1.0
 40
1.0
 40
1.0
 40
1.0
 10
-3.3221185284
 20
967.4594649238
 30
0.0
 10
-3.4264991253
 20
968.0445549892
 30
0.0
 10
-3.652421448
 20
969.1506769537
 30
0.0
 10
-4.0638312915
 20
970.6954795506
 30
0.0
 10
-4.5190459133
 20
972.0282995513
 30
0.0
 10
-5.0113003628
 20
973.1356142975
 30
0.0
 10
-5.51237363
 20
974.0213616508
 30
0.0
 10
-5.995835084
 20
974.7041750714
 30
0.0
 10
-6.4496142479
 20
975.2234498662
 30
0.0
 10
-6.9043670896
 20
975.6071178849
 30
0.0
 10
-7.3900965488
 20
975.8919332527
 30
0.0
 10
-7.9345573191
 20
976.1310835802
 30
0.0
 10
-8.5842283945
 20
976.332908008
 30
0.0
 10
-9.3749176805
 20
976.4742093517
 30
0.0
 10
-9.9537066749
 20
976.5160713806
 30
0.0
 10
-10.2683358703
 20
976.5266897808
 30
0.0
  0
SPLINE
  5
3DB
100
AcDbEntity
  8
_SURFACE
100
AcDbSpline
 62
7
  6
CONTINUOUS
 70
0
 71
3
 72
10
 73
6
 74
0
 42
0.0000001
 43
0.0000001
 44
0.0000000001
 40
0.0
 40
0.0
 40
0.0
 40
0.0
 40
0.6068754589
 40
0.7459255834
 40
1.0
 40
1.0
 40
1.0
 40
1.0
 10
-10.2751846851
 20
976.5269191774
 30
0.0
 10
-10.2981704916
 20
976.5331972846
 30
0.0
 10
-10.3423867621
 20
976.5354613127
 30
0.0
 10
-10.3400194592
 20
976.5807459083
 30
0.0
 10
-10.3225469779
 20
976.5867033586
 30
0.0
 10
-10.3135209065
 20
976.5909513155
 30
0.0
  0
SPLINE
  5
3DC
100
AcDbEntity
  8
_SURFACE
100
AcDbSpline
 62
7
  6
CONTINUOUS
 70
0
 71
3
 72
10
 73
6
 74
0
 42
0.0000001
 43
0.0000001
 44
0.0000000001
 40
0.0
 40
0.0
 40
0.0
 40
0.0
 40
0.1936989013
 40
0.533537213
 40
1.0
 40
1.0
 40
1.0
 40
1.0
 10
-10.264650324
 20
976.6013285375
 30
0.0
 10
-10.1471271389
 20
976.625512163
 30
0.0
 10
-9.8216683265
 20
976.6797513038
 30
0.0
 10
-9.2054035044
 20
976.735889211
 30
0.0
 10
-8.706748958
 20
976.7649359685
 30
0.0
 10
-8.4203749261
 20
976.7943442058
 30
0.0
  0
SPLINE
  5
3DD
100
AcDbEntity
  8
_SURFACE
100
AcDbSpline
 62
7
  6
CONTINUOUS
 70
0
 71
3
 72
11
 73
7
 74
0
 42
0.0000001
 43
0.0000001
 44
0.0000000001
 40
0.0
 40
0.0
 40
0.0
 40
0.0
 40
0.1209446579
 40
0.3313313284
 40
0.626413422
 40
1.0
 40
1.0
 40
1.0
 40
1.0
 10
-8.4203749261
 20
976.7943442058
 30
0.0
 10
-4.9526976443
 20
977.0255696202
 30
0.0
 10
4.5683063058
 20
977.2806542271
 30
0.0
 10
22.5624794587
 20
977.6549273265
 30
0.0
 10
47.8219671722
 20
977.9467370331
 30
0.0
 10
67.0353359447
 20
978.1085816773
 30
0.0
 10
77.7701865703
 20
978.1835586085
 30
0.0
  0
SPLINE
  5
3DE
100
AcDbEntity
  8
_SURFACE
100
AcDbSpline
 62
7
  6
CONTINUOUS
 70
0
 71
3
 72
17
 73
13
 74
0
 42
0.0000001
 43
0.0000001
 44
0.0000000001
 40
0.0
 40
0.0
 40
0.0
 40
0.0
 40
0.0839280065
 40
0.1779260671
 40
0.2809697602
 40
0.3905729126
 40
0.502796085
 40
0.6145046696
 40
0.7237111606
 40
0.8257808907
 40
0.9186649962
 40
1.0
 40
1.0
 40
1.0
 40
1.0
 10
77.7701865703
 20
978.1835586085
 30
0.0
 10
90.1475958846
 20
978.2671437563
 30
0.0
 10
116.3877424072
 20
978.409929082
 30
0.0
 10
157.8248263588
 20
978.5704298666
 30
0.0
 10
203.0486502464
 20
978.6830972306
 30
0.0
 10
250.9603985465
 20
978.7498878708
 30
0.0
 10
300.1500863751
 20
978.7738946725
 30
0.0
 10
349.2812723625
 20
978.7441587015
 30
0.0
 10
396.9149780614
 20
978.6701169205
 30
0.0
 10
441.7723657454
 20
978.5531184902
 30
0.0
 10
482.5190739369
 20
978.3854986284
 30
0.0
 10
508.2124985265
 20
978.240180386
 30
0.0
 10
520.2074695881
 20
978.1546718559
 30
0.0
  0
SPLINE
  5
3DF
100
AcDbEntity
  8
_SURFACE
100
AcDbSpline
 62
7
  6
CONTINUOUS
 70
0
 71
3
 72
11
 73
7
 74
0
 42
0.0000001
 43
0.0000001
 44
0.0000000001
 40
0.0
 40
0.0
 40
0.0
 40
0.0
 40
0.363427326
 40
0.6530754006
 40
0.8671627104
 40
1.0
 40
1.0
 40
1.0
 40
1.0
 10
520.2074695881
 20
978.1546718559
 30
0.0
 10
530.0206046499
 20
978.0810929854
 30
0.0
 10
547.6544253845
 20
977.9262236566
 30
0.0
 10
571.0687125421
 20
977.6434906254
 30
0.0
 10
588.253733158
 20
977.3100248564
 30
0.0
 10
597.6195654811
 20
977.0512075587
 30
0.0
 10
601.2013597871
 20
976.859407332
 30
0.0
  0
SPLINE
  5
3E0
100
AcDbEntity
  8
_SURFACE
100
AcDbSpline
 62
7
  6
CONTINUOUS
 70
0
 71
3
 72
10
 73
6
 74
0
 42
0.0000001
 43
0.0000001
 44
0.0000000001
 40
0.0
 40
0.0
 40
0.0
 40
0.0
 40
0.4176479296
 40
0.7625414903
 40
1.0
 40
1.0
 40
1.0
 40
1.0
 10
601.2013597871
 20
976.859407332
 30
0.0
 10
601.5725323938
 20
976.8367848955
 30
0.0
 10
602.2500085924
 20
976.792663392
 30
0.0
 10
603.138516681
 20
976.733164793
 30
0.0
 10
603.6544908166
 20
976.6820530189
 30
0.0
 10
603.8644728229
 20
976.6566734416
 30
0.0
  0
SPLINE
  5
3E1
100
AcDbEntity
  8
_SURFACE
100
AcDbSpline
 62
7
  6
CONTINUOUS
 70
0
 71
3
 72
10
 73
6
 74
0
 42
0.0000001
 43
0.0000001
 44
0.0000000001
 40
0.0
 40
0.0
 40
0.0
 40
0.0
 40
0.4921072897
 40
0.8051835635
 40
1.0
 40
1.0
 40
1.0
 40
1.0
 10
-10.5590869037
 20
976.4781632855
 30
0.0
 10
-10.5206188142
 20
976.4774473916
 30
0.0
 10
-10.4497076198
 20
976.4800027448
 30
0.0
 10
-10.3944496644
 20
976.4944784008
 30
0.0
 10
-10.3219812176
 20
976.4956428334
 30
0.0
 10
-10.3281423594
 20
976.509572578
 30
0.0
  0
LINE
  5
3E2
100
AcDbEntity
  8
_SURFACE
100
AcDbLine
 62
7
  6
CONTINUOUS
 10
-10.2998925626
 20
976.527711426
 11
-10.560512196
 21
976.4782042758
  0
SPLINE
  5
3E3
100
AcDbEntity
  8
_SURFACE
100
AcDbSpline
 62
6
  6
CONTINUOUS
 70
0
 71
3
 72
13
 73
9
 74
0
 42
0.0000001
 43
0.0000001
 44
0.0000000001
 40
0.0
 40
0.0
 40
0.0
 40
0.0
 40
0.3749858255
 40
0.5436166875
 40
0.6924269684
 40
0.8165183304
 40
0.911461698
 40
1.0
 40
1.0
 40
1.0
 40
1.0
 10
296.9609524093
 20
956.2692507547
 30
0.0
 10
296.9610648978
 20
959.0814460059
 30
0.0
 10
296.9613122082
 20
963.1582834776
 30
0.0
 10
296.9617314637
 20
968.3511193059
 30
0.0
 10
296.962084836
 20
971.6623794063
 30
0.0
 10
296.9623202317
 20
974.4210223571
 30
0.0
 10
296.9628543321
 20
976.7276571764
 30
0.0
 10
296.9626154443
 20
978.1036728741
 30
0.0
 10
296.963166568
 20
978.7676630569
 30
0.0
  0
SPLINE
  5
3E4
100
AcDbEntity
  8
_SURFACE
100
AcDbSpline
 62
7
  6
CONTINUOUS
 70
0
 71
3
 72
18
 73
14
 74
0
 42
0.0000001
 43
0.0000001
 44
0.0000000001
 40
0.0
 40
0.0
 40
0.0
 40
0.0
 40
0.0013703203
 40
0.0120750861
 40
0.03809892
 40
0.0872959638
 40
0.1632276101
 40
0.2611245883
 40
0.3803217013
 40
0.5182498831
 40
0.6705632519
 40
0.8337968178
 40
1.0
 40
1.0
 40
1.0
 40
1.0
 10
-10.3282672488
 20
976.5095769161
 30
0.0
 10
-10.199517773
 20
976.5689900468
 30
0.0
 10
-9.048609931
 20
977.0213699853
 30
0.0
 10
-5.0201196183
 20
976.7183276744
 30
0.0
 10
3.6637192639
 20
977.4603326131
 30
0.0
 10
19.2183697902
 20
977.4884099685
 30
0.0
 10
42.0293464537
 20
977.9330062542
 30
0.0
 10
72.0622147326
 20
978.1440904554
 30
0.0
 10
108.4276839265
 20
978.3821093197
 30
0.0
 10
150.3750669931
 20
978.5478735471
 30
0.0
 10
196.8318289573
 20
978.6742662873
 30
0.0
 10
246.1860953858
 20
978.7502485436
 30
0.0
 10
279.9360732555
 20
978.7666926118
 30
0.0
 10
296.9631945911
 20
978.7676630569
 30
0.0
  0
SPLINE
  5
3E5
100
AcDbEntity
  8
_SURFACE
100
AcDbSpline
 62
7
  6
CONTINUOUS
 70
0
 71
3
 72
21
 73
17
 74
0
 42
0.0000001
 43
0.0000001
 44
0.0000000001
 40
0.0
 40
0.0
 40
0.0
 40
0.0
 40
0.1675378784
 40
0.3171087477
 40
0.4459284266
 40
0.55516607
 40
0.6472466955
 40
0.7238357485
 40
0.787078332
 40
0.839382591
 40
0.8825008171
 40
0.9176094514
 40
0.9455543384
 40
0.9677844309
 40
0.9856847798
 40
1.0
 40
1.0
 40
1.0
 40
1.0
 10
296.946777299
 20
529.0498364648
 30
0.0
 10
283.7466860358
 20
529.0498295738
 30
0.0
 10
258.7620845397
 20
529.0153769284
 30
0.0
 10
223.6282268983
 20
528.8687177969
 30
0.0
 10
193.0882118127
 20
528.6550221151
 30
0.0
 10
167.0783161431
 20
528.3967066814
 30
0.0
 10
145.1841926084
 20
528.1104058893
 30
0.0
 10
126.9145832864
 20
527.8084036982
 30
0.0
 10
111.7795476992
 20
527.4999333178
 30
0.0
 10
99.2823154545
 20
527.1906186485
 30
0.0
 10
89.0024552099
 20
526.8841382649
 30
0.0
 10
80.6426082598
 20
526.5851554725
 30
0.0
 10
73.9293023227
 20
526.2978906081
 30
0.0
 10
68.5726658097
 20
526.0238748099
 30
0.0
 10
64.290899436
 20
525.7616652525
 30
0.0
 10
61.7595485276
 20
525.573625196
 30
0.0
 10
60.6355138941
 20
525.4805986875
 30
0.0
  0
SPLINE
  5
3E6
100
AcDbEntity
  8
_SURFACE
100
AcDbSpline
 62
7
  6
CONTINUOUS
 70
0
 71
3
 72
20
 73
16
 74
0
 42
0.0000001
 43
0.0000001
 44
0.0000000001
 40
0.0
 40
0.0
 40
0.0
 40
0.0
 40
0.2488385506
 40
0.4389830689
 40
0.5847721316
 40
0.6962702346
 40
0.7807430443
 40
0.8430115798
 40
0.8859941986
 40
0.9113436602
 40
0.9299739843
 40
0.9478852602
 40
0.965339471
 40
0.9825287391
 40
1.0
 40
1.0
 40
1.0
 40
1.0
 10
60.6355138941
 20
525.4805986875
 30
0.0
 10
59.7640104749
 20
525.4084178751
 30
0.0
 10
58.2273142791
 20
525.2714946644
 30
0.0
 10
56.1838784378
 20
525.0519820988
 30
0.0
 10
54.624510062
 20
524.8488606887
 30
0.0
 10
53.438674749
 20
524.6561042769
 30
0.0
 10
52.5493993658
 20
524.474889325
 30
0.0
 10
51.906629015
 20
524.2898938593
 30
0.0
 10
51.4801305632
 20
524.1264787442
 30
0.0
 10
51.2322956221
 20
523.9141309102
 30
0.0
 10
51.2003467916
 20
523.6914992578
 30
0.0
 10
51.1634921856
 20
523.5068504912
 30
0.0
 10
51.1514410277
 20
523.3216528389
 30
0.0
 10
51.1552039706
 20
523.1385066707
 30
0.0
 10
51.1662745669
 20
523.0171543869
 30
0.0
 10
51.1735443583
 20
522.9561315111
 30
0.0
  0
SPLINE
  5
3E7
100
AcDbEntity
  8
_SURFACE
100
AcDbSpline
 62
7
  6
CONTINUOUS
 70
0
 71
3
 72
11
 73
7
 74
0
 42
0.0000001
 43
0.0000001
 44
0.0000000001
 40
0.0
 40
0.0
 40
0.0
 40
0.0
 40
0.2609990163
 40
0.5360054708
 40
0.833462949
 40
1.0
 40
1.0
 40
1.0
 40
1.0
 10
51.1569746121
 20
523.1111660446
 30
0.0
 10
51.1519863178
 20
523.1812148166
 30
0.0
 10
51.1499057332
 20
523.325353456
 30
0.0
 10
51.1699485328
 20
523.5486885341
 30
0.0
 10
51.2069778933
 20
523.7442705908
 30
0.0
 10
51.2434759178
 20
523.8635279305
 30
0.0
 10
51.258531208
 20
523.9057095976
 30
0.0
  0
SPLINE
  5
3E8
100
AcDbEntity
  8
_SURFACE
100
AcDbSpline
 62
7
  6
CONTINUOUS
 70
0
 71
3
 72
10
 73
6
 74
0
 42
0.0000001
 43
0.0000001
 44
0.0000000001
 40
0.0
 40
0.0
 40
0.0
 40
0.0
 40
0.1384784499
 40
0.4652220828
 40
1.0
 40
1.0
 40
1.0
 40
1.0
 10
51.258531208
 20
523.9057095976
 30
0.0
 10
51.8292131765
 20
524.1912258433
 30
0.0
 10
53.8113105351
 20
524.9079505351
 30
0.0
 10
58.3871484023
 20
525.2369940197
 30
0.0
 10
62.2556776642
 20
525.6181641781
 30
0.0
 10
64.6754757498
 20
525.7783812211
 30
0.0
  0
SPLINE
  5
3E9
100
AcDbEntity
  8
_SURFACE
100
AcDbSpline
 62
7
  6
CONTINUOUS
 70
0
 71
3
 72
20
 73
16
 74
0
 42
0.0000001
 43
0.0000001
 44
0.0000000001
 40
0.0
 40
0.0
 40
0.0
 40
0.0
 40
0.2488579805
 40
0.4390239545
 40
0.5848180141
 40
0.696314206
 40
0.7807846381
 40
0.8430545684
 40
0.8860444396
 40
0.9114028203
 40
0.9300229409
 40
0.9479234022
 40
0.9653669511
 40
0.9825448966
 40
1.0
 40
1.0
 40
1.0
 40
1.0
 10
533.2512204101
 20
525.4807493534
 30
0.0
 10
534.1233264958
 20
525.4085536002
 30
0.0
 10
535.6611091369
 20
525.271603822
 30
0.0
 10
537.7059649679
 20
525.0520478564
 30
0.0
 10
539.2663791778
 20
524.8488869233
 30
0.0
 10
540.452964951
 20
524.6561147323
 30
0.0
 10
541.3427698981
 20
524.4748765829
 30
0.0
 10
541.9860386081
 20
524.289912107
 30
0.0
 10
542.4127862609
 20
524.1264300668
 30
0.0
 10
542.6611308669
 20
523.9142686656
 30
0.0
 10
542.6931308711
 20
523.6915211943
 30
0.0
 10
542.7300124721
 20
523.5068801585
 30
0.0
 10
542.7420937742
 20
523.3216852525
 30
0.0
 10
542.7383482737
 20
523.1385614465
 30
0.0
 10
542.7272975802
 20
523.0172298664
 30
0.0
 10
542.7200443713
 20
522.9562246869
 30
0.0
  0
SPLINE
  5
3EA
100
AcDbEntity
  8
_SURFACE
100
AcDbSpline
 62
7
  6
CONTINUOUS
 70
0
 71
3
 72
11
 73
7
 74
0
 42
0.0000001
 43
0.0000001
 44
0.0000000001
 40
0.0
 40
0.0
 40
0.0
 40
0.0
 40
0.2610313747
 40
0.5360665443
 40
0.8335242821
 40
1.0
 40
1.0
 40
1.0
 40
1.0
 10
542.7365619878
 20
523.1118610122
 30
0.0
 10
542.7415408808
 20
523.1818778822
 30
0.0
 10
542.7436301679
 20
523.325955443
 30
0.0
 10
542.7236263586
 20
523.5491888212
 30
0.0
 10
542.6865959702
 20
523.7446437595
 30
0.0
 10
542.6502352064
 20
523.8638542172
 30
0.0
 10
542.6352617639
 20
523.9060185427
 30
0.0
  0
SPLINE
  5
3EB
100
AcDbEntity
  8
_SURFACE
100
AcDbSpline
 62
7
  6
CONTINUOUS
 70
0
 71
3
 72
17
 73
13
 74
0
 42
0.0000001
 43
0.0000001
 44
0.0000000001
 40
0.0
 40
0.0
 40
0.0
 40
0.0
 40
0.0363401994
 40
0.0972282891
 40
0.178813429
 40
0.2762242103
 40
0.3852159846
 40
0.5023595341
 40
0.6248297126
 40
0.7490742604
 40
0.8722082318
 40
1.0
 40
1.0
 40
1.0
 40
1.0
 10
542.6352617639
 20
523.9060185427
 30
0.0
 10
542.5356260165
 20
524.0128416493
 30
0.0
 10
542.2301444577
 20
524.2312192236
 30
0.0
 10
541.5506758116
 20
524.4169992084
 30
0.0
 10
540.6508810084
 20
524.6238070812
 30
0.0
 10
539.5493113803
 20
524.8051654285
 30
0.0
 10
538.3100535852
 20
524.9765772169
 30
0.0
 10
536.970298646
 20
525.1329805529
 30
0.0
 10
535.5700946222
 20
525.2766267026
 30
0.0
 10
534.1452701972
 20
525.4071695383
 30
0.0
 10
532.6989744624
 20
525.5281816143
 30
0.0
 10
531.7310709862
 20
525.6019656772
 30
0.0
 10
531.2380517851
 20
525.6383609181
 30
0.0
  0
SPLINE
  5
3EC
100
AcDbEntity
  8
_SURFACE
100
AcDbSpline
 62
7
  6
CONTINUOUS
 70
0
 71
3
 72
21
 73
17
 74
0
 42
0.0000001
 43
0.0000001
 44
0.0000000001
 40
0.0
 40
0.0
 40
0.0
 40
0.0
 40
0.1660575241
 40
0.3150590591
 40
0.4439188947
 40
0.5531993013
 40
0.6454288648
 40
0.7222312836
 40
0.7857133472
 40
0.8382279903
 40
0.8815802257
 40
0.91692917
 40
0.9451239548
 40
0.9675480731
 40
0.9855864052
 40
1.0
 40
1.0
 40
1.0
 40
1.0
 10
296.9467772994
 20
529.0488591352
 30
0.0
 10
310.029853807
 20
529.0488647782
 30
0.0
 10
334.8522424435
 20
529.014961473
 30
0.0
 10
369.8267626466
 20
528.8701557211
 30
0.0
 10
400.3275794602
 20
528.6581562454
 30
0.0
 10
426.3550011967
 20
528.4011413012
 30
0.0
 10
448.2804202462
 20
528.1159581846
 30
0.0
 10
466.5969305635
 20
527.8147173372
 30
0.0
 10
481.7838002292
 20
527.5066996632
 30
0.0
 10
494.3345693978
 20
527.1975287086
 30
0.0
 10
504.6680950109
 20
526.8908735968
 30
0.0
 10
513.0847685252
 20
526.5911761736
 30
0.0
 10
519.8517868028
 20
526.3027292449
 30
0.0
 10
525.2540989172
 20
526.0272302459
 30
0.0
 10
529.5696220432
 20
525.7635318334
 30
0.0
 10
532.1194913731
 20
525.5743780626
 30
0.0
 10
533.2512204101
 20
525.4807493534
 30
0.0
  0
SPLINE
  5
3ED
100
AcDbEntity
  8
_SURFACE
100
AcDbSpline
 62
7
  6
CONTINUOUS
 70
0
 71
3
 72
8
 73
4
 74
0
 42
0.0000001
 43
0.0000001
 44
0.0000000001
 40
0.0
 40
0.0
 40
0.0
 40
0.0
 40
1.0
 40
1.0
 40
1.0
 40
1.0
 10
590.9921821898
 20
902.9964626707
 30
0.0
 10
585.8993890349
 20
899.814365119
 30
0.0
 10
582.0891638082
 20
893.7224588668
 30
0.0
 10
581.4552565961
 20
887.7528655731
 30
0.0
  0
SPLINE
  5
3EE
100
AcDbEntity
  8
_SURFACE
100
AcDbSpline
 62
7
  6
CONTINUOUS
 70
0
 71
3
 72
8
 73
4
 74
0
 42
0.0000001
 43
0.0000001
 44
0.0000000001
 40
0.0
 40
0.0
 40
0.0
 40
0.0
 40
1.0
 40
1.0
 40
1.0
 40
1.0
 10
621.000407566
 20
984.5607226561
 30
0.0
 10
614.5111946763
 20
984.334264725
 30
0.0
 10
610.6357512541
 20
980.724367671
 30
0.0
 10
609.9501132351
 20
974.2676164022
 30
0.0
  0
SPLINE
  5
3EF
100
AcDbEntity
  8
_SURFACE
100
AcDbSpline
 62
6
  6
CONTINUOUS
 70
0
 71
3
 72
9
 73
5
 74
0
 42
0.0000001
 43
0.0000001
 44
0.0000000001
 40
0.0
 40
0.0
 40
0.0
 40
0.0
 40
0.9258647065
 40
1.0
 40
1.0
 40
1.0
 40
1.0
 10
597.0886029827
 20
967.2033422988
 30
0.0
 10
597.0183039051
 20
967.1242046774
 30
0.0
 10
596.9121070871
 20
967.0721492598
 30
0.0
 10
596.8051113759
 20
967.0254645244
 30
0.0
 10
596.7971748821
 20
967.0220325029
 30
0.0
  0
SPLINE
  5
3F0
100
AcDbEntity
  8
_SURFACE
100
AcDbSpline
 62
6
  6
CONTINUOUS
 70
0
 71
3
 72
34
 73
30
 74
0
 42
0.0000001
 43
0.0000001
 44
0.0000000001
 40
0.0
 40
0.0
 40
0.0
 40
0.0
 40
0.0995760381
 40
0.1983205639
 40
0.2953604534
 40
0.3897822274
 40
0.4806441344
 40
0.5669723171
 40
0.6478061011
 40
0.6858654935
 40
0.7221981296
 40
0.756696599
 40
0.7732260822
 40
0.7892563024
 40
0.8047782619
 40
0.8197788812
 40
0.8481698869
 40
0.8615397746
 40
0.8743443295
 40
0.8982243401
 40
0.9388328598
 40
0.9474515773
 40
0.9554477678
 40
0.969541941
 40
0.9810837692
 40
0.9900490385
 40
0.9964246238
 40
0.9986514886
 40
1.0
 40
1.0
 40
1.0
 40
1.0
 10
296.9609781492
 20
956.2691196657
 30
0.0
 10
286.9967391904
 20
956.2690788808
 30
0.0
 10
267.1514345779
 20
956.3170498215
 30
0.0
 10
237.5963716867
 20
956.530824768
 30
0.0
 10
208.5584272353
 20
956.882765068
 30
0.0
 10
180.3112951085
 20
957.367668012
 30
0.0
 10
153.1387268317
 20
957.9779873652
 30
0.0
 10
127.3291918831
 20
958.7031860611
 30
0.0
 10
106.805216648
 20
959.4048890408
 30
0.0
 10
91.284261957
 20
960.0152795824
 30
0.0
 10
80.3979460868
 20
960.4823243517
 30
0.0
 10
71.6655543631
 20
960.8900417985
 30
0.0
 10
64.9635664127
 20
961.2237305139
 30
0.0
 10
60.1586628211
 20
961.473169962
 30
0.0
 10
55.5070830589
 20
961.7249008857
 30
0.0
 10
49.621157732
 20
962.0570080209
 30
0.0
 10
43.9513767215
 20
962.3969594774
 30
0.0
 10
38.5023555905
 20
962.7459454386
 30
0.0
 10
33.5047241768
 20
963.0801357595
 30
0.0
 10
25.7898704561
 20
963.6304332117
 30
0.0
 10
18.4975546449
 20
964.2189952304
 30
0.0
 10
12.7964356412
 20
964.7540701529
 30
0.0
 10
9.7385615683
 20
965.0584686959
 30
0.0
 10
6.3928222746
 20
965.4220646049
 30
0.0
 10
2.9566174117
 20
965.8527019916
 30
0.0
 10
0.2973589321
 20
966.2541653819
 30
0.0
 10
-1.4331308773
 20
966.5786647424
 30
0.0
 10
-2.3947187679
 20
966.8334844604
 30
0.0
 10
-2.7358122263
 20
966.9482201011
 30
0.0
 10
-2.8594986318
 20
967.0013854809
 30
0.0
  0
ENDSEC
  0
SECTION
  2
OBJECTS
  0
DICTIONARY
  5
C
100
AcDbDictionary
280
0
281
1
  3
ACAD_GROUP
350
D
  3
ACAD_MLINESTYLE
350
17
  3
ACAD_LAYOUT
350
1A
  3
ACAD_PLOTSETTINGS
350
19
  3
ACAD_PLOTSTYLENAME
350
E
  0
DICTIONARY
  5
D
102
{ACAD_REACTORS
330
C
102
}
100
AcDbDictionary
280
0
281
1
  0
ACDBDICTIONARYWDFLT
  5
E
102
{ACAD_REACTORS
330
C
102
}
100
AcDbDictionary
281
1
  3
Normal
350
F
100
AcDbDictionaryWithDefault
340
F
  0
DICTIONARY
  5
17
102
{ACAD_REACTORS
330
C
102
}
100
AcDbDictionary
280
0
281
1
  3
Standard
350
18
  0
DICTIONARY
  5
19
102
{ACAD_REACTORS
330
C
102
}
100
AcDbDictionary
281
1
  0
DICTIONARY
  5
1A
102
{ACAD_REACTORS
330
C
102
}
100
AcDbDictionary
281
1
  3
Model
350
3F1
  3
Layout1
350
3F2
  0
ACDBPLACEHOLDER
  5
F
102
{ACAD_REACTORS
330
E
102
}
  0
MLINESTYLE
  5
18
102
{ACAD_REACTORS
330
17
102
}
100
AcDbMlineStyle
  2
STANDARD
 70
0
  3

 62
256
 51
90.0
 52
90.0
 71
2
 49
0.5
 62
256
  6
BYLAYER
 49
-0.5
 62
256
  6
BYLAYER
  0
LAYOUT
  5
3F1
102
{ACAD_REACTORS
330
1A
102
}
100
AcDbPlotSettings
  1

  2
none_device
  4
ANSI_C_(22.00_x_17.00_Inches)
  6

 40
0.0
 41
0.0
 42
0.0
 43
0.0
 44
558.8
 45
431.8
 46
0.0
 47
0.0
 48
0.0
 49
0.0
140
0.0
141
0.0
142
1.0
143
1.0
 70
1024
 72
1
 73
0
 74
0
  7

 75
0
147
1.0
148
0.0
149
0.0
100
AcDbLayout
  1
Model
 70
0
 71
0
 10
0.0
 20
0.0
 11
558.8
 21
431.8
 12
0.0
 22
0.0
 32
0.0
 14
0.0
 24
0.0
 34
0.0
 15
0.0
 25
0.0
 35
0.0
146
0.0
 13
0.0
 23
0.0
 33
0.0
 16
1.0
 26
0.0
 36
0.0
 17
0.0
 27
1.0
 37
0.0
 76
0
330
207
345
0
346
0
  0
LAYOUT
  5
3F2
102
{ACAD_REACTORS
330
1A
102
}
100
AcDbPlotSettings
  1

  2
none_device
  4
ANSI_C_(22.00_x_17.00_Inches)
  6

 40
0.0
 41
0.0
 42
0.0
 43
0.0
 44
558.8
 45
431.8
 46
0.0
 47
0.0
 48
0.0
 49
0.0
140
0.0
141
0.0
142
1.0
143
1.0
 70
0
 72
1
 73
0
 74
0
  7

 75
0
147
1.0
148
0.0
149
0.0
100
AcDbLayout
  1
Layout1
 70
0
 71
1
 10
0.0
 20
0.0
 11
558.8
 21
431.8
 12
0.0
 22
0.0
 32
0.0
 14
0.0
 24
0.0
 34
0.0
 15
0.0
 25
0.0
 35
0.0
146
0.0
 13
0.0
 23
0.0
 33
0.0
 16
1.0
 26
0.0
 36
0.0
 17
0.0
 27
1.0
 37
0.0
 76
0
330
208
345
0
346
0
  0
ENDSEC
  0
EOF
