999
DXF file: 20613-plan.dxf
999
Pro/ENGINEER 2016130 by Parametric Technology Corporation
  0
SECTION
  2
HEADER
  9
$ACADVER
  1
AC1027
  9
$DWGCODEPAGE
  3
ANSI_1252
  9
$EXTMAX
 10
558.8
 20
431.8
 30
0.0
  9
$EXTMIN
 10
0.0
 20
0.0
 30
0.0
  9
$LIMMIN
 10
0.0
 20
0.0
  9
$LIMMAX
 10
558.8
 20
431.8
  9
$VIEWCTR
 10
279.4
 20
215.9
  9
$VIEWSIZE
 40
431.8
  9
$CLAYER
  8
0
  9
$LTSCALE
 40
30.734
  9
$CELTYPE
  6
BYLAYER
  9
$DIMSCALE
 40
1.0
  9
$DIMASZ
 40
4.7625
  9
$DIMEXO
 40
1.5875
  9
$DIMDLI
 40
21.2344
  9
$DIMEXE
 40
3.175
  9
$DIMCEN
 40
5.0292
  9
$DIMLFAC
 40
1.0
  9
$DIMBLK
  1
_FILLED
  9
$DIMALT
 70
0
  9
$DIMALTF
 40
0.0393700787
  9
$DIMTXT
 40
3.96875
  9
$DIMTOL
 70
1
  9
$DIMLIM
 70
0
  9
$DIMTFAC
 40
1.0
  9
$DIMTP
 40
0.01
  9
$DIMTM
 40
0.01
  9
$DIMGAP
 40
0.625
  9
$DIMDSEP
 70
46
  9
$AUNITS
 70
0
  9
$PDMODE
 70
3
  9
$PDSIZE
 40
7.9375
  9
$HANDSEED
  5
3B5
  9
$TILEMODE
 70
1
  9
$MEASUREMENT
 70
1
  9
$INSUNITS
 70
4
  0
ENDSEC
  0
SECTION
  2
CLASSES
  0
CLASS
  1
ACDBDICTIONARYWDFLT
  2
AcDbDictionaryWithDefault
  3
AutoCAD 2000
 90
0
 91
1
280
0
281
0
  0
CLASS
  1
ACDBPLACEHOLDER
  2
AcDbPlaceHolder
  3
AutoCAD 2000
 90
0
 91
1
280
0
281
0
  0
CLASS
  1
LAYOUT
  2
AcDbLayout
  3
AutoCAD 2000
 90
0
 91
0
280
0
281
0
  0
ENDSEC
  0
SECTION
  2
TABLES
  0
TABLE
  2
VPORT
  5
8
100
AcDbSymbolTable
 70
2
  0
VPORT
  5
1F4
100
AcDbSymbolTableRecord
100
AcDbViewportTableRecord
  2
*ACTIVE
 70
0
 10
0.0
 20
0.0
 11
1.0
 21
1.0
 12
279.4
 22
215.9
 13
0.0
 23
0.0
 14
1.0
 24
1.0
 15
0.0
 25
0.0
 16
0.0
 26
0.0
 36
1.0
 17
0.0
 27
0.0
 37
0.0
 40
431.8
 41
1.2941176471
 42
50.0
 43
0.0
 44
0.0
 50
0.0
 51
0.0
 71
0
 72
100
 73
1
 74
1
 75
0
 76
0
 77
0
 78
0
  0
ENDTAB
  0
TABLE
  2
LTYPE
  5
5
100
AcDbSymbolTable
 70
6
  0
LTYPE
  5
14
100
AcDbSymbolTableRecord
100
AcDbLinetypeTableRecord
  2
BYBLOCK
 70
0
  3

 72
65
 73
0
 40
0.0
  0
LTYPE
  5
15
100
AcDbSymbolTableRecord
100
AcDbLinetypeTableRecord
  2
BYLAYER
 70
0
  3

 72
65
 73
0
 40
0.0
  0
LTYPE
  5
16
100
AcDbSymbolTableRecord
100
AcDbLinetypeTableRecord
  2
CONTINUOUS
 70
64
  3
Solid line
 72
65
 73
0
 40
0.0
  0
LTYPE
  5
1F5
100
AcDbSymbolTableRecord
100
AcDbLinetypeTableRecord
  2
CENTER
 70
64
  3
____ _ ____ _ ____ _ ____ _ ____ _ ____ _ ____
 72
65
 73
4
 40
0.6
 49
0.375
 74
0
 49
-0.075
 74
0
 49
0.075
 74
0
 49
-0.075
 74
0
  0
LTYPE
  5
1F6
100
AcDbSymbolTableRecord
100
AcDbLinetypeTableRecord
  2
HIDDEN
 70
64
  3
- - - - - - - - - - - - - - - - - - - -
 72
65
 73
2
 40
0.2
 49
0.1
 74
0
 49
-0.1
 74
0
  0
LTYPE
  5
1F7
100
AcDbSymbolTableRecord
100
AcDbLinetypeTableRecord
  2
PHANTOM
 70
64
  3
_____ _ _ _____ _ _ _____ _ _ _____
 72
65
 73
6
 40
0.8
 49
0.45
 74
0
 49
-0.05
 74
0
 49
0.1
 74
0
 49
-0.05
 74
0
 49
0.1
 74
0
 49
-0.05
 74
0
  0
LTYPE
  5
1F8
100
AcDbSymbolTableRecord
100
AcDbLinetypeTableRecord
  2
DOT
 70
64
  3
. . . . . . . . . . . . . . . . . . . .
 72
65
 73
2
 40
0.2
 49
0.1
 74
0
 49
-0.1
 74
0
  0
LTYPE
  5
1F9
100
AcDbSymbolTableRecord
100
AcDbLinetypeTableRecord
  2
DASHED
 70
64
  3
- - - - - - - - - - - - - - - - - - - -
 72
65
 73
2
 40
0.2
 49
0.1
 74
0
 49
-0.1
 74
0
  0
ENDTAB
  0
TABLE
  2
LAYER
  5
2
100
AcDbSymbolTable
 70
36
  0
LAYER
  5
10
100
AcDbSymbolTableRecord
100
AcDbLayerTableRecord
  2
0
 70
0
 62
7
  6
CONTINUOUS
370
-3
390
F
  0
LAYER
  5
1FA
100
AcDbSymbolTableRecord
100
AcDbLayerTableRecord
  2
DEFAULT_1
 70
0
 62
7
  6
CENTER
370
-3
390
F
  0
LAYER
  5
1FB
100
AcDbSymbolTableRecord
100
AcDbLayerTableRecord
  2
DEFAULT_2
 70
0
 62
8
  6
HIDDEN
370
-3
390
F
  0
LAYER
  5
1FC
100
AcDbSymbolTableRecord
100
AcDbLayerTableRecord
  2
DEFAULT_3
 70
0
 62
7
  6
PHANTOM
370
-3
390
F
  0
LAYER
  5
1FD
100
AcDbSymbolTableRecord
100
AcDbLayerTableRecord
  2
DATUM_AXIS
 70
0
 62
7
  6
CONTINUOUS
370
-3
390
F
  0
LAYER
  5
1FE
100
AcDbSymbolTableRecord
100
AcDbLayerTableRecord
  2
DATUM_CSYS
 70
0
 62
7
  6
CONTINUOUS
370
-3
390
F
  0
LAYER
  5
1FF
100
AcDbSymbolTableRecord
100
AcDbLayerTableRecord
  2
DATUM_PLANE
 70
0
 62
7
  6
CONTINUOUS
370
-3
390
F
  0
LAYER
  5
200
100
AcDbSymbolTableRecord
100
AcDbLayerTableRecord
  2
DATUM_POINT
 70
0
 62
7
  6
CONTINUOUS
370
-3
390
F
  0
LAYER
  5
201
100
AcDbSymbolTableRecord
100
AcDbLayerTableRecord
  2
DEFAULT
 70
0
 62
7
  6
CONTINUOUS
370
-3
390
F
  0
LAYER
  5
202
100
AcDbSymbolTableRecord
100
AcDbLayerTableRecord
  2
LAY0001
 70
0
 62
7
  6
CONTINUOUS
370
-3
390
F
  0
LAYER
  5
203
100
AcDbSymbolTableRecord
100
AcDbLayerTableRecord
  2
_CURVE
 70
0
 62
7
  6
CONTINUOUS
370
-3
390
F
  0
LAYER
  5
204
100
AcDbSymbolTableRecord
100
AcDbLayerTableRecord
  2
_SURFACE
 70
0
 62
7
  6
CONTINUOUS
370
-3
390
F
  0
ENDTAB
  0
TABLE
  2
STYLE
  5
3
100
AcDbSymbolTable
 70
1
  0
STYLE
  5
11
100
AcDbSymbolTableRecord
100
AcDbTextStyleTableRecord
  2
STANDARD
 70
0
 40
0.0
 41
0.8
 50
0.0
 71
0
 42
0.2
  3
txt
  4

  0
STYLE
  5
205
100
AcDbSymbolTableRecord
100
AcDbTextStyleTableRecord
  2
TEXTSTYLE_1
 70
0
 40
0.0
 41
0.8
 50
0.0
 71
0
 42
0.2
  3
gdt
  4

  0
ENDTAB
  0
TABLE
  2
VIEW
  5
6
100
AcDbSymbolTable
 70
0
  0
ENDTAB
  0
TABLE
  2
UCS
  5
7
100
AcDbSymbolTable
 70
0
  0
ENDTAB
  0
TABLE
  2
APPID
  5
9
100
AcDbSymbolTable
 70
1
  0
APPID
  5
206
100
AcDbSymbolTableRecord
100
AcDbRegAppTableRecord
  2
ACAD
 70
0
  0
ENDTAB
  0
TABLE
  2
BLOCK_RECORD
  5
1
100
AcDbSymbolTable
 70
0
  0
BLOCK_RECORD
  5
207
100
AcDbSymbolTableRecord
100
AcDbBlockTableRecord
  2
*Model_Space
  0
BLOCK_RECORD
  5
208
100
AcDbSymbolTableRecord
100
AcDbBlockTableRecord
  2
*Paper_Space
  0
ENDTAB
  0
TABLE
  2
DIMSTYLE
  5
A
100
AcDbSymbolTable
 70
1
100
AcDbDimStyleTable
 71
0
  0
DIMSTYLE
105
209
100
AcDbSymbolTableRecord
100
AcDbDimStyleTableRecord
  2
STANDARD
 70
0
  3

  4

 40
1.0
 41
4.7625
 42
1.5875
 43
0.38
 44
3.175
 45
0.0
 46
0.0
 47
0.01
 48
0.01
140
3.96875
141
0.09
142
0.0
143
25.4
144
1.0
145
0.0
146
1.0
147
0.625
 71
1.0
 72
0.0
 73
1
 74
1
 75
0
 76
0
 77
0
 78
8
170
0
171
2
172
0
173
0
174
0
175
0
176
0
177
0
178
0
270
2
271
3
272
3
273
2
274
2
275
0
280
0
281
0
282
0
283
1
284
8
285
0
286
0
287
3
288
0
340
11
278
46
  0
ENDTAB
  0
ENDSEC
  0
SECTION
  2
BLOCKS
  0
BLOCK
  5
20
100
AcDbEntity
  8
0
100
AcDbBlockBegin
  2
*Model_Space
 70
0
 10
0.0
 20
0.0
 30
0.0
  3
*Model_Space
  1

  0
ENDBLK
  5
21
100
AcDbEntity
  8
0
100
AcDbBlockEnd
  0
BLOCK
  5
1C
100
AcDbEntity
  8
0
100
AcDbBlockBegin
  2
*Paper_Space
 70
0
 10
0.0
 20
0.0
 30
0.0
  3
*Paper_Space
  1

  0
ENDBLK
  5
1D
100
AcDbEntity
  8
0
100
AcDbBlockEnd
  0
ENDSEC
  0
SECTION
  2
ENTITIES
  0
LINE
  5
20A
100
AcDbEntity
  8
0
100
AcDbLine
 62
7
  6
CONTINUOUS
 10
0.0
 20
0.0
 11
0.0
 21
431.8
  0
LINE
  5
20B
100
AcDbEntity
  8
0
100
AcDbLine
 62
7
  6
CONTINUOUS
 10
0.0
 20
0.0
 11
558.8
 21
0.0
  0
LINE
  5
20C
100
AcDbEntity
  8
0
100
AcDbLine
 62
7
  6
CONTINUOUS
 10
0.0
 20
431.8
 11
558.8
 21
431.8
  0
LINE
  5
20D
100
AcDbEntity
  8
0
100
AcDbLine
 62
7
  6
CONTINUOUS
 10
558.8
 20
0.0
 11
558.8
 21
431.8
  0
LINE
  5
20E
100
AcDbEntity
  8
0
100
AcDbLine
 62
7
  6
CONTINUOUS
 10
588.7740529735
 20
665.683954364
 11
-111.2184966701
 21
665.6839368486
  0
LINE
  5
20F
100
AcDbEntity
  8
0
100
AcDbLine
 62
7
  6
CONTINUOUS
 10
-136.2221440422
 20
675.9759140648
 11
-136.2222040924
 21
664.312992608
  0
LINE
  5
210
100
AcDbEntity
  8
_SURFACE
100
AcDbLine
 62
6
  6
CONTINUOUS
 10
-111.217971826
 20
666.6586742806
 11
-111.2223962984
 21
757.0726765594
  0
LINE
  5
211
100
AcDbEntity
  8
_SURFACE
100
AcDbLine
 62
6
  6
CONTINUOUS
 10
-111.2223679803
 20
1371.5606830879
 11
-111.2181701989
 21
1461.9673540011
  0
LINE
  5
212
100
AcDbEntity
  8
0
100
AcDbLine
 62
7
  6
CONTINUOUS
 10
-111.2186713079
 20
1462.9421007425
 11
-111.2223837704
 21
1371.5607073736
  0
LINE
  5
213
100
AcDbEntity
  8
0
100
AcDbLine
 62
7
  6
CONTINUOUS
 10
-111.2184922949
 20
665.6839509984
 11
-111.2223441874
 21
757.0692780442
  0
LINE
  5
214
100
AcDbEntity
  8
0
100
AcDbLine
 62
7
  6
CONTINUOUS
 10
588.7740610526
 20
675.9781636365
 11
-111.2184835343
 21
675.9781461211
  0
LINE
  5
215
100
AcDbEntity
  8
0
100
AcDbLine
 62
40
  6
CONTINUOUS
 10
246.4775227517
 20
772.5645354963
 11
246.3025230147
 21
772.5265784322
  0
LINE
  5
216
100
AcDbEntity
  8
0
100
AcDbLine
 62
40
  6
CONTINUOUS
 10
243.152520753
 20
772.801729286
 11
243.3275202396
 21
772.8396863568
  0
LINE
  5
217
100
AcDbEntity
  8
0
100
AcDbLine
 62
40
  6
CONTINUOUS
 10
245.9525226651
 20
772.5740199106
 11
245.7775230918
 21
772.5455517106
  0
LINE
  5
218
100
AcDbEntity
  8
0
100
AcDbLine
 62
40
  6
CONTINUOUS
 10
243.6775208396
 20
772.7922448983
 11
243.8525204128
 21
772.8207130717
  0
LINE
  5
219
100
AcDbEntity
  8
0
100
AcDbLine
 62
40
  6
CONTINUOUS
 10
227.5775217988
 20
772.6687512088
 11
227.3150221453
 21
772.6307933941
  0
LINE
  5
21A
100
AcDbEntity
  8
0
100
AcDbLine
 62
40
  6
CONTINUOUS
 10
247.2650237045
 20
772.4601644524
 11
248.8400220587
 21
772.6404669133
  0
LINE
  5
21B
100
AcDbEntity
  8
0
100
AcDbLine
 62
40
  6
CONTINUOUS
 10
249.8900217122
 20
772.6784314827
 11
247.965023788
 21
772.4601704566
  0
LINE
  5
21C
100
AcDbEntity
  8
0
100
AcDbLine
 62
40
  6
CONTINUOUS
 10
249.2775215838
 20
772.6879151198
 11
249.8900210192
 21
772.7543426223
  0
LINE
  5
21D
100
AcDbEntity
  8
0
100
AcDbLine
 62
40
  6
CONTINUOUS
 10
246.3025230147
 20
772.5265784322
 11
245.9525234447
 21
772.4886198669
  0
LINE
  5
21E
100
AcDbEntity
  8
0
100
AcDbLine
 62
40
  6
CONTINUOUS
 10
243.3275202396
 20
772.8396863568
 11
243.67752006
 21
772.8776449254
  0
LINE
  5
21F
100
AcDbEntity
  8
0
100
AcDbLine
 62
40
  6
CONTINUOUS
 10
228.0150213911
 20
772.640288289
 11
227.8400222319
 21
772.6213090064
  0
LINE
  5
220
100
AcDbEntity
  8
0
100
AcDbLine
 62
40
  6
CONTINUOUS
 10
245.7775230918
 20
772.5455517106
 11
245.5150232651
 21
772.5265716775
  0
LINE
  5
221
100
AcDbEntity
  8
0
100
AcDbLine
 62
40
  6
CONTINUOUS
 10
243.8525204128
 20
772.8207130717
 11
244.1150202396
 21
772.8396931115
  0
LINE
  5
222
100
AcDbEntity
  8
0
100
AcDbLine
 62
40
  6
CONTINUOUS
 10
245.9525234447
 20
772.4886198669
 11
245.602523451
 21
772.4696390833
  0
LINE
  5
223
100
AcDbEntity
  8
0
100
AcDbLine
 62
40
  6
CONTINUOUS
 10
243.67752006
 20
772.8776449254
 11
244.0275195529
 21
772.8966257115
  0
LINE
  5
224
100
AcDbEntity
  8
0
100
AcDbLine
 62
40
  6
CONTINUOUS
 10
227.9275222931
 20
772.6877319924
 11
227.5775217988
 21
772.6687512088
  0
LINE
  5
225
100
AcDbEntity
  8
0
100
AcDbLine
 62
40
  6
CONTINUOUS
 10
228.2775213045
 20
772.6497794314
 11
228.0150213911
 21
772.640288289
  0
LINE
  5
226
100
AcDbEntity
  8
0
100
AcDbLine
 62
40
  6
CONTINUOUS
 10
245.5150232651
 20
772.5265716775
 11
245.1650231848
 21
772.5170797846
  0
LINE
  5
227
100
AcDbEntity
  8
0
100
AcDbLine
 62
40
  6
CONTINUOUS
 10
244.1150202396
 20
772.8396931115
 11
244.4650203198
 21
772.8491850044
  0
LINE
  5
228
100
AcDbEntity
  8
0
100
AcDbLine
 62
40
  6
CONTINUOUS
 10
245.602523451
 20
772.4696390833
 11
245.1650237045
 21
772.4601464399
  0
LINE
  5
229
100
AcDbEntity
  8
0
100
AcDbLine
 62
40
  6
CONTINUOUS
 10
244.0275195529
 20
772.8966257115
 11
244.4650198001
 21
772.9061183557
  0
LINE
  5
22A
100
AcDbEntity
  8
0
100
AcDbLine
 62
40
  6
CONTINUOUS
 10
250.4150237045
 20
772.4601914712
 11
249.8900237045
 21
772.4601869681
  0
LINE
  5
22B
100
AcDbEntity
  8
0
100
AcDbLine
 62
40
  6
CONTINUOUS
 10
247.965023788
 20
772.4601704566
 11
247.2650237045
 21
772.4601644524
  0
LINE
  5
22C
100
AcDbEntity
  8
0
100
AcDbLine
 62
40
  6
CONTINUOUS
 10
245.1650237045
 20
772.4601464399
 11
244.4650238714
 21
772.4601404357
  0
LINE
  5
22D
100
AcDbEntity
  8
0
100
AcDbLine
 62
40
  6
CONTINUOUS
 10
242.3650238714
 20
772.4601224232
 11
241.8400233708
 21
772.46011792
  0
LINE
  5
22E
100
AcDbEntity
  8
0
100
AcDbLine
 62
40
  6
CONTINUOUS
 10
239.3900237046
 20
772.4600969054
 11
238.8650237046
 21
772.4600924023
  0
LINE
  5
22F
100
AcDbEntity
  8
0
100
AcDbLine
 62
40
  6
CONTINUOUS
 10
238.1650233708
 20
772.4600863981
 11
237.6400233708
 21
772.460081895
  0
LINE
  5
230
100
AcDbEntity
  8
0
100
AcDbLine
 62
40
  6
CONTINUOUS
 10
234.3150240383
 20
772.4600533751
 11
231.165023037
 21
772.4600263563
  0
LINE
  5
231
100
AcDbEntity
  8
0
100
AcDbLine
 62
40
  6
CONTINUOUS
 10
228.2775226039
 20
772.507446043
 11
230.4650237046
 21
772.4600203522
  0
LINE
  5
232
100
AcDbEntity
  8
0
100
AcDbLine
 62
40
  6
CONTINUOUS
 10
241.8400217249
 20
772.6404068715
 11
239.3900220587
 21
772.6403858569
  0
LINE
  5
233
100
AcDbEntity
  8
0
100
AcDbLine
 62
40
  6
CONTINUOUS
 10
233.7900223925
 20
772.6403378235
 11
231.5150220587
 21
772.6403183099
  0
LINE
  5
234
100
AcDbEntity
  8
0
100
AcDbLine
 62
40
  6
CONTINUOUS
 10
229.9400219721
 20
772.6497936913
 11
228.2775213045
 21
772.6497794314
  0
LINE
  5
235
100
AcDbEntity
  8
0
100
AcDbLine
 62
40
  6
CONTINUOUS
 10
244.4650203198
 20
772.8491850044
 11
245.1650201529
 21
772.8491910086
  0
LINE
  5
236
100
AcDbEntity
  8
0
100
AcDbLine
 62
40
  6
CONTINUOUS
 10
230.4650196332
 20
772.9059982722
 11
229.9400196332
 21
772.9059937691
  0
LINE
  5
237
100
AcDbEntity
  8
0
100
AcDbLine
 62
40
  6
CONTINUOUS
 10
227.7525189656
 20
772.905975006
 11
227.1400203008
 21
772.9059697524
  0
LINE
  5
238
100
AcDbEntity
  8
0
100
AcDbLine
 62
40
  6
CONTINUOUS
 10
231.1650194854
 20
772.849070925
 11
234.315019967
 21
772.9060312952
  0
LINE
  5
239
100
AcDbEntity
  8
0
100
AcDbLine
 62
40
  6
CONTINUOUS
 10
235.0150198192
 20
772.849103948
 11
238.1650192994
 21
772.9060643181
  0
LINE
  5
23A
100
AcDbEntity
  8
0
100
AcDbLine
 62
40
  6
CONTINUOUS
 10
238.8650196332
 20
772.9060703223
 11
239.3900196332
 21
772.9060748255
  0
LINE
  5
23B
100
AcDbEntity
  8
0
100
AcDbLine
 62
40
  6
CONTINUOUS
 10
241.8400192994
 20
772.9060958401
 11
242.3650198001
 21
772.9061003432
  0
LINE
  5
23C
100
AcDbEntity
  8
0
100
AcDbLine
 62
40
  6
CONTINUOUS
 10
247.2650196332
 20
772.9061423725
 11
247.9650197166
 21
772.9061483766
  0
LINE
  5
23D
100
AcDbEntity
  8
0
100
AcDbLine
 62
40
  6
CONTINUOUS
 10
249.8900196332
 20
772.9061648881
 11
250.4150196332
 21
772.9061693913
  0
LINE
  5
23E
100
AcDbEntity
  8
0
100
AcDbLine
 62
7
  6
CONTINUOUS
 10
-146.6058096843
 20
771.4617991401
 11
-134.9753827942
 21
771.4034335952
  0
LINE
  5
23F
100
AcDbEntity
  8
0
100
AcDbLine
 62
40
  6
CONTINUOUS
 10
227.9275242855
 20
772.4694874778
 11
228.3650237046
 21
772.4600023396
  0
LINE
  5
240
100
AcDbEntity
  8
0
100
AcDbLine
 62
40
  6
CONTINUOUS
 10
244.4650238714
 20
772.4601404357
 11
244.027523451
 21
772.4696255739
  0
LINE
  5
241
100
AcDbEntity
  8
0
100
AcDbLine
 62
40
  6
CONTINUOUS
 10
245.1650196332
 20
772.9061243599
 11
245.6025195529
 21
772.8966392209
  0
LINE
  5
242
100
AcDbEntity
  8
0
100
AcDbLine
 62
40
  6
CONTINUOUS
 10
244.4650233517
 20
772.5170737804
 11
244.1150230982
 21
772.5265596691
  0
LINE
  5
243
100
AcDbEntity
  8
0
100
AcDbLine
 62
40
  6
CONTINUOUS
 10
245.1650201529
 20
772.8491910086
 11
245.5150204065
 21
772.8397051199
  0
LINE
  5
244
100
AcDbEntity
  8
0
100
AcDbLine
 62
40
  6
CONTINUOUS
 10
227.8837736005
 20
772.5216759611
 11
228.2775226039
 21
772.507446043
  0
LINE
  5
245
100
AcDbEntity
  8
0
100
AcDbLine
 62
40
  6
CONTINUOUS
 10
244.027523451
 20
772.4696255739
 11
243.6775236116
 21
772.4886003534
  0
LINE
  5
246
100
AcDbEntity
  8
0
100
AcDbLine
 62
40
  6
CONTINUOUS
 10
245.6025195529
 20
772.8966392209
 11
245.9525198931
 21
772.8776644389
  0
LINE
  5
247
100
AcDbEntity
  8
0
100
AcDbLine
 62
40
  6
CONTINUOUS
 10
244.1150230982
 20
772.5265596691
 11
243.8525229249
 21
772.5455351991
  0
LINE
  5
248
100
AcDbEntity
  8
0
100
AcDbLine
 62
40
  6
CONTINUOUS
 10
245.5150204065
 20
772.8397051199
 11
245.7775205797
 21
772.8207295832
  0
LINE
  5
249
100
AcDbEntity
  8
0
100
AcDbLine
 62
40
  6
CONTINUOUS
 10
227.5775233581
 20
772.4979511481
 11
227.9275242855
 21
772.4694874778
  0
LINE
  5
24A
100
AcDbEntity
  8
0
100
AcDbLine
 62
40
  6
CONTINUOUS
 10
227.8400230116
 20
772.5359089628
 11
228.0150225172
 21
772.5169326822
  0
LINE
  5
24B
100
AcDbEntity
  8
0
100
AcDbLine
 62
40
  6
CONTINUOUS
 10
243.6775236116
 20
772.4886003534
 11
243.3275230982
 21
772.5265529144
  0
LINE
  5
24C
100
AcDbEntity
  8
0
100
AcDbLine
 62
40
  6
CONTINUOUS
 10
245.9525198931
 20
772.8776644389
 11
246.3025201561
 21
772.8397118746
  0
LINE
  5
24D
100
AcDbEntity
  8
0
100
AcDbLine
 62
40
  6
CONTINUOUS
 10
227.3150230116
 20
772.5359044596
 11
227.5775233581
 21
772.4979511481
  0
LINE
  5
24E
100
AcDbEntity
  8
0
100
AcDbLine
 62
40
  6
CONTINUOUS
 10
243.8525229249
 20
772.5455351991
 11
243.6775228319
 21
772.574000397
  0
LINE
  5
24F
100
AcDbEntity
  8
0
100
AcDbLine
 62
40
  6
CONTINUOUS
 10
245.7775205797
 20
772.8207295832
 11
245.9525206727
 21
772.7922644119
  0
LINE
  5
250
100
AcDbEntity
  8
0
100
AcDbLine
 62
40
  6
CONTINUOUS
 10
247.9650197166
 20
772.9061483766
 11
249.2775215838
 21
772.6879151198
  0
LINE
  5
251
100
AcDbEntity
  8
0
100
AcDbLine
 62
40
  6
CONTINUOUS
 10
248.8400220587
 20
772.6404669133
 11
247.2650196332
 21
772.9061423725
  0
LINE
  5
252
100
AcDbEntity
  8
0
100
AcDbLine
 62
40
  6
CONTINUOUS
 10
243.3275230982
 20
772.5265529144
 11
243.1525229186
 21
772.5645069765
  0
LINE
  5
253
100
AcDbEntity
  8
0
100
AcDbLine
 62
40
  6
CONTINUOUS
 10
246.3025201561
 20
772.8397118746
 11
246.4775205861
 21
772.8017578058
  0
LINE
  5
254
100
AcDbEntity
  8
0
100
AcDbLine
 62
40
  6
CONTINUOUS
 10
227.1400203008
 20
772.9059697524
 11
227.9275222931
 21
772.6877319924
  0
LINE
  5
255
100
AcDbEntity
  8
0
100
AcDbLine
 62
40
  6
CONTINUOUS
 10
228.4525221199
 20
772.7067142771
 11
227.7525189656
 21
772.905975006
  0
LINE
  5
256
100
AcDbEntity
  8
0
100
AcDbLine
 62
40
  6
CONTINUOUS
 10
227.2275220841
 20
772.5643703815
 11
227.3150230116
 21
772.5359044596
  0
LINE
  5
257
100
AcDbEntity
  8
0
100
AcDbLine
 62
40
  6
CONTINUOUS
 10
227.7525220841
 20
772.5643748846
 11
227.8837736005
 21
772.5216759611
  0
LINE
  5
258
100
AcDbEntity
  8
0
100
AcDbLine
 62
40
  6
CONTINUOUS
 10
243.6775228319
 20
772.574000397
 11
243.5900223186
 21
772.6119552096
  0
LINE
  5
259
100
AcDbEntity
  8
0
100
AcDbLine
 62
40
  6
CONTINUOUS
 10
245.9525206727
 20
772.7922644119
 11
246.0400211861
 21
772.7543095993
  0
LINE
  5
25A
100
AcDbEntity
  8
0
100
AcDbLine
 62
40
  6
CONTINUOUS
 10
243.1525229186
 20
772.5645069765
 11
243.0650223186
 21
772.6119507065
  0
LINE
  5
25B
100
AcDbEntity
  8
0
100
AcDbLine
 62
40
  6
CONTINUOUS
 10
246.4775205861
 20
772.8017578058
 11
246.5650209357
 21
772.7543141024
  0
LINE
  5
25C
100
AcDbEntity
  8
0
100
AcDbLine
 62
7
  6
CONTINUOUS
 10
-35.3683864899
 20
1313.8518506456
 11
-49.0536906879
 21
1357.4149364311
  0
LINE
  5
25D
100
AcDbEntity
  8
0
100
AcDbLine
 62
7
  6
CONTINUOUS
 10
88.7771411061
 20
1372.1683227813
 11
88.7771414808
 21
1357.4347624472
  0
LINE
  5
25E
100
AcDbEntity
  8
_CURVE
100
AcDbLine
 62
40
  6
CONTINUOUS
 10
88.7771418841
 20
1341.0763478118
 11
88.7771398476
 21
1422.4623664827
  0
LINE
  5
25F
100
AcDbEntity
  8
_SURFACE
100
AcDbLine
 62
7
  6
CONTINUOUS
 10
88.7775506959
 20
1388.3671242658
 11
88.7774568532
 21
1348.821973296
  0
LINE
  5
260
100
AcDbEntity
  8
0
100
AcDbLine
 62
7
  6
CONTINUOUS
 10
118.0956874831
 20
1388.7865783958
 11
118.0956770756
 21
1377.2724682457
  0
LINE
  5
261
100
AcDbEntity
  8
0
100
AcDbLine
 62
7
  6
CONTINUOUS
 10
120.764268917
 20
1349.4649353863
 11
120.763595333
 21
1370.6744371443
  0
LINE
  5
262
100
AcDbEntity
  8
0
100
AcDbLine
 62
7
  6
CONTINUOUS
 10
128.777515618
 20
1374.5672578159
 11
128.7774963389
 21
1372.4553452008
  0
LINE
  5
263
100
AcDbEntity
  8
0
100
AcDbLine
 62
7
  6
CONTINUOUS
 10
136.2774891093
 20
1371.6633779702
 11
136.2774887289
 21
1375.3592250465
  0
LINE
  5
264
100
AcDbEntity
  8
0
100
AcDbLine
 62
40
  6
CONTINUOUS
 10
227.2275217376
 20
772.6023259712
 11
227.2275220841
 21
772.5643703815
  0
LINE
  5
265
100
AcDbEntity
  8
0
100
AcDbLine
 62
40
  6
CONTINUOUS
 10
227.7525218242
 20
772.5928415835
 11
227.7525220841
 21
772.5643748846
  0
LINE
  5
266
100
AcDbEntity
  8
0
100
AcDbLine
 62
40
  6
CONTINUOUS
 10
229.9400232714
 20
772.5074603029
 11
229.9400196332
 21
772.9059937691
  0
LINE
  5
267
100
AcDbEntity
  8
0
100
AcDbLine
 62
40
  6
CONTINUOUS
 10
230.4650237046
 20
772.4600203522
 11
230.4650196332
 21
772.9059982722
  0
LINE
  5
268
100
AcDbEntity
  8
0
100
AcDbLine
 62
40
  6
CONTINUOUS
 10
231.165023037
 20
772.4600263563
 11
231.1650225172
 21
772.516959701
  0
LINE
  5
269
100
AcDbEntity
  8
0
100
AcDbLine
 62
40
  6
CONTINUOUS
 10
231.1650194854
 20
772.849070925
 11
231.1650189656
 21
772.9060042764
  0
LINE
  5
26A
100
AcDbEntity
  8
0
100
AcDbLine
 62
40
  6
CONTINUOUS
 10
231.5150220587
 20
772.6403183099
 11
231.5150215389
 21
772.6972516546
  0
LINE
  5
26B
100
AcDbEntity
  8
0
100
AcDbLine
 62
40
  6
CONTINUOUS
 10
233.7900235186
 20
772.5169822167
 11
233.7900204867
 21
772.8490934407
  0
LINE
  5
26C
100
AcDbEntity
  8
0
100
AcDbLine
 62
40
  6
CONTINUOUS
 10
234.315019967
 20
772.9060312952
 11
234.3150240383
 21
772.4600533751
  0
LINE
  5
26D
100
AcDbEntity
  8
0
100
AcDbLine
 62
40
  6
CONTINUOUS
 10
235.0150198192
 20
772.849103948
 11
235.0150192994
 21
772.9060372993
  0
LINE
  5
26E
100
AcDbEntity
  8
0
100
AcDbLine
 62
40
  6
CONTINUOUS
 10
237.6400233708
 20
772.460081895
 11
237.6400198192
 21
772.8491264637
  0
LINE
  5
26F
100
AcDbEntity
  8
0
100
AcDbLine
 62
40
  6
CONTINUOUS
 10
238.1650192994
 20
772.9060643181
 11
238.1650233708
 21
772.4600863981
  0
LINE
  5
270
100
AcDbEntity
  8
_CURVE
100
AcDbLine
 62
4
  6
CONTINUOUS
 10
238.777136625
 20
1313.7451076394
 11
238.7775528718
 21
1452.647890282
  0
LINE
  5
271
100
AcDbEntity
  8
0
100
AcDbLine
 62
40
  6
CONTINUOUS
 10
238.8650237046
 20
772.4600924023
 11
238.8650196332
 21
772.9060703223
  0
LINE
  5
272
100
AcDbEntity
  8
0
100
AcDbLine
 62
40
  6
CONTINUOUS
 10
239.3900196332
 20
772.9060748255
 11
239.3900237046
 21
772.4600969054
  0
LINE
  5
273
100
AcDbEntity
  8
0
100
AcDbLine
 62
40
  6
CONTINUOUS
 10
241.8400233708
 20
772.46011792
 11
241.8400192994
 21
772.9060958401
  0
LINE
  5
274
100
AcDbEntity
  8
0
100
AcDbLine
 62
40
  6
CONTINUOUS
 10
242.3650198001
 20
772.9061003432
 11
242.3650238714
 21
772.4601224232
  0
LINE
  5
275
100
AcDbEntity
  8
0
100
AcDbLine
 62
40
  6
CONTINUOUS
 10
243.0650223186
 20
772.6119507065
 11
243.0650210192
 21
772.7542840815
  0
LINE
  5
276
100
AcDbEntity
  8
0
100
AcDbLine
 62
40
  6
CONTINUOUS
 10
243.5900223186
 20
772.6119552096
 11
243.5900210192
 21
772.7542885847
  0
LINE
  5
277
100
AcDbEntity
  8
0
100
AcDbLine
 62
40
  6
CONTINUOUS
 10
246.0400211861
 20
772.7543095993
 11
246.0400224854
 21
772.6119762242
  0
LINE
  5
278
100
AcDbEntity
  8
0
100
AcDbLine
 62
7
  6
CONTINUOUS
 10
356.7913648301
 20
1370.6744369294
 11
359.4594035412
 21
1377.2724682233
  0
LINE
  5
279
100
AcDbEntity
  8
0
100
AcDbLine
 62
7
  6
CONTINUOUS
 10
369.1077591609
 20
1367.9040605481
 11
366.7009467872
 21
1361.9523524629
  0
LINE
  5
27A
100
AcDbEntity
  8
_CURVE
100
AcDbLine
 62
40
  6
CONTINUOUS
 10
988.7777858985
 20
1064.3132861384
 11
961.5621219978
 21
1064.3132759071
  0
LINE
  5
27B
100
AcDbEntity
  8
_CURVE
100
AcDbLine
 62
40
  6
CONTINUOUS
 10
727.669924593
 20
1064.3134908488
 11
264.8770824366
 21
1064.3135071375
  0
LINE
  5
27C
100
AcDbEntity
  8
_CURVE
100
AcDbLine
 62
40
  6
CONTINUOUS
 10
212.6770824367
 20
1064.3135071375
 11
-250.11519318
 21
1064.313490846
  0
LINE
  5
27D
100
AcDbEntity
  8
_CURVE
100
AcDbLine
 62
40
  6
CONTINUOUS
 10
961.32234049
 20
1064.3132759111
 11
755.6709201445
 21
1064.3134759754
  0
LINE
  5
27E
100
AcDbEntity
  8
_CURVE
100
AcDbLine
 62
40
  6
CONTINUOUS
 10
-278.1161741368
 20
1064.3134759742
 11
-511.2222141007
 21
1064.3132861377
  0
LINE
  5
27F
100
AcDbEntity
  8
0
100
AcDbLine
 62
7
  6
CONTINUOUS
 10
-435.1915255338
 20
1064.3273873125
 11
-484.0142006724
 21
1064.329896257
  0
LINE
  5
280
100
AcDbEntity
  8
0
100
AcDbLine
 62
7
  6
CONTINUOUS
 10
118.0956770756
 20
1377.2724682457
 11
120.763595333
 21
1370.6744369293
  0
LINE
  5
281
100
AcDbEntity
  8
0
100
AcDbLine
 62
7
  6
CONTINUOUS
 10
110.8529055513
 20
1361.942898463
 11
108.4471166248
 21
1367.9030948648
  0
LINE
  5
282
100
AcDbEntity
  8
0
100
AcDbLine
 62
40
  6
CONTINUOUS
 10
246.5650209357
 20
772.7543141024
 11
246.5650222351
 21
772.6119807274
  0
LINE
  5
283
100
AcDbEntity
  8
0
100
AcDbLine
 62
40
  6
CONTINUOUS
 10
249.8900237045
 20
772.4601869681
 11
249.8900217122
 21
772.6784314827
  0
LINE
  5
284
100
AcDbEntity
  8
0
100
AcDbLine
 62
40
  6
CONTINUOUS
 10
249.8900210192
 20
772.7543426223
 11
249.8900196332
 21
772.9061648881
  0
LINE
  5
285
100
AcDbEntity
  8
0
100
AcDbLine
 62
40
  6
CONTINUOUS
 10
250.4150196332
 20
772.9061693913
 11
250.4150237045
 21
772.4601914712
  0
LINE
  5
286
100
AcDbEntity
  8
0
100
AcDbLine
 62
7
  6
CONTINUOUS
 10
380.9993310485
 20
1357.4371059167
 11
378.5926143191
 21
1351.4854206783
  0
LINE
  5
287
100
AcDbEntity
  8
0
100
AcDbLine
 62
7
  6
CONTINUOUS
 10
341.2774891092
 20
1371.6633779703
 11
341.2774887288
 21
1375.3592250466
  0
LINE
  5
288
100
AcDbEntity
  8
0
100
AcDbLine
 62
7
  6
CONTINUOUS
 10
348.7774963388
 20
1372.4553452009
 11
348.7775156179
 21
1374.567257816
  0
LINE
  5
289
100
AcDbEntity
  8
0
100
AcDbLine
 62
7
  6
CONTINUOUS
 10
359.4594139487
 20
1388.7865783735
 11
359.4594035412
 21
1377.2724682233
  0
LINE
  5
28A
100
AcDbEntity
  8
0
100
AcDbLine
 62
7
  6
CONTINUOUS
 10
356.7908702933
 20
1349.4571051096
 11
356.7913648301
 21
1370.6744371444
  0
LINE
  5
28B
100
AcDbEntity
  8
0
100
AcDbLine
 62
7
  6
CONTINUOUS
 10
388.7771414692
 20
1357.4371682906
 11
388.777141106
 21
1372.1687638074
  0
LINE
  5
28C
100
AcDbEntity
  8
_CURVE
100
AcDbLine
 62
40
  6
CONTINUOUS
 10
388.777141884
 20
1341.0789493391
 11
388.7771398476
 21
1422.4623739894
  0
LINE
  5
28D
100
AcDbEntity
  8
_SURFACE
100
AcDbLine
 62
7
  6
CONTINUOUS
 10
388.7775506957
 20
1388.367124266
 11
388.777456853
 21
1348.8219732961
  0
LINE
  5
28E
100
AcDbEntity
  8
0
100
AcDbLine
 62
7
  6
CONTINUOUS
 10
512.9231954663
 20
814.7750792414
 11
526.6090090237
 21
771.2115987201
  0
LINE
  5
28F
100
AcDbEntity
  8
0
100
AcDbLine
 62
40
  6
CONTINUOUS
 10
243.0650210192
 20
772.7542840815
 11
243.152520753
 21
772.801729286
  0
LINE
  5
290
100
AcDbEntity
  8
0
100
AcDbLine
 62
40
  6
CONTINUOUS
 10
246.5650222351
 20
772.6119807274
 11
246.4775227517
 21
772.5645354963
  0
LINE
  5
291
100
AcDbEntity
  8
0
100
AcDbLine
 62
40
  6
CONTINUOUS
 10
243.5900210192
 20
772.7542885847
 11
243.6775208396
 21
772.7922448983
  0
LINE
  5
292
100
AcDbEntity
  8
0
100
AcDbLine
 62
40
  6
CONTINUOUS
 10
246.0400224854
 20
772.6119762242
 11
245.9525226651
 21
772.5740199106
  0
LINE
  5
293
100
AcDbEntity
  8
0
100
AcDbLine
 62
40
  6
CONTINUOUS
 10
227.3150221453
 20
772.6307933941
 11
227.2275217376
 21
772.6023259712
  0
LINE
  5
294
100
AcDbEntity
  8
0
100
AcDbLine
 62
40
  6
CONTINUOUS
 10
227.8400222319
 20
772.6213090064
 11
227.7525218242
 21
772.5928415835
  0
LINE
  5
295
100
AcDbEntity
  8
_SURFACE
100
AcDbLine
 62
7
  6
CONTINUOUS
 10
88.7774568532
 20
1348.821973296
 11
388.777456853
 21
1348.8219732961
  0
LINE
  5
296
100
AcDbEntity
  8
0
100
AcDbLine
 62
7
  6
CONTINUOUS
 10
356.7908702933
 20
1349.4571040537
 11
120.7642689135
 21
1349.4652838218
  0
LINE
  5
297
100
AcDbEntity
  8
0
100
AcDbLine
 62
7
  6
CONTINUOUS
 10
356.790792923
 20
1359.4077211585
 11
120.7641923739
 21
1359.3090602954
  0
LINE
  5
298
100
AcDbEntity
  8
0
100
AcDbLine
 62
7
  6
CONTINUOUS
 10
88.7771414824
 20
1357.4347624472
 11
96.5555808991
 21
1357.4348248262
  0
LINE
  5
299
100
AcDbEntity
  8
0
100
AcDbLine
 62
7
  6
CONTINUOUS
 10
380.9993310485
 20
1357.4371059167
 11
388.777141473
 21
1357.4371682906
  0
LINE
  5
29A
100
AcDbEntity
  8
_SURFACE
100
AcDbLine
 62
6
  6
CONTINUOUS
 10
88.7774716299
 20
1358.3588988897
 11
388.7774716297
 21
1358.3588988898
  0
LINE
  5
29B
100
AcDbEntity
  8
0
100
AcDbLine
 62
7
  6
CONTINUOUS
 10
356.791406445
 20
1360.8319549055
 11
120.7635363811
 21
1360.8319549054
  0
LINE
  5
29C
100
AcDbEntity
  8
_SURFACE
100
AcDbLine
 62
6
  6
CONTINUOUS
 10
88.7774750161
 20
1363.9491521466
 11
388.7774750159
 21
1363.9491521468
  0
LINE
  5
29D
100
AcDbEntity
  8
_SURFACE
100
AcDbLine
 62
6
  6
CONTINUOUS
 10
88.7770768062
 20
1364.8928350634
 11
388.7770767946
 21
1364.8952409069
  0
LINE
  5
29E
100
AcDbEntity
  8
_CURVE
100
AcDbLine
 62
40
  6
CONTINUOUS
 10
88.7763837143
 20
1368.3016923339
 11
388.7779404975
 21
1368.3012839097
  0
LINE
  5
29F
100
AcDbEntity
  8
0
100
AcDbLine
 62
7
  6
CONTINUOUS
 10
356.7913648301
 20
1370.6744369294
 11
120.763595333
 21
1370.6744369293
  0
LINE
  5
2A0
100
AcDbEntity
  8
_SURFACE
100
AcDbLine
 62
6
  6
CONTINUOUS
 10
88.7774865314
 20
1371.38098389
 11
388.7774865313
 21
1371.3809838901
  0
LINE
  5
2A1
100
AcDbEntity
  8
0
100
AcDbLine
 62
7
  6
CONTINUOUS
 10
136.2774891093
 20
1371.6633779702
 11
341.2774891092
 21
1371.6633779703
  0
LINE
  5
2A2
100
AcDbEntity
  8
0
100
AcDbLine
 62
7
  6
CONTINUOUS
 10
88.7771411047
 20
1372.1683227813
 11
96.8837604163
 21
1372.1683346987
  0
LINE
  5
2A3
100
AcDbEntity
  8
_SURFACE
100
AcDbLine
 62
7
  6
CONTINUOUS
 10
88.7771411061
 20
1372.1683227813
 11
388.777141106
 21
1372.1687638074
  0
LINE
  5
2A4
100
AcDbEntity
  8
0
100
AcDbLine
 62
7
  6
CONTINUOUS
 10
380.671234816
 20
1372.1687518911
 11
388.777141105
 21
1372.1687638074
  0
LINE
  5
2A5
100
AcDbEntity
  8
_SURFACE
100
AcDbLine
 62
7
  6
CONTINUOUS
 10
88.7771338337
 20
1372.4300725819
 11
388.7771338336
 21
1372.4305136081
  0
LINE
  5
2A6
100
AcDbEntity
  8
0
100
AcDbLine
 62
7
  6
CONTINUOUS
 10
341.2775228475
 20
1375.3592250466
 11
136.2775228476
 21
1375.3592250465
  0
LINE
  5
2A7
100
AcDbEntity
  8
0
100
AcDbLine
 62
7
  6
CONTINUOUS
 10
118.0956770756
 20
1377.2724682457
 11
359.4594035412
 21
1377.2724682233
  0
LINE
  5
2A8
100
AcDbEntity
  8
_SURFACE
100
AcDbLine
 62
6
  6
CONTINUOUS
 10
88.777540718
 20
1377.3168299349
 11
388.7775407179
 21
1377.316829935
  0
LINE
  5
2A9
100
AcDbEntity
  8
_SURFACE
100
AcDbLine
 62
7
  6
CONTINUOUS
 10
88.7775506959
 20
1388.3671242658
 11
388.7775506957
 21
1388.367124266
  0
LINE
  5
2AA
100
AcDbEntity
  8
0
100
AcDbLine
 62
7
  6
CONTINUOUS
 10
118.0956874831
 20
1388.7865783958
 11
359.4594139487
 21
1388.7865783735
  0
LINE
  5
2AB
100
AcDbEntity
  8
0
100
AcDbLine
 62
7
  6
CONTINUOUS
 10
588.7741668366
 20
1462.9421084921
 11
588.777625966
 21
1371.5582758929
  0
LINE
  5
2AC
100
AcDbEntity
  8
_SURFACE
100
AcDbLine
 62
6
  6
CONTINUOUS
 10
588.7737206977
 20
1461.9673715167
 11
588.7776407973
 21
1371.558310932
  0
LINE
  5
2AD
100
AcDbEntity
  8
0
100
AcDbLine
 62
7
  6
CONTINUOUS
 10
588.7777367625
 20
757.0685770094
 11
588.7740529439
 21
665.6839543641
  0
LINE
  5
2AE
100
AcDbEntity
  8
_SURFACE
100
AcDbLine
 62
6
  6
CONTINUOUS
 10
588.777742726
 20
757.0682326699
 11
588.7735763533
 21
666.6586917959
  0
LINE
  5
2AF
100
AcDbEntity
  8
0
100
AcDbLine
 62
7
  6
CONTINUOUS
 10
613.7777584766
 20
1452.6501322999
 11
613.77777589
 21
1464.3130381748
  0
LINE
  5
2B0
100
AcDbEntity
  8
0
100
AcDbLine
 62
7
  6
CONTINUOUS
 10
-111.2186620456
 20
1452.6478830869
 11
588.7741747683
 21
1452.6479006024
  0
LINE
  5
2B1
100
AcDbEntity
  8
0
100
AcDbLine
 62
7
  6
CONTINUOUS
 10
-111.2186712696
 20
1462.9421007426
 11
588.7741707268
 21
1462.9421182581
  0
ARC
  5
2B2
100
AcDbEntity
  8
_SURFACE
100
AcDbCircle
 62
7
  6
CONTINUOUS
 10
239.6684887451
 20
-79990.7810804196
 40
80802.0942126798
100
AcDbArc
 50
89.8287217251
 51
90.1673154274
  0
ARC
  5
2B3
100
AcDbEntity
  8
_SURFACE
100
AcDbCircle
 62
7
  6
CONTINUOUS
 10
239.3403292413
 20
-78348.0814687601
 40
79166.9649988991
100
AcDbArc
 50
89.8257112576
 51
90.1704860225
  0
ARC
  5
2B4
100
AcDbEntity
  8
0
100
AcDbCircle
 62
7
  6
CONTINUOUS
 10
239.7464551617
 20
-71424.5583427292
 40
72239.4401592929
100
AcDbArc
 50
89.8083022353
 51
90.1899150686
  0
ARC
  5
2B5
100
AcDbEntity
  8
0
100
AcDbCircle
 62
7
  6
CONTINUOUS
 10
-25.0950932157
 20
-28688.6604029159
 40
30046.0848633157
100
AcDbArc
 50
90.0456873722
 51
90.2095400152
  0
ARC
  5
2B6
100
AcDbEntity
  8
_SURFACE
100
AcDbCircle
 62
6
  6
CONTINUOUS
 10
-38.0884770903
 20
-17338.826467894
 40
18703.6926409535
100
AcDbArc
 50
90.0336100412
 51
90.2969052904
  0
ARC
  5
2B7
100
AcDbEntity
  8
0
100
AcDbCircle
 62
7
  6
CONTINUOUS
 10
120.5143043624
 20
672.4531712018
 40
688.3788288218
100
AcDbArc
 50
89.979255691
 51
90.5808259806
  0
ARC
  5
2B8
100
AcDbEntity
  8
_SURFACE
100
AcDbCircle
 62
7
  6
CONTINUOUS
 10
-30.4117760753
 20
1054.3813249487
 40
263.203519461
100
AcDbArc
 50
90.8544682546
 51
107.1983187641
  0
ARC
  5
2B9
100
AcDbEntity
  8
_SURFACE
100
AcDbCircle
 62
7
  6
CONTINUOUS
 10
-30.3518389864
 20
1054.1426411713
 40
255.8927911666
100
AcDbArc
 50
90.8542755302
 51
107.1908312107
  0
CIRCLE
  5
2BA
100
AcDbEntity
  8
0
100
AcDbCircle
 62
7
  6
CONTINUOUS
 10
238.7771010066
 20
1064.3134979997
 40
59.4873230196
  0
CIRCLE
  5
2BB
100
AcDbEntity
  8
0
100
AcDbCircle
 62
7
  6
CONTINUOUS
 10
238.7770824367
 20
1064.3135071375
 40
26.728327078
  0
CIRCLE
  5
2BC
100
AcDbEntity
  8
_CURVE
100
AcDbCircle
 62
4
  6
CONTINUOUS
 10
238.7770824367
 20
1064.3135071375
 40
25.0
  0
ARC
  5
2BD
100
AcDbEntity
  8
_SURFACE
100
AcDbCircle
 62
7
  6
CONTINUOUS
 10
237.886727751
 20
82120.6813855107
 40
80803.3675458062
100
AcDbArc
 50
269.8287237315
 51
270.1673208982
  0
ARC
  5
2BE
100
AcDbEntity
  8
_SURFACE
100
AcDbCircle
 62
7
  6
CONTINUOUS
 10
238.213237871
 20
80475.4096858536
 40
79165.66624615
100
AcDbArc
 50
269.8257090654
 51
270.170498686
  0
ARC
  5
2BF
100
AcDbEntity
  8
0
100
AcDbCircle
 62
7
  6
CONTINUOUS
 10
237.8085410045
 20
73553.8746540302
 40
72240.129535241
100
AcDbArc
 50
269.8083036593
 51
270.1899135705
  0
ARC
  5
2C0
100
AcDbEntity
  8
0
100
AcDbCircle
 62
7
  6
CONTINUOUS
 10
-19.0090689869
 20
31614.4186974696
 40
30843.2337067766
100
AcDbArc
 50
269.7845752204
 51
270.0348737634
  0
ARC
  5
2C1
100
AcDbEntity
  8
_SURFACE
100
AcDbCircle
 62
6
  6
CONTINUOUS
 10
-19.5218910968
 20
25300.6785005193
 40
24536.9428767231
100
AcDbArc
 50
269.7303421471
 51
270.0450576211
  0
ARC
  5
2C2
100
AcDbEntity
  8
0
100
AcDbCircle
 62
7
  6
CONTINUOUS
 10
502.9159690741
 20
-24772.3128559058
 40
26129.7606082521
100
AcDbArc
 50
89.7341366528
 51
90.0550912704
  0
ARC
  5
2C3
100
AcDbEntity
  8
_SURFACE
100
AcDbCircle
 62
6
  6
CONTINUOUS
 10
499.6918581636
 20
-21199.1282963838
 40
22564.0221235902
100
AcDbArc
 50
89.6838542332
 51
90.0557104037
  0
ARC
  5
2C4
100
AcDbEntity
  8
0
100
AcDbCircle
 62
7
  6
CONTINUOUS
 10
356.9389921312
 20
586.8744519258
 40
773.9575170512
100
AcDbArc
 50
89.5939751292
 51
90.0109257121
  0
ARC
  5
2C5
100
AcDbEntity
  8
0
100
AcDbCircle
 62
7
  6
CONTINUOUS
 10
623.8569597009
 20
758.8527547135
 40
612.6051304016
100
AcDbArc
 50
87.9843704548
 51
88.3502408135
  0
ARC
  5
2C6
100
AcDbEntity
  8
_SURFACE
100
AcDbCircle
 62
7
  6
CONTINUOUS
 10
623.4079716466
 20
847.2125299875
 40
524.4362195911
100
AcDbArc
 50
83.4954864311
 51
87.2883695907
  0
ARC
  5
2C7
100
AcDbEntity
  8
_SURFACE
100
AcDbCircle
 62
7
  6
CONTINUOUS
 10
637.1233316651
 20
683.4773523141
 40
73.8808594347
100
AcDbArc
 50
89.7470380512
 51
91.4850088042
  0
ARC
  5
2C8
100
AcDbEntity
  8
0
100
AcDbCircle
 62
7
  6
CONTINUOUS
 10
504.352625838
 20
29467.9725018127
 40
28696.7695102409
100
AcDbArc
 50
270.0444369513
 51
270.2268885276
  0
ARC
  5
2C9
100
AcDbEntity
  8
_SURFACE
100
AcDbCircle
 62
6
  6
CONTINUOUS
 10
514.0742224879
 20
19729.1406648165
 40
18965.3831154685
100
AcDbArc
 50
270.0378755455
 51
270.3140178282
  0
ARC
  5
2CA
100
AcDbEntity
  8
0
100
AcDbCircle
 62
7
  6
CONTINUOUS
 10
736.1166912297
 20
13049.0779168502
 40
11678.3998154626
100
AcDbArc
 50
269.3869959024
 51
269.5534878571
  0
ARC
  5
2CB
100
AcDbEntity
  8
0
100
AcDbCircle
 62
7
  6
CONTINUOUS
 10
629.71316533
 20
1306.9058053581
 40
549.6334539699
100
AcDbArc
 50
269.1042622217
 51
270.5729397954
  0
ARC
  5
2CC
100
AcDbEntity
  8
_SURFACE
100
AcDbCircle
 62
7
  6
CONTINUOUS
 10
629.6981397063
 20
1302.8447315951
 40
545.8199233304
100
AcDbArc
 50
269.1025096764
 51
270.584119889
  0
ARC
  5
2CD
100
AcDbEntity
  8
_SURFACE
100
AcDbCircle
 62
7
  6
CONTINUOUS
 10
626.2275240776
 20
1285.0053861471
 40
528.0030878592
100
AcDbArc
 50
270.9787040211
 51
271.2219245875
  0
ARC
  5
2CE
100
AcDbEntity
  8
_SURFACE
100
AcDbCircle
 62
7
  6
CONTINUOUS
 10
627.9336488663
 20
1266.5339125542
 40
509.5245423157
100
AcDbArc
 50
271.0775699955
 51
274.9966454776
  0
ARC
  5
2CF
100
AcDbEntity
  8
_SURFACE
100
AcDbCircle
 62
7
  6
CONTINUOUS
 10
630.2746939682
 20
1212.4090603831
 40
455.1081280737
100
AcDbArc
 50
270.903310721
 51
275.2903952393
  0
ARC
  5
2D0
100
AcDbEntity
  8
_SURFACE
100
AcDbCircle
 62
7
  6
CONTINUOUS
 10
627.2291301143
 20
1204.9912698792
 40
447.9680779161
100
AcDbArc
 50
269.2229467326
 51
271.0249955712
  0
SPLINE
  5
2D1
100
AcDbEntity
  8
0
100
AcDbSpline
 62
7
  6
CONTINUOUS
 70
0
 71
3
 72
9
 73
5
 74
0
 42
0.0000001
 43
0.0000001
 44
0.0000000001
 40
0.0
 40
0.0
 40
0.0
 40
0.0
 40
0.5009855897
 40
1.0
 40
1.0
 40
1.0
 40
1.0
 10
611.1724469147
 20
1371.3394132809
 30
0.0
 10
616.2358341804
 20
1371.2802360501
 30
0.0
 10
626.3433070154
 20
1371.4823133657
 30
0.0
 10
636.4519778326
 20
1371.3487277645
 30
0.0
 10
641.4937089416
 20
1371.2039536758
 30
0.0
  0
SPLINE
  5
2D2
100
AcDbEntity
  8
0
100
AcDbSpline
 62
7
  6
CONTINUOUS
 70
0
 71
3
 72
13
 73
9
 74
0
 42
0.0000001
 43
0.0000001
 44
0.0000000001
 40
0.0
 40
0.0
 40
0.0
 40
0.0
 40
0.0277360571
 40
0.0870039631
 40
0.1797985059
 40
0.3031350147
 40
0.6232509747
 40
1.0
 40
1.0
 40
1.0
 40
1.0
 10
128.777515618
 20
1374.5672578159
 30
0.0
 10
128.7775162611
 20
1374.6377057265
 30
0.0
 10
129.0097639303
 20
1374.7839131631
 30
0.0
 10
129.4178627068
 20
1374.8932599455
 30
0.0
 10
130.1223089798
 20
1375.0304689415
 30
0.0
 10
131.4659838108
 20
1375.1906778605
 30
0.0
 10
133.5524045672
 20
1375.3251382306
 30
0.0
 10
135.3206030664
 20
1375.3592250465
 30
0.0
 10
136.2775228476
 20
1375.3592250465
 30
0.0
  0
SPLINE
  5
2D3
100
AcDbEntity
  8
0
100
AcDbSpline
 62
7
  6
CONTINUOUS
 70
0
 71
3
 72
13
 73
9
 74
0
 42
0.0000001
 43
0.0000001
 44
0.0000000001
 40
0.0
 40
0.0
 40
0.0
 40
0.0
 40
0.3767495406
 40
0.6968656509
 40
0.8202020907
 40
0.912996474
 40
0.972264147
 40
1.0
 40
1.0
 40
1.0
 40
1.0
 10
341.2775228475
 20
1375.3592250466
 30
0.0
 10
342.2344422619
 20
1375.3592250466
 30
0.0
 10
344.0026393457
 20
1375.3251383516
 30
0.0
 10
346.0890579866
 20
1375.1906777673
 30
0.0
 10
347.4327302066
 20
1375.030469215
 30
0.0
 10
348.1371740386
 20
1374.8932595812
 30
0.0
 10
348.5452705592
 20
1374.7839141867
 30
0.0
 10
348.7775162609
 20
1374.6377050849
 30
0.0
 10
348.7775156179
 20
1374.567257816
 30
0.0
  0
SPLINE
  5
2D4
100
AcDbEntity
  8
0
100
AcDbSpline
 62
7
  6
CONTINUOUS
 70
0
 71
3
 72
50
 73
46
 74
0
 42
0.0000001
 43
0.0000001
 44
0.0000000001
 40
0.0
 40
0.0
 40
0.0
 40
0.0
 40
0.1239844839
 40
0.1858680171
 40
0.2477755665
 40
0.3097794986
 40
0.3719521802
 40
0.4343659778
 40
0.497093258
 40
0.5285481739
 40
0.5600030936
 40
0.5914580133
 40
0.6071854731
 40
0.6229129329
 40
0.6386403928
 40
0.6543678527
 40
0.670095314
 40
0.6779590369
 40
0.6858227905
 40
0.6936864426
 40
0.7015504234
 40
0.7094133658
 40
0.7133440036
 40
0.717279449
 40
0.7212095022
 40
0.7251211198
 40
0.7290495879
 40
0.7329896811
 40
0.7408259731
 40
0.7486599936
 40
0.7564982495
 40
0.76434602
 40
0.772210674
 40
0.7800739721
 40
0.78793787
 40
0.7958015403
 40
0.8115290137
 40
0.8272564749
 40
0.8429839349
 40
0.8587113947
 40
0.8744388546
 40
0.9058937742
 40
0.9373486939
 40
0.9688036136
 40
1.0
 40
1.0
 40
1.0
 40
1.0
 10
-136.2222040921
 20
664.3130241612
 30
0.0
 10
-73.9021096045
 20
664.3130257206
 30
0.0
 10
19.5233902533
 20
664.3130280582
 30
0.0
 10
144.0663671027
 20
664.3130311745
 30
0.0
 10
237.4551727302
 20
664.3130335111
 30
0.0
 10
330.9893171805
 20
664.3130358522
 30
0.0
 10
424.7779244123
 20
664.3130381963
 30
0.0
 10
518.9301183841
 20
664.3130405624
 30
0.0
 10
597.6422024558
 20
664.3130425007
 30
0.0
 10
660.7929829193
 20
664.3130441455
 30
0.0
 10
708.2248895426
 20
664.3130451356
 30
0.0
 10
747.7514799541
 20
664.3130467407
 30
0.0
 10
779.372752287
 20
664.3130462752
 30
0.0
 10
803.0887065331
 20
664.3130507045
 30
0.0
 10
826.8046608763
 20
664.3130368624
 30
0.0
 10
850.5206158366
 20
664.3130909213
 30
0.0
 10
870.2839086011
 20
664.3129207143
 30
0.0
 10
886.094553214
 20
664.3132380008
 30
0.0
 10
897.9525015051
 20
664.312582007
 30
0.0
 10
909.8105702291
 20
664.313949644
 30
0.0
 10
921.6682656893
 20
664.3124903161
 30
0.0
 10
931.5489415995
 20
664.3072118394
 30
0.0
 10
939.4552164612
 20
664.3365441935
 30
0.0
 10
945.3839195993
 20
664.2963728168
 30
0.0
 10
951.3054122558
 20
664.2874555376
 30
0.0
 10
957.2107745942
 20
664.9109777698
 30
0.0
 10
962.9342431522
 20
666.5380658675
 30
0.0
 10
970.1386928683
 20
669.8163051889
 30
0.0
 10
978.1269573647
 20
675.8730555854
 30
0.0
 10
985.0561071321
 20
685.6395049865
 30
0.0
 10
988.8967010991
 20
697.0662701464
 30
0.0
 10
988.7514025963
 20
708.9895207412
 30
0.0
 10
988.7821412403
 20
720.8167207151
 30
0.0
 10
988.7777051523
 20
732.6811937727
 30
0.0
 10
988.777448052
 20
744.5373664219
 30
0.0
 10
988.7781202686
 20
760.3486014991
 30
0.0
 10
988.7776946175
 20
780.1116106243
 30
0.0
 10
988.7778198941
 20
803.8276572155
 30
0.0
 10
988.77778457
 20
827.5435895361
 30
0.0
 10
988.7777931378
 20
851.2595499038
 30
0.0
 10
988.7777893373
 20
882.8808202601
 30
0.0
 10
988.7777898235
 20
922.4074116446
 30
0.0
 10
988.7777881617
 20
969.8393198272
 30
0.0
 10
988.7777871074
 20
1017.1412781592
 30
0.0
 10
988.7777862909
 20
1048.6326002221
 30
0.0
 10
988.7777858986
 20
1064.3132861387
 30
0.0
  0
SPLINE
  5
2D5
100
AcDbEntity
  8
0
100
AcDbSpline
 62
7
  6
CONTINUOUS
 70
0
 71
3
 72
43
 73
39
 74
0
 42
0.0000001
 43
0.0000001
 44
0.0000000001
 40
0.0
 40
0.0
 40
0.0
 40
0.0
 40
0.06222713
 40
0.1247603114
 40
0.1872934928
 40
0.2498266743
 40
0.281093265
 40
0.3123598557
 40
0.3436264466
 40
0.3748930392
 40
0.4061596476
 40
0.4217928659
 40
0.4374263733
 40
0.4530591477
 40
0.4686934384
 40
0.4842817632
 40
0.4998655509
 40
0.5154519919
 40
0.5310201882
 40
0.5388484813
 40
0.5466594524
 40
0.5544418961
 40
0.5622620587
 40
0.5700896053
 40
0.5779029063
 40
0.5935337234
 40
0.6091678007
 40
0.6248008553
 40
0.6404342235
 40
0.6560674972
 40
0.6873340924
 40
0.7186006835
 40
0.7498672743
 40
0.781133865
 40
0.8124004557
 40
0.8749336371
 40
0.9374668186
 40
1.0
 40
1.0
 40
1.0
 40
1.0
 10
988.7777858986
 20
1064.3132861387
 30
0.0
 10
988.7777855052
 20
1080.0346194288
 30
0.0
 10
988.7777847356
 20
1111.5546081706
 30
0.0
 10
988.7777834654
 20
1158.8732524838
 30
0.0
 10
988.7777825958
 20
1206.2692185899
 30
0.0
 10
988.7777806248
 20
1245.76585821
 30
0.0
 10
988.7777818394
 20
1277.3631672285
 30
0.0
 10
988.7777751514
 20
1301.0611563646
 30
0.0
 10
988.7777977774
 20
1324.7591180117
 30
0.0
 10
988.777714271
 20
1348.4571886566
 30
0.0
 10
988.7780047002
 20
1368.2052370388
 30
0.0
 10
988.7775975632
 20
1384.0044539698
 30
0.0
 10
988.7771317874
 20
1395.8517512163
 30
0.0
 10
988.7838915349
 20
1407.7069112597
 30
0.0
 10
988.7460636042
 20
1419.5222971508
 30
0.0
 10
988.9116237914
 20
1431.4308902985
 30
0.0
 10
985.1198804038
 20
1442.8630252979
 30
0.0
 10
978.227746659
 20
1452.6463504762
 30
0.0
 10
970.2700303294
 20
1458.7281576932
 30
0.0
 10
963.0873409108
 20
1462.0308242513
 30
0.0
 10
957.3752411494
 20
1463.6826305415
 30
0.0
 10
951.4730921843
 20
1464.3322377223
 30
0.0
 10
945.5514403133
 20
1464.3326820923
 30
0.0
 10
939.6248076518
 20
1464.2891972795
 30
0.0
 10
931.7239935863
 20
1464.3184331889
 30
0.0
 10
921.8512104937
 20
1464.3139567685
 30
0.0
 10
910.0026755634
 20
1464.3120083899
 30
0.0
 10
898.1535376196
 20
1464.313569833
 30
0.0
 10
886.3045915863
 20
1464.3128443964
 30
0.0
 10
870.5059228264
 20
1464.3131888226
 30
0.0
 10
850.7576073487
 20
1464.313003169
 30
0.0
 10
827.0596230204
 20
1464.313060634
 30
0.0
 10
803.3616396789
 20
1464.3130443719
 30
0.0
 10
779.6636564741
 20
1464.3130479432
 30
0.0
 10
748.0663455305
 20
1464.313045788
 30
0.0
 10
708.5697068568
 20
1464.3130454697
 30
0.0
 10
661.1737404462
 20
1464.3130440644
 30
0.0
 10
629.5764295063
 20
1464.3130433225
 30
0.0
 10
613.7777740362
 20
1464.3130429271
 30
0.0
  0
SPLINE
  5
2D6
100
AcDbEntity
  8
0
100
AcDbSpline
 62
7
  6
CONTINUOUS
 70
0
 71
3
 72
50
 73
46
 74
0
 42
0.0000001
 43
0.0000001
 44
0.0000000001
 40
0.0
 40
0.0
 40
0.0
 40
0.0
 40
0.1239844832
 40
0.185868016
 40
0.2477755649
 40
0.3097794965
 40
0.3719521774
 40
0.434365974
 40
0.4970932528
 40
0.5285481686
 40
0.5600030881
 40
0.5914580075
 40
0.6071854673
 40
0.622912927
 40
0.6386403868
 40
0.6543678467
 40
0.6700953086
 40
0.6779590282
 40
0.6858227923
 40
0.6936864095
 40
0.7015505028
 40
0.7094130913
 40
0.7133431759
 40
0.7172802709
 40
0.7212144404
 40
0.7251292049
 40
0.7290577271
 40
0.7329955052
 40
0.7408267271
 40
0.7486664629
 40
0.7565059153
 40
0.7643462073
 40
0.7722105748
 40
0.7800740065
 40
0.7879378524
 40
0.7958015411
 40
0.8115290102
 40
0.8272564709
 40
0.8429839307
 40
0.8587113905
 40
0.8744388502
 40
0.9058937697
 40
0.9373486891
 40
0.9688036086
 40
1.0
 40
1.0
 40
1.0
 40
1.0
 10
613.7777740362
 20
1464.3130429271
 30
0.0
 10
551.4577006605
 20
1464.3130413677
 30
0.0
 10
458.0322324633
 20
1464.31303903
 30
0.0
 10
333.4892978677
 20
1464.3130359135
 30
0.0
 10
240.1005240567
 20
1464.3130335769
 30
0.0
 10
146.5664116675
 20
1464.3130312357
 30
0.0
 10
52.7778368524
 20
1464.3130288916
 30
0.0
 10
-41.3743242361
 20
1464.3130265257
 30
0.0
 10
-120.0863808514
 20
1464.3130245874
 30
0.0
 10
-183.2371394436
 20
1464.3130229434
 30
0.0
 10
-230.669029973
 20
1464.313021952
 30
0.0
 10
-270.1956069749
 20
1464.3130203515
 30
0.0
 10
-301.8168685803
 20
1464.3130208078
 30
0.0
 10
-325.532814783
 20
1464.3130164072
 30
0.0
 10
-349.2487611111
 20
1464.3130301413
 30
0.0
 10
-372.9647083915
 20
1464.3129764829
 30
0.0
 10
-392.7279932122
 20
1464.313145414
 30
0.0
 10
-408.5386365443
 20
1464.3128305118
 30
0.0
 10
-420.3965669794
 20
1464.3134813995
 30
0.0
 10
-432.2546761107
 20
1464.3121252544
 30
0.0
 10
-444.1122284746
 20
1464.3135672404
 30
0.0
 10
-453.9925024188
 20
1464.3188300241
 30
0.0
 10
-461.899146402
 20
1464.2896594038
 30
0.0
 10
-467.8304722899
 20
1464.3296949859
 30
0.0
 10
-473.7564313856
 20
1464.3379381384
 30
0.0
 10
-479.6654571124
 20
1463.7134260118
 30
0.0
 10
-485.3888171593
 20
1462.0842229408
 30
0.0
 10
-492.5890549496
 20
1458.8057446105
 30
0.0
 10
-500.5755566331
 20
1452.7485234098
 30
0.0
 10
-507.5044080194
 20
1442.9803185727
 30
0.0
 10
-511.3415941523
 20
1431.5527357887
 30
0.0
 10
-511.1957303582
 20
1419.6330915843
 30
0.0
 10
-511.2265790138
 20
1407.809662786
 30
0.0
 10
-511.2221386508
 20
1395.9453128782
 30
0.0
 10
-511.2218722001
 20
1384.089089573
 30
0.0
 10
-511.2225517237
 20
1368.2778802458
 30
0.0
 10
-511.2221218043
 20
1348.5148701825
 30
0.0
 10
-511.2222483762
 20
1324.7988342062
 30
0.0
 10
-511.2222126979
 20
1301.0829101123
 30
0.0
 10
-511.2222213595
 20
1277.3669578289
 30
0.0
 10
-511.2222175283
 20
1245.7456981971
 30
0.0
 10
-511.2222180295
 20
1206.2191202251
 30
0.0
 10
-511.2222163629
 20
1158.7872281332
 30
0.0
 10
-511.2222153099
 20
1111.4852832705
 30
0.0
 10
-511.2222144931
 20
1079.9939693126
 30
0.0
 10
-511.2222141008
 20
1064.3132861373
 30
0.0
  0
SPLINE
  5
2D7
100
AcDbEntity
  8
0
100
AcDbSpline
 62
7
  6
CONTINUOUS
 70
0
 71
3
 72
43
 73
39
 74
0
 42
0.0000001
 43
0.0000001
 44
0.0000000001
 40
0.0
 40
0.0
 40
0.0
 40
0.0
 40
0.0622271207
 40
0.1247603031
 40
0.1872934855
 40
0.2498266679
 40
0.2810932591
 40
0.3123598503
 40
0.3436264418
 40
0.3748930357
 40
0.4061596526
 40
0.4217928364
 40
0.4374264393
 40
0.4530589802
 40
0.4686937177
 40
0.4842969233
 40
0.4998785481
 40
0.5154535224
 40
0.5310316186
 40
0.5388646149
 40
0.5466756224
 40
0.5544519553
 40
0.5622638881
 40
0.5700879754
 40
0.5779023163
 40
0.5935339022
 40
0.6091677375
 40
0.624800867
 40
0.6404342128
 40
0.6560674934
 40
0.6873340878
 40
0.7186006792
 40
0.7498672704
 40
0.7811338616
 40
0.8124004528
 40
0.8749336352
 40
0.9374668176
 40
1.0
 40
1.0
 40
1.0
 40
1.0
 10
-511.2222141008
 20
1064.3132861373
 30
0.0
 10
-511.2222137074
 20
1048.5919448198
 30
0.0
 10
-511.2222129375
 20
1017.0719374006
 30
0.0
 10
-511.2222116684
 20
969.7532637598
 30
0.0
 10
-511.2222107949
 20
922.3572657045
 30
0.0
 10
-511.2222088362
 20
882.8605994566
 30
0.0
 10
-511.2222100254
 20
851.2632691413
 30
0.0
 10
-511.222203415
 20
827.565263992
 30
0.0
 10
-511.2222257473
 20
803.8672861949
 30
0.0
 10
-511.2221433109
 20
780.1691971085
 30
0.0
 10
-511.2224301802
 20
760.4211426387
 30
0.0
 10
-511.2220289821
 20
744.6218963311
 30
0.0
 10
-511.2215571933
 20
732.7746392104
 30
0.0
 10
-511.2283035956
 20
720.9193770421
 30
0.0
 10
-511.1906038197
 20
709.1002385139
 30
0.0
 10
-511.3555935305
 20
697.1880110176
 30
0.0
 10
-507.5603829111
 20
685.7566611689
 30
0.0
 10
-500.6679474933
 20
675.9750981938
 30
0.0
 10
-492.708453277
 20
669.8938578898
 30
0.0
 10
-485.5215535135
 20
666.591370804
 30
0.0
 10
-479.8092217762
 20
664.9416989776
 30
0.0
 10
-473.9106637232
 20
664.2931316114
 30
0.0
 10
-467.9934932841
 20
664.2933750306
 30
0.0
 10
-462.0695520142
 20
664.3370081659
 30
0.0
 10
-454.169148171
 20
664.3076117765
 30
0.0
 10
-444.295963581
 20
664.3120984643
 30
0.0
 10
-432.4472685888
 20
664.3140674676
 30
0.0
 10
-420.5981707728
 20
664.3124932236
 30
0.0
 10
-408.7492018876
 20
664.3132242324
 30
0.0
 10
-392.9505268389
 20
664.3128772318
 30
0.0
 10
-373.2021967333
 20
664.3130642599
 30
0.0
 10
-349.5041968165
 20
664.3130063631
 30
0.0
 10
-325.806197532
 20
664.3130227416
 30
0.0
 10
-302.1081983548
 20
664.3130191393
 30
0.0
 10
-270.5108661114
 20
664.3130213046
 30
0.0
 10
-231.0142008127
 20
664.3130216177
 30
0.0
 10
-183.6182024521
 20
664.3130230245
 30
0.0
 10
-152.0208702122
 20
664.3130237659
 30
0.0
 10
-136.2222040921
 20
664.3130241612
 30
0.0
  0
SPLINE
  5
2D8
100
AcDbEntity
  8
DATUM_AXIS
100
AcDbSpline
 62
7
  6
CONTINUOUS
 70
0
 71
3
 72
19
 73
15
 74
0
 42
0.0000001
 43
0.0000001
 44
0.0000000001
 40
0.0
 40
0.0
 40
0.0
 40
0.0
 40
0.0138749526
 40
0.0435003778
 40
0.0898791061
 40
0.1515857852
 40
0.3116434545
 40
0.4999999701
 40
0.6883564907
 40
0.848414174
 40
0.9101208628
 40
0.9564996021
 40
0.9861250388
 40
1.0
 40
1.0
 40
1.0
 40
1.0
 10
378.9775652923
 20
774.936251584
 30
0.0
 10
378.9775657371
 20
774.8873846304
 30
0.0
 10
378.8161525775
 20
774.7863918332
 30
0.0
 10
378.5336238234
 20
774.7101878878
 30
0.0
 10
378.0450524879
 20
774.6150301332
 30
0.0
 10
377.1134437743
 20
774.504037893
 30
0.0
 10
375.6669475938
 20
774.4108834945
 30
0.0
 10
373.7775703814
 20
774.3743741186
 30
0.0
 10
371.8881925002
 20
774.4108514503
 30
0.0
 10
370.4416946399
 20
774.5039813023
 30
0.0
 10
369.51008392
 20
774.6149577569
 30
0.0
 10
369.0215108552
 20
774.7101071938
 30
0.0
 10
368.7389807012
 20
774.7863064121
 30
0.0
 10
368.577565736
 20
774.8872963926
 30
0.0
 10
368.5775652911
 20
774.9361633766
 30
0.0
  0
SPLINE
  5
2D9
100
AcDbEntity
  8
DATUM_AXIS
100
AcDbSpline
 62
7
  6
CONTINUOUS
 70
0
 71
3
 72
19
 73
15
 74
0
 42
0.0000001
 43
0.0000001
 44
0.0000000001
 40
0.0
 40
0.0
 40
0.0
 40
0.0
 40
0.0138749615
 40
0.0435003987
 40
0.0898791384
 40
0.1515858276
 40
0.3116435115
 40
0.5000000322
 40
0.6883565477
 40
0.8484142164
 40
0.9101208952
 40
0.956499623
 40
0.9861250478
 40
1.0
 40
1.0
 40
1.0
 40
1.0
 10
98.5774373304
 20
774.9338732967
 30
0.0
 10
98.5774377778
 20
774.8850063115
 30
0.0
 10
98.7388527467
 20
774.7840163343
 30
0.0
 10
99.0213829049
 20
774.7078171135
 30
0.0
 10
99.5099559742
 20
774.6126676781
 30
0.0
 10
100.4415666989
 20
774.5016912234
 30
0.0
 10
101.888064563
 20
774.4085613725
 30
0.0
 10
103.7774424461
 20
774.3720840416
 30
0.0
 10
105.6668196563
 20
774.4085934184
 30
0.0
 10
107.1133158326
 20
774.5017478181
 30
0.0
 10
108.0449245411
 20
774.6127400581
 30
0.0
 10
108.5334958718
 20
774.7078978142
 30
0.0
 10
108.8160246216
 20
774.7841017571
 30
0.0
 10
108.9774377774
 20
774.8850945575
 30
0.0
 10
108.9774373301
 20
774.93396151
 30
0.0
  0
SPLINE
  5
2DA
100
AcDbEntity
  8
0
100
AcDbSpline
 62
7
  6
CONTINUOUS
 70
0
 71
3
 72
11
 73
7
 74
0
 42
0.0000001
 43
0.0000001
 44
0.0000000001
 40
0.0
 40
0.0
 40
0.0
 40
0.0
 40
0.2503030658
 40
0.5006303547
 40
0.7505978975
 40
1.0
 40
1.0
 40
1.0
 40
1.0
 10
96.5555808993
 20
1357.4347941695
 30
0.0
 10
97.9905888596
 20
1357.4412763412
 30
0.0
 10
100.8844579988
 20
1357.9778713056
 30
0.0
 10
104.6456840655
 20
1360.2481673993
 30
0.0
 10
107.3725225249
 20
1363.6867602507
 30
0.0
 10
108.2644527287
 20
1366.4849532386
 30
0.0
 10
108.4471159333
 20
1367.90309495
 30
0.0
  0
SPLINE
  5
2DB
100
AcDbEntity
  8
0
100
AcDbSpline
 62
7
  6
CONTINUOUS
 70
0
 71
3
 72
14
 73
10
 74
0
 42
0.0000001
 43
0.0000001
 44
0.0000000001
 40
0.0
 40
0.0
 40
0.0
 40
0.0
 40
0.3679329331
 40
0.5354715787
 40
0.6839775434
 40
0.8084158899
 40
0.9046361496
 40
0.9691141717
 40
1.0
 40
1.0
 40
1.0
 40
1.0
 10
96.8837604163
 20
1372.1683347288
 30
0.0
 10
98.2973799288
 20
1371.8127752769
 30
0.0
 10
100.357842529
 20
1371.3071303414
 30
0.0
 10
102.9962928364
 20
1370.6908909438
 30
0.0
 10
104.6993242387
 20
1370.3068225942
 30
0.0
 10
106.1287725753
 20
1370.0066980907
 30
0.0
 10
107.2402892362
 20
1369.7792331214
 30
0.0
 10
107.9835641674
 20
1369.6773846898
 30
0.0
 10
108.3675336396
 20
1369.6104812195
 30
0.0
 10
108.4870471412
 20
1369.6367259971
 30
0.0
  0
SPLINE
  5
2DC
100
AcDbEntity
  8
0
100
AcDbSpline
 62
7
  6
CONTINUOUS
 70
0
 71
3
 72
9
 73
5
 74
0
 42
0.0000001
 43
0.0000001
 44
0.0000000001
 40
0.0
 40
0.0
 40
0.0
 40
0.0
 40
0.4993505694
 40
1.0
 40
1.0
 40
1.0
 40
1.0
 10
366.7009467872
 20
1361.9523524629
 30
0.0
 10
366.400906646
 20
1364.2801734319
 30
0.0
 10
363.9989800219
 20
1368.8700462281
 30
0.0
 10
359.1445237687
 20
1370.6638262685
 30
0.0
 10
356.7913648302
 20
1370.6744369298
 30
0.0
  0
SPLINE
  5
2DD
100
AcDbEntity
  8
0
100
AcDbSpline
 62
7
  6
CONTINUOUS
 70
0
 71
3
 72
9
 73
5
 74
0
 42
0.0000001
 43
0.0000001
 44
0.0000000001
 40
0.0
 40
0.0
 40
0.0
 40
0.0
 40
0.5637856926
 40
1.0
 40
1.0
 40
1.0
 40
1.0
 10
369.0679853169
 20
1369.6369188138
 30
0.0
 10
369.1452388794
 20
1369.3166103408
 30
0.0
 10
369.262300403
 20
1368.7425652263
 30
0.0
 10
369.2033191816
 20
1368.1404096677
 30
0.0
 10
369.1077591609
 20
1367.9040605481
 30
0.0
  0
SPLINE
  5
2DE
100
AcDbEntity
  8
0
100
AcDbSpline
 62
7
  6
CONTINUOUS
 70
0
 71
3
 72
9
 73
5
 74
0
 42
0.0000001
 43
0.0000001
 44
0.0000000001
 40
0.0
 40
0.0
 40
0.0
 40
0.0
 40
0.5018450928
 40
1.0
 40
1.0
 40
1.0
 40
1.0
 10
359.4594035412
 20
1377.2724682233
 30
0.0
 10
361.6342951502
 20
1377.2841768015
 30
0.0
 10
366.1133644062
 20
1375.7479024718
 30
0.0
 10
368.56163139
 20
1371.7356294128
 30
0.0
 10
369.0679853169
 20
1369.6369188138
 30
0.0
  0
SPLINE
  5
2DF
100
AcDbEntity
  8
0
100
AcDbSpline
 62
7
  6
CONTINUOUS
 70
0
 71
3
 72
11
 73
7
 74
0
 42
0.0000001
 43
0.0000001
 44
0.0000000001
 40
0.0
 40
0.0
 40
0.0
 40
0.0
 40
0.0987866176
 40
0.3030452775
 40
0.6083607646
 40
1.0
 40
1.0
 40
1.0
 40
1.0
 10
366.7010628869
 20
1361.9529786361
 30
0.0
 10
366.6460025889
 20
1361.8168276906
 30
0.0
 10
366.1634671394
 20
1361.6294454821
 30
0.0
 10
365.3450286249
 20
1361.3805994497
 30
0.0
 10
364.0074377649
 20
1361.1051109793
 30
0.0
 10
362.9964644433
 20
1360.9165823171
 30
0.0
 10
362.4235989224
 20
1360.8125357584
 30
0.0
  0
SPLINE
  5
2E0
100
AcDbEntity
  8
0
100
AcDbSpline
 62
7
  6
CONTINUOUS
 70
0
 71
3
 72
9
 73
5
 74
0
 42
0.0000001
 43
0.0000001
 44
0.0000000001
 40
0.0
 40
0.0
 40
0.0
 40
0.0
 40
0.2329618627
 40
1.0
 40
1.0
 40
1.0
 40
1.0
 10
362.4235736029
 20
1360.8125357323
 30
0.0
 10
362.0031356736
 20
1360.6470525642
 30
0.0
 10
360.2047230278
 20
1359.9377344716
 30
0.0
 10
358.2784734499
 20
1359.408409055
 30
0.0
 10
356.790792923
 20
1359.4077211585
 30
0.0
  0
SPLINE
  5
2E1
100
AcDbEntity
  8
0
100
AcDbSpline
 62
7
  6
CONTINUOUS
 70
0
 71
3
 72
9
 73
5
 74
0
 42
0.0000001
 43
0.0000001
 44
0.0000000001
 40
0.0
 40
0.0
 40
0.0
 40
0.0
 40
0.4981536652
 40
1.0
 40
1.0
 40
1.0
 40
1.0
 10
108.4870467863
 20
1369.6367260873
 30
0.0
 10
108.9933825236
 20
1371.7354679718
 30
0.0
 10
111.4415998195
 20
1375.7478532574
 30
0.0
 10
115.9207483202
 20
1377.2841767707
 30
0.0
 10
118.0956770756
 20
1377.2724682457
 30
0.0
  0
SPLINE
  5
2E2
100
AcDbEntity
  8
0
100
AcDbSpline
 62
7
  6
CONTINUOUS
 70
0
 71
3
 72
9
 73
5
 74
0
 42
0.0000001
 43
0.0000001
 44
0.0000000001
 40
0.0
 40
0.0
 40
0.0
 40
0.0
 40
0.0984039881
 40
1.0
 40
1.0
 40
1.0
 40
1.0
 10
108.4471166248
 20
1367.9030948648
 30
0.0
 10
108.4256645134
 20
1367.9561365791
 30
0.0
 10
108.2580890697
 20
1368.515579934
 30
0.0
 10
108.364094334
 20
1369.1271293886
 30
0.0
 10
108.4870467863
 20
1369.6367260873
 30
0.0
  0
SPLINE
  5
2E3
100
AcDbEntity
  8
0
100
AcDbSpline
 62
7
  6
CONTINUOUS
 70
0
 71
3
 72
9
 73
5
 74
0
 42
0.0000001
 43
0.0000001
 44
0.0000000001
 40
0.0
 40
0.0
 40
0.0
 40
0.0
 40
0.4993499654
 40
1.0
 40
1.0
 40
1.0
 40
1.0
 10
110.8529055513
 20
1361.942898463
 30
0.0
 10
111.1510416296
 20
1364.2724254751
 30
0.0
 10
113.5513628026
 20
1368.8673593949
 30
0.0
 10
118.4089773629
 20
1370.6638203849
 30
0.0
 10
120.763595333
 20
1370.6744369293
 30
0.0
  0
SPLINE
  5
2E4
100
AcDbEntity
  8
0
100
AcDbSpline
 62
7
  6
CONTINUOUS
 70
0
 71
3
 72
11
 73
7
 74
0
 42
0.0000001
 43
0.0000001
 44
0.0000000001
 40
0.0
 40
0.0
 40
0.0
 40
0.0
 40
0.3847829617
 40
0.6841214468
 40
0.8899484287
 40
1.0
 40
1.0
 40
1.0
 40
1.0
 10
113.5353919765
 20
1360.7966447176
 30
0.0
 10
113.1678563857
 20
1360.8876067754
 30
0.0
 10
112.5217402091
 20
1361.0702877768
 30
0.0
 10
111.6913616343
 20
1361.3761089811
 30
0.0
 10
111.1668658512
 20
1361.6488722636
 30
0.0
 10
110.8934926531
 20
1361.8425636232
 30
0.0
 10
110.8528949676
 20
1361.9429558208
 30
0.0
  0
SPLINE
  5
2E5
100
AcDbEntity
  8
0
100
AcDbSpline
 62
7
  6
CONTINUOUS
 70
0
 71
3
 72
9
 73
5
 74
0
 42
0.0000001
 43
0.0000001
 44
0.0000000001
 40
0.0
 40
0.0
 40
0.0
 40
0.0
 40
0.5399579228
 40
1.0
 40
1.0
 40
1.0
 40
1.0
 10
120.7641923739
 20
1359.3090602954
 30
0.0
 10
119.4271790914
 20
1359.3096144741
 30
0.0
 10
116.9487517379
 20
1359.5304472518
 30
0.0
 10
114.5435714565
 20
1360.2650037297
 30
0.0
 10
113.5361034616
 20
1360.7966295729
 30
0.0
  0
SPLINE
  5
2E6
100
AcDbEntity
  8
0
100
AcDbSpline
 62
7
  6
CONTINUOUS
 70
0
 71
3
 72
13
 73
9
 74
0
 42
0.0000001
 43
0.0000001
 44
0.0000000001
 40
0.0
 40
0.0
 40
0.0
 40
0.0
 40
0.0277360571
 40
0.0870039631
 40
0.1797985059
 40
0.3031350147
 40
0.6232509747
 40
1.0
 40
1.0
 40
1.0
 40
1.0
 10
348.7774963388
 20
1372.4553452009
 30
0.0
 10
348.7774956957
 20
1372.3848972903
 30
0.0
 10
348.5452480265
 20
1372.2386898537
 30
0.0
 10
348.13714925
 20
1372.1293430713
 30
0.0
 10
347.432702977
 20
1371.9921340752
 30
0.0
 10
346.089028146
 20
1371.8319251563
 30
0.0
 10
344.0026073896
 20
1371.6974647861
 30
0.0
 10
342.2344088904
 20
1371.6633779703
 30
0.0
 10
341.2774891092
 20
1371.6633779703
 30
0.0
  0
SPLINE
  5
2E7
100
AcDbEntity
  8
0
100
AcDbSpline
 62
7
  6
CONTINUOUS
 70
0
 71
3
 72
13
 73
9
 74
0
 42
0.0000001
 43
0.0000001
 44
0.0000000001
 40
0.0
 40
0.0
 40
0.0
 40
0.0
 40
0.3767495406
 40
0.6968656509
 40
0.8202020907
 40
0.912996474
 40
0.972264147
 40
1.0
 40
1.0
 40
1.0
 40
1.0
 10
136.2774891093
 20
1371.6633779702
 30
0.0
 10
135.3205696949
 20
1371.6633779702
 30
0.0
 10
133.5523726111
 20
1371.6974646652
 30
0.0
 10
131.4659539702
 20
1371.8319252495
 30
0.0
 10
130.1222817502
 20
1371.9921338018
 30
0.0
 10
129.4178379182
 20
1372.1293434355
 30
0.0
 10
129.0097413976
 20
1372.23868883
 30
0.0
 10
128.7774956959
 20
1372.3848979319
 30
0.0
 10
128.7774963389
 20
1372.4553452008
 30
0.0
  0
SPLINE
  5
2E8
100
AcDbEntity
  8
0
100
AcDbSpline
 62
7
  6
CONTINUOUS
 70
0
 71
3
 72
14
 73
10
 74
0
 42
0.0000001
 43
0.0000001
 44
0.0000000001
 40
0.0
 40
0.0
 40
0.0
 40
0.0
 40
0.3613241156
 40
0.5261075957
 40
0.6730844772
 40
0.7975616313
 40
0.8954407837
 40
0.9636287266
 40
1.0
 40
1.0
 40
1.0
 40
1.0
 10
478.1386358372
 20
1280.1550269667
 30
0.0
 10
478.1297928217
 20
1284.2511631005
 30
0.0
 10
478.0909878061
 20
1290.2154413541
 30
0.0
 10
477.9789895693
 20
1297.8449160251
 30
0.0
 10
477.8760392648
 20
1302.7896468556
 30
0.0
 10
477.7498687593
 20
1306.9737362804
 30
0.0
 10
477.6227107327
 20
1310.2676917186
 30
0.0
 10
477.4625232648
 20
1312.5522689527
 30
0.0
 10
477.3683044305
 20
1313.7409690291
 30
0.0
 10
477.2690154622
 20
1314.1411583343
 30
0.0
  0
SPLINE
  5
2E9
100
AcDbEntity
  8
0
100
AcDbSpline
 62
7
  6
CONTINUOUS
 70
0
 71
3
 72
14
 73
10
 74
0
 42
0.0000001
 43
0.0000001
 44
0.0000000001
 40
0.0
 40
0.0
 40
0.0
 40
0.0
 40
0.3609240761
 40
0.5255169059
 40
0.6723690561
 40
0.7968235862
 40
0.8948102769
 40
0.9632493809
 40
1.0
 40
1.0
 40
1.0
 40
1.0
 10
572.3438943135
 20
1270.7299539122
 30
0.0
 10
573.4388699196
 20
1274.660205761
 30
0.0
 10
575.0107630884
 20
1280.3891368532
 30
0.0
 10
576.9675737592
 20
1287.7333811871
 30
0.0
 10
578.2098335795
 20
1292.5019968089
 30
0.0
 10
579.2283027937
 20
1296.5496622505
 30
0.0
 10
580.0064549421
 20
1299.7464682899
 30
0.0
 10
580.4870996369
 20
1301.9886945725
 30
0.0
 10
580.7266616361
 20
1303.1588790056
 30
0.0
 10
580.7514159007
 20
1303.5735746219
 30
0.0
  0
SPLINE
  5
2EA
100
AcDbEntity
  8
0
100
AcDbSpline
 62
7
  6
CONTINUOUS
 70
0
 71
3
 72
13
 73
9
 74
0
 42
0.0000001
 43
0.0000001
 44
0.0000000001
 40
0.0
 40
0.0
 40
0.0
 40
0.0
 40
0.3599475877
 40
0.6708377371
 40
0.7953041278
 40
0.8935433418
 40
0.962492138
 40
1.0
 40
1.0
 40
1.0
 40
1.0
 10
583.391079493
 20
861.3301599153
 30
0.0
 10
584.7022261334
 20
857.4847065585
 30
0.0
 10
587.1172002966
 20
850.3083071762
 30
0.0
 10
589.9102999944
 20
841.7762709559
 30
0.0
 10
591.7166446429
 20
836.0314368933
 30
0.0
 10
592.679965858
 20
832.8818726187
 30
0.0
 10
593.2989381377
 20
830.6588340784
 30
0.0
 10
593.6096190654
 20
829.493534212
 30
0.0
 10
593.6658363453
 20
829.0739210922
 30
0.0
  0
SPLINE
  5
2EB
100
AcDbEntity
  8
0
100
AcDbSpline
 62
7
  6
CONTINUOUS
 70
0
 71
3
 72
14
 73
10
 74
0
 42
0.0000001
 43
0.0000001
 44
0.0000000001
 40
0.0
 40
0.0
 40
0.0
 40
0.0
 40
0.3620501484
 40
0.5271115355
 40
0.6742456166
 40
0.7987217432
 40
0.8964129211
 40
0.9642113983
 40
1.0
 40
1.0
 40
1.0
 40
1.0
 10
512.9266780314
 20
848.825959587
 30
0.0
 10
513.0257293791
 20
844.7161903607
 30
0.0
 10
513.1430735302
 20
838.7319444115
 30
0.0
 10
513.2282713242
 20
831.0767180619
 30
0.0
 10
513.2521446566
 20
826.1180390086
 30
0.0
 10
513.2315047312
 20
821.9259219572
 30
0.0
 10
513.1875785039
 20
818.6306201709
 30
0.0
 10
513.0806823656
 20
816.3532832539
 30
0.0
 10
513.0169165165
 20
815.17055125
 30
0.0
 10
512.9234036986
 20
814.7750890768
 30
0.0
  0
SPLINE
  5
2EC
100
AcDbEntity
  8
0
100
AcDbSpline
 62
7
  6
CONTINUOUS
 70
0
 71
3
 72
14
 73
10
 74
0
 42
0.0000001
 43
0.0000001
 44
0.0000000001
 40
0.0
 40
0.0
 40
0.0
 40
0.0
 40
0.3613180712
 40
0.5261055467
 40
0.6730882009
 40
0.7975707922
 40
0.8954529529
 40
0.9636392022
 40
1.0
 40
1.0
 40
1.0
 40
1.0
 10
482.3127518933
 20
848.4729042868
 30
0.0
 10
482.3005830242
 20
844.375847906
 30
0.0
 10
482.2569975228
 20
838.4101750475
 30
0.0
 10
482.1386828261
 20
830.778891304
 30
0.0
 10
482.0317866566
 20
825.8328779569
 30
0.0
 10
481.9026178911
 20
821.6476716748
 30
0.0
 10
481.7733883415
 20
818.3529920465
 30
0.0
 10
481.6127208112
 20
816.0678571601
 30
0.0
 10
481.5185625184
 20
814.8792057848
 30
0.0
 10
481.4202420173
 20
814.478796382
 30
0.0
  0
SPLINE
  5
2ED
100
AcDbEntity
  8
0
100
AcDbSpline
 62
7
  6
CONTINUOUS
 70
0
 71
3
 72
14
 73
10
 74
0
 42
0.0000001
 43
0.0000001
 44
0.0000000001
 40
0.0
 40
0.0
 40
0.0
 40
0.0
 40
0.3613236272
 40
0.5261069538
 40
0.6730837619
 40
0.7975609352
 40
0.8954402083
 40
0.9636283807
 40
1.0
 40
1.0
 40
1.0
 40
1.0
 10
-0.5833006157
 20
848.4719351118
 30
0.0
 10
-0.5744576698
 20
844.3758012969
 30
0.0
 10
-0.5356514941
 20
838.4115256206
 30
0.0
 10
-0.4236470092
 20
830.7820531603
 30
0.0
 10
-0.320690414
 20
825.8373209
 30
0.0
 10
-0.1945121223
 20
821.6532277233
 30
0.0
 10
-0.0673451939
 20
818.359265661
 30
0.0
 10
0.0928521799
 20
816.0746797229
 30
0.0
 10
0.1870792958
 20
814.8859722794
 30
0.0
 10
0.286373984
 20
814.4857800194
 30
0.0
  0
SPLINE
  5
2EE
100
AcDbEntity
  8
0
100
AcDbSpline
 62
7
  6
CONTINUOUS
 70
0
 71
3
 72
14
 73
10
 74
0
 42
0.0000001
 43
0.0000001
 44
0.0000000001
 40
0.0
 40
0.0
 40
0.0
 40
0.0
 40
0.3609227952
 40
0.5255150115
 40
0.672366649
 40
0.7968208542
 40
0.8948075455
 40
0.9632472564
 40
1.0
 40
1.0
 40
1.0
 40
1.0
 10
-94.7882901242
 20
857.8968323686
 30
0.0
 10
-95.8836462117
 20
853.9666900285
 30
0.0
 10
-97.4560242214
 20
848.2378963325
 30
0.0
 10
-99.4133278055
 20
840.8937911121
 30
0.0
 10
-100.6558088738
 20
836.1252329885
 30
0.0
 10
-101.6743156634
 20
832.0775827908
 30
0.0
 10
-102.4523880878
 20
828.8807231236
 30
0.0
 10
-102.9326553454
 20
826.638416808
 30
0.0
 10
-103.1719592168
 20
825.4680859842
 30
0.0
 10
-103.1963046238
 20
825.0533409734
 30
0.0
  0
SPLINE
  5
2EF
100
AcDbEntity
  8
0
100
AcDbSpline
 62
7
  6
CONTINUOUS
 70
0
 71
3
 72
14
 73
10
 74
0
 42
0.0000001
 43
0.0000001
 44
0.0000000001
 40
0.0
 40
0.0
 40
0.0
 40
0.0
 40
0.3604541796
 40
0.5248754429
 40
0.6716343886
 40
0.7960949703
 40
0.894202823
 40
0.9628861211
 40
1.0
 40
1.0
 40
1.0
 40
1.0
 10
-100.4402046739
 20
1269.0595823254
 30
0.0
 10
-101.6341573492
 20
1272.9525381961
 30
0.0
 10
-103.3508508427
 20
1278.6280834262
 30
0.0
 10
-105.4946296431
 20
1285.9060746942
 30
0.0
 10
-106.8593670554
 20
1290.6346394569
 30
0.0
 10
-107.9833735442
 20
1294.6518850495
 30
0.0
 10
-108.845789238
 20
1297.8289133911
 30
0.0
 10
-109.3890680051
 20
1300.0640329394
 30
0.0
 10
-109.6605873576
 20
1301.2330109092
 30
0.0
 10
-109.6993046952
 20
1301.6504826117
 30
0.0
  0
SPLINE
  5
2F0
100
AcDbEntity
  8
0
100
AcDbSpline
 62
7
  6
CONTINUOUS
 70
0
 71
3
 72
14
 73
10
 74
0
 42
0.0000001
 43
0.0000001
 44
0.0000000001
 40
0.0
 40
0.0
 40
0.0
 40
0.0
 40
0.3620503772
 40
0.5271118189
 40
0.6742459126
 40
0.7987220108
 40
0.8964131224
 40
0.9642115029
 40
1.0
 40
1.0
 40
1.0
 40
1.0
 10
-35.3719574596
 20
1279.8010014077
 30
0.0
 10
-35.4710059501
 20
1283.9107699561
 30
0.0
 10
-35.5883438974
 20
1289.8950144088
 30
0.0
 10
-35.6735287576
 20
1297.5502380084
 30
0.0
 10
-35.6973912518
 20
1302.508913602
 30
0.0
 10
-35.6767388971
 20
1306.7010260503
 30
0.0
 10
-35.6328007438
 20
1309.9963233713
 30
0.0
 10
-35.5258901509
 20
1312.2736537231
 30
0.0
 10
-35.4621161685
 20
1313.4563834751
 30
0.0
 10
-35.3685947172
 20
1313.8518420468
 30
0.0
  0
SPLINE
  5
2F1
100
AcDbEntity
  8
0
100
AcDbSpline
 62
7
  6
CONTINUOUS
 70
0
 71
3
 72
14
 73
10
 74
0
 42
0.0000001
 43
0.0000001
 44
0.0000000001
 40
0.0
 40
0.0
 40
0.0
 40
0.0
 40
0.3613182858
 40
0.5261058125
 40
0.6730884788
 40
0.797571044
 40
0.8954531434
 40
0.9636393024
 40
1.0
 40
1.0
 40
1.0
 40
1.0
 10
-4.7583229357
 20
1280.1540589297
 30
0.0
 10
-4.7461540337
 20
1284.2511145174
 30
0.0
 10
-4.702566598
 20
1290.2167857066
 30
0.0
 10
-4.5842447956
 20
1297.8480664615
 30
0.0
 10
-4.4773418206
 20
1302.7940762503
 30
0.0
 10
-4.3481644426
 20
1306.979277963
 30
0.0
 10
-4.2189261524
 20
1310.2739530523
 30
0.0
 10
-4.0582472983
 20
1312.5590817194
 30
0.0
 10
-3.9640824037
 20
1313.7477305728
 30
0.0
 10
-3.8657546985
 20
1314.1481367016
 30
0.0
  0
SPLINE
  5
2F2
100
AcDbEntity
  8
0
100
AcDbSpline
 62
7
  6
CONTINUOUS
 70
0
 71
3
 72
86
 73
82
 74
0
 42
0.0000001
 43
0.0000001
 44
0.0000000001
 40
0.0
 40
0.0
 40
0.0
 40
0.0
 40
0.0312525649
 40
0.0625051298
 40
0.0937576947
 40
0.1093839772
 40
0.1250102597
 40
0.1406365422
 40
0.1562628246
 40
0.1718891071
 40
0.1875153896
 40
0.1953285309
 40
0.203141672
 40
0.2109548109
 40
0.2148613815
 40
0.218767946
 40
0.2226744119
 40
0.2265767301
 40
0.2304756371
 40
0.2343758858
 40
0.2382759696
 40
0.2421762248
 40
0.2460761136
 40
0.248028538
 40
0.2499808877
 40
0.2538859028
 40
0.2577924714
 40
0.2616990385
 40
0.2656056087
 40
0.2734187494
 40
0.2812318906
 40
0.2890450318
 40
0.2968581731
 40
0.3046713143
 40
0.3124844556
 40
0.3281107381
 40
0.3437370206
 40
0.359363303
 40
0.3749895855
 40
0.390615868
 40
0.4062421505
 40
0.4374947154
 40
0.4687472801
 40
0.4999998428
 40
0.5625049703
 40
0.5937575352
 40
0.6250101
 40
0.6406363825
 40
0.656262665
 40
0.6718889475
 40
0.6797020887
 40
0.68751523
 40
0.6953283712
 40
0.7031415125
 40
0.7109546536
 40
0.7187677934
 40
0.7226743639
 40
0.7265809279
 40
0.7304874637
 40
0.7343910447
 40
0.7382900046
 40
0.7421907829
 40
0.7460920426
 40
0.7499939645
 40
0.7538954892
 40
0.7577946579
 40
0.7616992062
 40
0.7656057683
 40
0.7695123349
 40
0.7734189054
 40
0.7812320455
 40
0.7968583279
 40
0.8124846104
 40
0.8281108929
 40
0.8437371754
 40
0.8593634579
 40
0.8749897404
 40
0.9062423053
 40
0.9374948702
 40
0.9687474351
 40
1.0
 40
1.0
 40
1.0
 40
1.0
 10
613.7777584767
 20
1452.6501322999
 30
0.0
 10
629.4588944451
 20
1452.6529214686
 30
0.0
 10
660.8211657311
 20
1452.6637123761
 30
0.0
 10
707.8645646329
 20
1452.6948331965
 30
0.0
 10
747.0673907573
 20
1452.7286896257
 30
0.0
 10
778.4296488748
 20
1452.7587572777
 30
0.0
 10
801.9513419084
 20
1452.7817888109
 30
0.0
 10
825.4730362573
 20
1452.8038713195
 30
0.0
 10
848.9947294892
 20
1452.8255411258
 30
0.0
 10
872.516429968
 20
1452.8454024224
 30
0.0
 10
892.1178304077
 20
1452.8608222347
 30
0.0
 10
907.7989908679
 20
1452.871977369
 30
0.0
 10
919.559753536
 20
1452.8790915121
 30
0.0
 10
929.360724214
 20
1452.8936461701
 30
0.0
 10
937.2007518451
 20
1452.8759414155
 30
0.0
 10
943.0827234467
 20
1452.876621389
 30
0.0
 10
948.9548573657
 20
1452.9723253953
 30
0.0
 10
954.8520030966
 20
1452.6351602494
 30
0.0
 10
960.5074048456
 20
1450.8519892421
 30
0.0
 10
965.6623364785
 20
1447.9681280261
 30
0.0
 10
970.118538693
 20
1444.0755465364
 30
0.0
 10
973.640463499
 20
1439.3262577932
 30
0.0
 10
975.7116601177
 20
1434.8514052869
 30
0.0
 10
976.773241502
 20
1431.0738673168
 30
0.0
 10
977.3578665387
 20
1427.1892558347
 30
0.0
 10
977.3996163231
 20
1422.2791854854
 30
0.0
 10
977.3317470249
 20
1416.4032287687
 30
0.0
 10
977.3482286781
 20
1410.5218202855
 30
0.0
 10
977.3646984029
 20
1402.6815962436
 30
0.0
 10
977.351099332
 20
1392.880720017
 30
0.0
 10
977.3523592085
 20
1381.1199220213
 30
0.0
 10
977.3487443013
 20
1369.3590557788
 30
0.0
 10
977.3459850402
 20
1357.5982078146
 30
0.0
 10
977.3425653789
 20
1345.8373550637
 30
0.0
 10
977.3376921066
 20
1330.1562198952
 30
0.0
 10
977.330491436
 20
1310.5548006977
 30
0.0
 10
977.319891916
 20
1287.033098708
 30
0.0
 10
977.3066848874
 20
1263.5113979568
 30
0.0
 10
977.2906529007
 20
1239.9896989651
 30
0.0
 10
977.2711095974
 20
1216.4680025971
 30
0.0
 10
977.2395942573
 20
1185.1057457643
 30
0.0
 10
977.1896998721
 20
1145.9029365929
 30
0.0
 10
977.1221827805
 20
1098.8595771712
 30
0.0
 10
977.0980686316
 20
1036.1350143581
 30
0.0
 10
977.2082422944
 20
973.4105363704
 30
0.0
 10
977.27441296
 20
910.6860298211
 30
0.0
 10
977.3032575918
 20
871.4831987128
 30
0.0
 10
977.3205237028
 20
840.1209309942
 30
0.0
 10
977.3309286563
 20
816.5992289335
 30
0.0
 10
977.3381345454
 20
796.9978096401
 30
0.0
 10
977.3430261977
 20
781.316674692
 30
0.0
 10
977.346362521
 20
769.555821256
 30
0.0
 10
977.349372937
 20
757.7949758529
 30
0.0
 10
977.3521528048
 20
746.0341001231
 30
0.0
 10
977.3527294273
 20
734.2733378391
 30
0.0
 10
977.3647449931
 20
724.4723533237
 30
0.0
 10
977.3432312414
 20
716.6323505314
 30
0.0
 10
977.3357776815
 20
710.7503059137
 30
0.0
 10
977.4236970812
 20
704.8775605715
 30
0.0
 10
977.2148207182
 20
698.9797544688
 30
0.0
 10
975.6081190052
 20
693.2709087574
 30
0.0
 10
972.8514011285
 20
688.0442810345
 30
0.0
 10
969.0815754958
 20
683.4827143559
 30
0.0
 10
964.4215411578
 20
679.8379978243
 30
0.0
 10
959.1271757554
 20
677.2058415733
 30
0.0
 10
953.3695273937
 20
675.7861404113
 30
0.0
 10
947.4747768622
 20
675.6787317443
 30
0.0
 10
941.6006188632
 20
675.7555719878
 30
0.0
 10
935.7188026926
 20
675.7466375782
 30
0.0
 10
927.8787038962
 20
675.7311547373
 30
0.0
 10
914.1574249798
 20
675.7556437674
 30
0.0
 10
894.5561717354
 20
675.7608782915
 30
0.0
 10
871.0344230888
 20
675.7826982729
 30
0.0
 10
847.5127413483
 20
675.8022302823
 30
0.0
 10
823.9910430245
 20
675.8239104831
 30
0.0
 10
800.4693500468
 20
675.846001903
 30
0.0
 10
769.1070915371
 20
675.8759962789
 30
0.0
 10
729.9042684316
 20
675.9128921521
 30
0.0
 10
682.8608736799
 20
675.9497510942
 30
0.0
 10
635.8174699535
 20
675.9728837979
 30
0.0
 10
604.4551972771
 20
675.9781614855
 30
0.0
 10
588.7740610525
 20
675.978160891
 30
0.0
  0
SPLINE
  5
2F3
100
AcDbEntity
  8
0
100
AcDbSpline
 62
7
  6
CONTINUOUS
 70
0
 71
3
 72
8
 73
4
 74
0
 42
0.0000001
 43
0.0000001
 44
0.0000000001
 40
0.0
 40
0.0
 40
0.0
 40
0.0
 40
1.0
 40
1.0
 40
1.0
 40
1.0
 10
588.7741747681
 20
1452.6479039165
 30
0.0
 10
597.1087027041
 20
1452.6479041088
 30
0.0
 10
605.4432306726
 20
1452.6486499182
 30
0.0
 10
613.7777584767
 20
1452.6501322999
 30
0.0
  0
SPLINE
  5
2F4
100
AcDbEntity
  8
0
100
AcDbSpline
 62
7
  6
CONTINUOUS
 70
0
 71
3
 72
86
 73
82
 74
0
 42
0.0000001
 43
0.0000001
 44
0.0000000001
 40
0.0
 40
0.0
 40
0.0
 40
0.0
 40
0.0312526945
 40
0.062505389
 40
0.0937580835
 40
0.1093844308
 40
0.1250107781
 40
0.1406371254
 40
0.1562634727
 40
0.17188982
 40
0.1875161673
 40
0.1953293409
 40
0.2031425144
 40
0.2109556859
 40
0.2148622726
 40
0.2187688524
 40
0.2226753336
 40
0.2265776481
 40
0.2304765873
 40
0.2343768605
 40
0.2382769563
 40
0.2421771702
 40
0.2460770711
 40
0.2480295046
 40
0.2499818648
 40
0.2538869049
 40
0.2577934892
 40
0.2617000725
 40
0.2656066589
 40
0.2734198319
 40
0.2812330055
 40
0.2890461792
 40
0.2968593528
 40
0.3046725265
 40
0.3124857001
 40
0.3281120474
 40
0.3437383947
 40
0.359364742
 40
0.3749910893
 40
0.3906174366
 40
0.4062437838
 40
0.4374964783
 40
0.4687491727
 40
0.500001865
 40
0.5625072518
 40
0.5937599463
 40
0.6250126408
 40
0.6406389881
 40
0.6562653353
 40
0.6718916826
 40
0.6797048563
 40
0.6875180299
 40
0.6953312036
 40
0.7031443772
 40
0.7109575507
 40
0.718770723
 40
0.7226773097
 40
0.7265838901
 40
0.7304904397
 40
0.7343939743
 40
0.7382928484
 40
0.7421934673
 40
0.7460944559
 40
0.7499952364
 40
0.7538955415
 40
0.7577938685
 40
0.7616982192
 40
0.7656047961
 40
0.7695113789
 40
0.7734179655
 40
0.7812311382
 40
0.7968574855
 40
0.8124838327
 40
0.82811018
 40
0.8437365273
 40
0.8593628746
 40
0.8749892219
 40
0.9062419165
 40
0.937494611
 40
0.9687473055
 40
1.0
 40
1.0
 40
1.0
 40
1.0
 10
-136.2221440479
 20
675.9759140648
 30
0.0
 10
-151.9033434664
 20
675.9731248985
 30
0.0
 10
-183.265741712
 20
675.9625367182
 30
0.0
 10
-230.3093309395
 20
675.9313064855
 30
0.0
 10
-269.5123153798
 20
675.8971036888
 30
0.0
 10
-300.8747002976
 20
675.8669346417
 30
0.0
 10
-324.3964892557
 20
675.8446858158
 30
0.0
 10
-347.9182786217
 20
675.8224401591
 30
0.0
 10
-371.4400672713
 20
675.8010309754
 30
0.0
 10
-394.9618626537
 20
675.7808864878
 30
0.0
 10
-414.563342026
 20
675.7649220438
 30
0.0
 10
-430.2445658771
 20
675.7538007848
 30
0.0
 10
-442.0053764595
 20
675.7467022323
 30
0.0
 10
-451.8063858761
 20
675.7319735336
 30
0.0
 10
-459.6464467455
 20
675.750010036
 30
0.0
 10
-465.5284338308
 20
675.7493221099
 30
0.0
 10
-471.4006077409
 20
675.6530273717
 30
0.0
 10
-477.2976722542
 20
675.9912907755
 30
0.0
 10
-482.95316582
 20
677.7743224379
 30
0.0
 10
-488.1074580622
 20
680.6593380445
 30
0.0
 10
-492.5641823234
 20
684.5512370636
 30
0.0
 10
-496.0856970356
 20
689.3009344319
 30
0.0
 10
-498.1565794807
 20
693.7758642094
 30
0.0
 10
-499.218066725
 20
697.5534712376
 30
0.0
 10
-499.8017909154
 20
701.4382392093
 30
0.0
 10
-499.843807282
 20
706.3482695609
 30
0.0
 10
-499.7764044287
 20
712.2242782262
 30
0.0
 10
-499.7926649093
 20
718.1057038455
 30
0.0
 10
-499.8091071163
 20
725.9459617938
 30
0.0
 10
-499.7956197614
 20
735.7468765744
 30
0.0
 10
-499.796762609
 20
747.507722464
 30
0.0
 10
-499.7932055235
 20
759.2686362186
 30
0.0
 10
-499.7903856406
 20
771.0295317791
 30
0.0
 10
-499.7869423489
 20
782.7904321034
 30
0.0
 10
-499.7820093925
 20
798.4716307068
 30
0.0
 10
-499.7747052134
 20
818.0731291753
 30
0.0
 10
-499.7641733576
 20
841.5949263691
 30
0.0
 10
-499.7510189147
 20
865.116722324
 30
0.0
 10
-499.7351083903
 20
888.6385165754
 30
0.0
 10
-499.7156213255
 20
912.1603081624
 30
0.0
 10
-499.6842504892
 20
943.5226920578
 30
0.0
 10
-499.6339183015
 20
982.7256593047
 30
0.0
 10
-499.5664663665
 20
1029.7692092119
 30
0.0
 10
-499.542549232
 20
1092.4940258777
 30
0.0
 10
-499.6525746643
 20
1155.2187577953
 30
0.0
 10
-499.7185996229
 20
1217.9435183258
 30
0.0
 10
-499.7476841452
 20
1257.1465078692
 30
0.0
 10
-499.76501491
 20
1288.5089024564
 30
0.0
 10
-499.7754890068
 20
1312.0306996632
 30
0.0
 10
-499.7825822163
 20
1331.6321983132
 30
0.0
 10
-499.7874162364
 20
1347.3133967277
 30
0.0
 10
-499.7907155029
 20
1359.0742977642
 30
0.0
 10
-499.7937001318
 20
1370.8351907544
 30
0.0
 10
-499.7965024631
 20
1382.5961140987
 30
0.0
 10
-499.7969531335
 20
1394.3569238804
 30
0.0
 10
-499.8091679897
 20
1404.1579483831
 30
0.0
 10
-499.7875428788
 20
1411.9979822979
 30
0.0
 10
-499.7798750294
 20
1417.8800507857
 30
0.0
 10
-499.8685414709
 20
1423.7527834798
 30
0.0
 10
-499.6588014925
 20
1429.6505363752
 30
0.0
 10
-498.0509857732
 20
1435.3589559155
 30
0.0
 10
-495.2931495091
 20
1440.5846193024
 30
0.0
 10
-491.5239632615
 20
1445.1456412366
 30
0.0
 10
-486.8645595062
 20
1448.7890796887
 30
0.0
 10
-481.5714855384
 20
1451.4200985562
 30
0.0
 10
-475.8149582147
 20
1452.8395264249
 30
0.0
 10
-469.920722938
 20
1452.9468141067
 30
0.0
 10
-464.0466466728
 20
1452.8705669859
 30
0.0
 10
-458.1648083248
 20
1452.8791995801
 30
0.0
 10
-450.3246771716
 20
1452.8946068399
 30
0.0
 10
-436.6033430376
 20
1452.8700974558
 30
0.0
 10
-417.0020102196
 20
1452.8648207004
 30
0.0
 10
-393.480165957
 20
1452.8436354885
 30
0.0
 10
-369.9583888026
 20
1452.8243439123
 30
0.0
 10
-346.4365955398
 20
1452.8024133057
 30
0.0
 10
-322.9148073492
 20
1452.7803589109
 30
0.0
 10
-291.5524227492
 20
1452.7495313038
 30
0.0
 10
-252.3494407423
 20
1452.7128777609
 30
0.0
 10
-205.3058551777
 20
1452.6766907876
 30
0.0
 10
-158.2622613548
 20
1452.6531119542
 30
0.0
 10
-126.8998617235
 20
1452.64788489
 30
0.0
 10
-111.2186620455
 20
1452.6478855247
 30
0.0
  0
SPLINE
  5
2F5
100
AcDbEntity
  8
0
100
AcDbSpline
 62
7
  6
CONTINUOUS
 70
0
 71
3
 72
8
 73
4
 74
0
 42
0.0000001
 43
0.0000001
 44
0.0000000001
 40
0.0
 40
0.0
 40
0.0
 40
0.0
 40
1.0
 40
1.0
 40
1.0
 40
1.0
 10
-111.2184835342
 20
675.9781424993
 30
0.0
 10
-119.5530370718
 20
675.9781422367
 30
0.0
 10
-127.887590642
 20
675.9773964138
 30
0.0
 10
-136.2221440479
 20
675.9759140648
 30
0.0
  0
SPLINE
  5
2F6
100
AcDbEntity
  8
0
100
AcDbSpline
 62
7
  6
CONTINUOUS
 70
0
 71
3
 72
11
 73
7
 74
0
 42
0.0000001
 43
0.0000001
 44
0.0000000001
 40
0.0
 40
0.0
 40
0.0
 40
0.0
 40
0.2499603853
 40
0.4999417852
 40
0.749955767
 40
1.0
 40
1.0
 40
1.0
 40
1.0
 10
96.8837604163
 20
1372.1683346987
 30
0.0
 10
97.4716742569
 20
1374.5028486903
 30
0.0
 10
99.4271199632
 20
1379.0141902303
 30
0.0
 10
104.3805877493
 20
1384.4464609524
 30
0.0
 10
110.8330481009
 20
1387.9748638461
 30
0.0
 10
115.6874750523
 20
1388.7865731443
 30
0.0
 10
118.0956874831
 20
1388.7865783958
 30
0.0
  0
SPLINE
  5
2F7
100
AcDbEntity
  8
0
100
AcDbSpline
 62
7
  6
CONTINUOUS
 70
0
 71
3
 72
11
 73
7
 74
0
 42
0.0000001
 43
0.0000001
 44
0.0000000001
 40
0.0
 40
0.0
 40
0.0
 40
0.0
 40
0.2500437236
 40
0.5000577256
 40
0.7500401954
 40
1.0
 40
1.0
 40
1.0
 40
1.0
 10
359.4594139487
 20
1388.7865783735
 30
0.0
 10
361.8675857771
 20
1388.7865690452
 30
0.0
 10
366.7219363829
 20
1387.9748977689
 30
0.0
 10
373.1743249915
 20
1384.4465804632
 30
0.0
 10
378.127783715
 20
1379.0144569376
 30
0.0
 10
380.0833073764
 20
1374.5032198927
 30
0.0
 10
380.671234816
 20
1372.1687518911
 30
0.0
  0
SPLINE
  5
2F8
100
AcDbEntity
  8
0
100
AcDbSpline
 62
7
  6
CONTINUOUS
 70
0
 71
3
 72
12
 73
8
 74
0
 42
0.0000001
 43
0.0000001
 44
0.0000000001
 40
0.0
 40
0.0
 40
0.0
 40
0.0
 40
0.0321685367
 40
0.088882033
 40
0.2919602125
 40
0.6141760772
 40
1.0
 40
1.0
 40
1.0
 40
1.0
 10
96.5555808991
 20
1357.4348248262
 30
0.0
 10
96.5204538989
 20
1357.5889939357
 30
0.0
 10
96.49038546
 20
1358.0275167018
 30
0.0
 10
96.4659538801
 20
1359.4602695915
 30
0.0
 10
96.529984267
 20
1362.3231049812
 30
0.0
 10
96.5373932428
 20
1366.7995752663
 30
0.0
 10
96.6945104735
 20
1370.2813335464
 30
0.0
 10
96.8837604163
 20
1372.1683346987
 30
0.0
  0
SPLINE
  5
2F9
100
AcDbEntity
  8
0
100
AcDbSpline
 62
7
  6
CONTINUOUS
 70
0
 71
3
 72
12
 73
8
 74
0
 42
0.0000001
 43
0.0000001
 44
0.0000000001
 40
0.0
 40
0.0
 40
0.0
 40
0.0
 40
0.3858939104
 40
0.708166033
 40
0.9112912867
 40
0.9679490328
 40
1.0
 40
1.0
 40
1.0
 40
1.0
 10
380.671234816
 20
1372.1687518911
 30
0.0
 10
380.8605550743
 20
1370.2816437828
 30
0.0
 10
381.017819543
 20
1366.7996924343
 30
0.0
 10
381.0261299078
 20
1362.3229646688
 30
0.0
 10
381.0885567977
 20
1359.4601439773
 30
0.0
 10
381.0650347041
 20
1358.0282844734
 30
0.0
 10
381.0349113742
 20
1357.5905582104
 30
0.0
 10
380.9993310485
 20
1357.4371059167
 30
0.0
  0
SPLINE
  5
2FA
100
AcDbEntity
  8
0
100
AcDbSpline
 62
7
  6
CONTINUOUS
 70
0
 71
3
 72
22
 73
18
 74
0
 42
0.0000001
 43
0.0000001
 44
0.0000000001
 40
0.0
 40
0.0
 40
0.0
 40
0.0
 40
0.0312763739
 40
0.062556572
 40
0.0938357318
 40
0.1251149686
 40
0.1876596894
 40
0.2501962824
 40
0.3750786335
 40
0.4376004654
 40
0.5001293255
 40
0.5626540094
 40
0.6251759334
 40
0.6877016177
 40
0.7502318157
 40
0.8751151958
 40
1.0
 40
1.0
 40
1.0
 40
1.0
 10
-137.5713165569
 20
757.2993366398
 30
0.0
 10
-142.9962495751
 20
757.293258361
 30
0.0
 10
-153.846706482
 20
757.0862020812
 30
0.0
 10
-170.1215211452
 20
757.5099577326
 30
0.0
 10
-186.3760934435
 20
758.4031654125
 30
0.0
 10
-207.9874548592
 20
760.399157745
 30
0.0
 10
-234.8375969527
 20
764.4617834106
 30
0.0
 10
-277.0308629663
 20
774.627672176
 30
0.0
 10
-317.5044127648
 20
791.1762714008
 30
0.0
 10
-354.5864140413
 20
813.7608397603
 30
0.0
 10
-380.3791896241
 20
833.7118959269
 30
0.0
 10
-403.7578162199
 20
856.4333732316
 30
0.0
 10
-424.5402242293
 20
881.5457108135
 30
0.0
 10
-442.5215346852
 20
908.7384251645
 30
0.0
 10
-462.4426663981
 20
947.3259992861
 30
0.0
 10
-479.3588050457
 20
999.2272502608
 30
0.0
 10
-484.0139534772
 20
1042.6684298324
 30
0.0
 10
-484.0133257697
 20
1064.3298962316
 30
0.0
  0
SPLINE
  5
2FB
100
AcDbEntity
  8
0
100
AcDbSpline
 62
7
  6
CONTINUOUS
 70
0
 71
3
 72
14
 73
10
 74
0
 42
0.0000001
 43
0.0000001
 44
0.0000000001
 40
0.0
 40
0.0
 40
0.0
 40
0.0
 40
0.3679320662
 40
0.5354703857
 40
0.6839761504
 40
0.8084144742
 40
0.9046349504
 40
0.9691134707
 40
1.0
 40
1.0
 40
1.0
 40
1.0
 10
380.671234816
 20
1372.1687518494
 30
0.0
 10
379.2576219555
 20
1371.8131741343
 30
0.0
 10
377.1971691192
 20
1371.3075008445
 30
0.0
 10
374.5587314096
 20
1370.6912193955
 30
0.0
 10
372.8557075607
 20
1370.3071212885
 30
0.0
 10
371.4262630801
 20
1370.0069667276
 30
0.0
 10
370.3147499177
 20
1369.7794778997
 30
0.0
 10
369.5714680245
 20
1369.6776006289
 30
0.0
 10
369.1875010768
 20
1369.6106873893
 30
0.0
 10
369.067981462
 20
1369.6369178337
 30
0.0
  0
SPLINE
  5
2FC
100
AcDbEntity
  8
0
100
AcDbSpline
 62
7
  6
CONTINUOUS
 70
0
 71
3
 72
11
 73
7
 74
0
 42
0.0000001
 43
0.0000001
 44
0.0000000001
 40
0.0
 40
0.0
 40
0.0
 40
0.0
 40
0.2499979029
 40
0.4999992808
 40
0.7499945002
 40
1.0
 40
1.0
 40
1.0
 40
1.0
 10
621.1209476655
 20
757.3502400435
 30
0.0
 10
618.4261474935
 20
757.2855755723
 30
0.0
 10
613.0345874103
 20
757.2231553109
 30
0.0
 10
604.9483369345
 20
757.3116276893
 30
0.0
 10
596.8610000704
 20
757.3416240315
 30
0.0
 10
591.4708592948
 20
757.1853565832
 30
0.0
 10
588.777732705
 20
757.0685651313
 30
0.0
  0
SPLINE
  5
2FD
100
AcDbEntity
  8
0
100
AcDbSpline
 62
7
  6
CONTINUOUS
 70
0
 71
3
 72
12
 73
8
 74
0
 42
0.0000001
 43
0.0000001
 44
0.0000000001
 40
0.0
 40
0.0
 40
0.0
 40
0.0
 40
0.0493833664
 40
0.1194992153
 40
0.323258615
 40
0.6134282978
 40
1.0
 40
1.0
 40
1.0
 40
1.0
 10
-134.9765376498
 20
771.4029961389
 30
0.0
 10
-134.984380507
 20
771.1656954663
 30
0.0
 10
-135.1261574277
 20
770.6012726207
 30
0.0
 10
-135.6401552811
 20
769.1391508023
 30
0.0
 10
-136.5477651257
 20
766.5780318272
 30
0.0
 10
-137.4388429789
 20
762.424601017
 30
0.0
 10
-137.6095987051
 20
759.1574364461
 30
0.0
 10
-137.5713165664
 20
757.2992330126
 30
0.0
  0
SPLINE
  5
2FE
100
AcDbEntity
  8
0
100
AcDbSpline
 62
7
  6
CONTINUOUS
 70
0
 71
3
 72
9
 73
5
 74
0
 42
0.0000001
 43
0.0000001
 44
0.0000000001
 40
0.0
 40
0.0
 40
0.0
 40
0.0
 40
0.5001931508
 40
1.0
 40
1.0
 40
1.0
 40
1.0
 10
-111.2223862138
 20
757.0653862187
 30
0.0
 10
-115.6155662562
 20
757.1041667545
 30
0.0
 10
-124.3986280723
 20
757.1579836825
 30
0.0
 10
-133.181356828
 20
757.301469934
 30
0.0
 10
-137.5713107837
 20
757.2953662964
 30
0.0
  0
SPLINE
  5
2FF
100
AcDbEntity
  8
0
100
AcDbSpline
 62
7
  6
CONTINUOUS
 70
0
 71
3
 72
13
 73
9
 74
0
 42
0.0000001
 43
0.0000001
 44
0.0000000001
 40
0.0
 40
0.0
 40
0.0
 40
0.0
 40
0.2499996157
 40
0.3750001828
 40
0.4999998777
 40
0.6249996941
 40
0.7500004972
 40
1.0
 40
1.0
 40
1.0
 40
1.0
 10
588.7777367625
 20
757.0685770094
 30
0.0
 10
530.4464408915
 20
756.5677855405
 30
0.0
 10
442.9448546136
 20
756.4100791761
 30
0.0
 10
326.2780793627
 20
756.4416284719
 30
0.0
 10
238.7777187736
 20
756.4393228113
 30
0.0
 10
151.2773004635
 20
756.4363037112
 30
0.0
 10
34.6104823428
 20
756.3829578047
 30
0.0
 10
-52.8911925189
 20
756.554942712
 30
0.0
 10
-111.2223441874
 20
757.0692780442
 30
0.0
  0
SPLINE
  5
300
100
AcDbEntity
  8
0
100
AcDbSpline
 62
7
  6
CONTINUOUS
 70
0
 71
3
 72
15
 73
11
 74
0
 42
0.0000001
 43
0.0000001
 44
0.0000000001
 40
0.0
 40
0.0
 40
0.0
 40
0.0
 40
0.1250092359
 40
0.2500537405
 40
0.3750790739
 40
0.5000992217
 40
0.6250936628
 40
0.750077167
 40
0.875043307
 40
1.0
 40
1.0
 40
1.0
 40
1.0
 10
869.5647927461
 20
845.2410406205
 30
0.0
 10
861.8870715668
 20
837.7994320111
 30
0.0
 10
845.7237623383
 20
823.7178206575
 30
0.0
 10
819.3141718753
 20
805.3938641623
 30
0.0
 10
791.067425511
 20
790.0544985632
 30
0.0
 10
761.3986657521
 20
777.7115065728
 30
0.0
 10
730.6356488462
 20
768.4493267212
 30
0.0
 10
699.1499598406
 20
762.1365758324
 30
0.0
 10
667.2677415189
 20
758.441530373
 30
0.0
 10
645.895873302
 20
757.4602288487
 30
0.0
 10
635.2091192442
 20
757.3114174859
 30
0.0
  0
SPLINE
  5
301
100
AcDbEntity
  8
0
100
AcDbSpline
 62
7
  6
CONTINUOUS
 70
0
 71
3
 72
15
 73
11
 74
0
 42
0.0000001
 43
0.0000001
 44
0.0000000001
 40
0.0
 40
0.0
 40
0.0
 40
0.0
 40
0.1254307638
 40
0.2501718229
 40
0.3751484661
 40
0.5002533616
 40
0.6253531846
 40
0.7501021468
 40
0.8755087491
 40
1.0
 40
1.0
 40
1.0
 40
1.0
 10
869.5803150544
 20
845.2250506794
 30
0.0
 10
884.3711033706
 20
859.5920421615
 30
0.0
 10
910.962916251
 20
891.4139446763
 30
0.0
 10
940.2999303393
 20
946.1240868413
 30
0.0
 10
957.9725711169
 20
1005.5862472961
 30
0.0
 10
963.6555440742
 20
1067.4163208794
 30
0.0
 10
956.7418042984
 20
1129.0817948879
 30
0.0
 10
937.8856942931
 20
1188.2541933147
 30
0.0
 10
907.4548998881
 20
1242.2762471215
 30
0.0
 10
880.260267727
 20
1273.5171537468
 30
0.0
 10
865.2967702699
 20
1287.4787456968
 30
0.0
  0
SPLINE
  5
302
100
AcDbEntity
  8
0
100
AcDbSpline
 62
7
  6
CONTINUOUS
 70
0
 71
3
 72
16
 73
12
 74
0
 42
0.0000001
 43
0.0000001
 44
0.0000000001
 40
0.0
 40
0.0
 40
0.0
 40
0.0
 40
0.1250208821
 40
0.2500315776
 40
0.3750383814
 40
0.5000328191
 40
0.625020862
 40
0.7500029112
 40
0.8749807519
 40
0.9374914556
 40
1.0
 40
1.0
 40
1.0
 40
1.0
 10
648.2196872239
 20
1371.0397728877
 30
0.0
 10
658.117341913
 20
1370.6368856111
 30
0.0
 10
677.8843371516
 20
1369.1075025584
 30
0.0
 10
707.3470005574
 20
1365.0675569826
 30
0.0
 10
736.3893349732
 20
1358.6099641153
 30
0.0
 10
764.7522797104
 20
1349.6208211693
 30
0.0
 10
792.1339019248
 20
1337.9745980205
 30
0.0
 10
818.273715553
 20
1323.7575813813
 30
0.0
 10
838.7626536295
 20
1309.7826718106
 30
0.0
 10
854.2823307345
 20
1297.459807355
 30
0.0
 10
861.6488089065
 20
1290.8289375335
 30
0.0
 10
865.2735549651
 20
1287.4538524956
 30
0.0
  0
SPLINE
  5
303
100
AcDbEntity
  8
0
100
AcDbSpline
 62
7
  6
CONTINUOUS
 70
0
 71
3
 72
12
 73
8
 74
0
 42
0.0000001
 43
0.0000001
 44
0.0000000001
 40
0.0
 40
0.0
 40
0.0
 40
0.0
 40
0.0502310708
 40
0.1206930115
 40
0.3243670688
 40
0.6137566214
 40
1.0
 40
1.0
 40
1.0
 40
1.0
 10
617.98861483
 20
771.4279861015
 30
0.0
 10
617.997948922
 20
771.1852018642
 30
0.0
 10
618.1536741921
 20
770.6133712101
 30
0.0
 10
618.7271301467
 20
769.1580453045
 30
0.0
 10
619.7554435981
 20
766.6277588166
 30
0.0
 10
620.8226767193
 20
762.4942610094
 30
0.0
 10
621.1033354861
 20
759.2183984158
 30
0.0
 10
621.1209475372
 20
757.3502536535
 30
0.0
  0
SPLINE
  5
304
100
AcDbEntity
  8
0
100
AcDbSpline
 62
7
  6
CONTINUOUS
 70
0
 71
3
 72
12
 73
8
 74
0
 42
0.0000001
 43
0.0000001
 44
0.0000000001
 40
0.0
 40
0.0
 40
0.0
 40
0.0
 40
0.0493192724
 40
0.118918817
 40
0.3215072241
 40
0.6120196554
 40
1.0
 40
1.0
 40
1.0
 40
1.0
 10
-134.9841044558
 20
1357.2234953177
 30
0.0
 10
-134.9919201421
 20
1357.4599409205
 30
0.0
 10
-135.1188552904
 20
1358.022101128
 30
0.0
 10
-135.5852468801
 20
1359.4886313579
 30
0.0
 10
-136.4221910292
 20
1362.0588412787
 30
0.0
 10
-137.2862982392
 20
1366.2064420494
 30
0.0
 10
-137.5203341582
 20
1369.4654317285
 30
0.0
 10
-137.5383665694
 20
1371.3264089175
 30
0.0
  0
SPLINE
  5
305
100
AcDbEntity
  8
0
100
AcDbSpline
 62
7
  6
CONTINUOUS
 70
0
 71
3
 72
23
 73
19
 74
0
 42
0.0000001
 43
0.0000001
 44
0.0000000001
 40
0.0
 40
0.0
 40
0.0
 40
0.0
 40
0.0156382576
 40
0.0312772616
 40
0.0625586784
 40
0.0938366102
 40
0.1251152848
 40
0.1876604507
 40
0.2501965433
 40
0.375079539
 40
0.437602264
 40
0.5001304606
 40
0.5626531325
 40
0.6251778165
 40
0.6877022512
 40
0.7502324345
 40
0.8751149206
 40
1.0
 40
1.0
 40
1.0
 40
1.0
 10
-137.5383666517
 20
1371.3263449747
 30
0.0
 10
-140.250843731
 20
1371.3295489976
 30
0.0
 10
-145.6750530635
 20
1371.4624388792
 30
0.0
 10
-156.5265017876
 20
1371.4242427541
 30
0.0
 10
-170.0888773515
 20
1371.1338236849
 30
0.0
 10
-186.3431771472
 20
1370.2168037553
 30
0.0
 10
-207.954950761
 20
1368.23527481
 30
0.0
 10
-234.8049684352
 20
1364.1680491851
 30
0.0
 10
-276.9992695361
 20
1354.0083106492
 30
0.0
 10
-317.4745803169
 20
1337.4628278132
 30
0.0
 10
-354.5593573164
 20
1314.8827443466
 30
0.0
 10
-380.3542673141
 20
1294.9349546859
 30
0.0
 10
-403.7357448843
 20
1272.2164482017
 30
0.0
 10
-424.5214611837
 20
1247.1069733234
 30
0.0
 10
-442.5062800076
 20
1219.9162815232
 30
0.0
 10
-462.4318794892
 20
1181.3314550453
 30
0.0
 10
-479.3537790156
 20
1129.4321874886
 30
0.0
 10
-484.0127912332
 20
1085.9913984249
 30
0.0
 10
-484.0134060464
 20
1064.3298962344
 30
0.0
  0
SPLINE
  5
306
100
AcDbEntity
  8
0
100
AcDbSpline
 62
7
  6
CONTINUOUS
 70
0
 71
3
 72
8
 73
4
 74
0
 42
0.0000001
 43
0.0000001
 44
0.0000000001
 40
0.0
 40
0.0
 40
0.0
 40
0.0
 40
1.0
 40
1.0
 40
1.0
 40
1.0
 10
-137.5374368166
 20
1371.3179905015
 30
0.0
 10
-128.7657994107
 20
1371.4037981234
 30
0.0
 10
-119.9941106806
 20
1371.4845616753
 30
0.0
 10
-111.2223729008
 20
1371.5594085238
 30
0.0
  0
SPLINE
  5
307
100
AcDbEntity
  8
0
100
AcDbSpline
 62
7
  6
CONTINUOUS
 70
0
 71
3
 72
10
 73
6
 74
0
 42
0.0000001
 43
0.0000001
 44
0.0000000001
 40
0.0
 40
0.0
 40
0.0
 40
0.0
 40
0.374999872
 40
0.7499999893
 40
1.0
 40
1.0
 40
1.0
 40
1.0
 10
-111.2223837704
 20
1371.5607073736
 30
0.0
 10
-86.2231898392
 20
1371.773834719
 30
0.0
 10
-36.2234149963
 20
1372.0536919117
 30
0.0
 10
30.4435960015
 20
1372.0922728565
 30
0.0
 10
72.1104073347
 20
1372.1524388563
 30
0.0
 10
88.7771411047
 20
1372.1683227813
 30
0.0
  0
SPLINE
  5
308
100
AcDbEntity
  8
0
100
AcDbSpline
 62
7
  6
CONTINUOUS
 70
0
 71
3
 72
12
 73
8
 74
0
 42
0.0000001
 43
0.0000001
 44
0.0000000001
 40
0.0
 40
0.0
 40
0.0
 40
0.0
 40
0.0550270077
 40
0.1307505854
 40
0.3429533771
 40
0.628207975
 40
1.0
 40
1.0
 40
1.0
 40
1.0
 10
642.4151448316
 20
1356.8342737806
 30
0.0
 10
642.442204602
 20
1357.1190561437
 30
0.0
 10
642.7338208087
 20
1357.75907039
 30
0.0
 10
643.7655158956
 20
1359.2013398102
 30
0.0
 10
645.5837429707
 20
1361.5754812185
 30
0.0
 10
647.5909457873
 20
1365.6744903943
 30
0.0
 10
648.1542310911
 20
1369.1079562836
 30
0.0
 10
648.219683299
 20
1371.0396570406
 30
0.0
  0
SPLINE
  5
309
100
AcDbEntity
  8
0
100
AcDbSpline
 62
7
  6
CONTINUOUS
 70
0
 71
3
 72
8
 73
4
 74
0
 42
0.0000001
 43
0.0000001
 44
0.0000000001
 40
0.0
 40
0.0
 40
0.0
 40
0.0
 40
1.0
 40
1.0
 40
1.0
 40
1.0
 10
645.1066774885
 20
1371.0437458492
 30
0.0
 10
645.9308216351
 20
1371.0493680019
 30
0.0
 10
646.7595239241
 20
1371.1892920414
 30
0.0
 10
647.578579233
 20
1371.0976755373
 30
0.0
  0
SPLINE
  5
30A
100
AcDbEntity
  8
0
100
AcDbSpline
 62
7
  6
CONTINUOUS
 70
0
 71
3
 72
8
 73
4
 74
0
 42
0.0000001
 43
0.0000001
 44
0.0000000001
 40
0.0
 40
0.0
 40
0.0
 40
0.0
 40
1.0
 40
1.0
 40
1.0
 40
1.0
 10
647.578579233
 20
1371.0976755373
 30
0.0
 10
647.7918240002
 20
1371.0738227646
 30
0.0
 10
648.0051788404
 20
1371.0451454581
 30
0.0
 10
648.219683299
 20
1371.0396570406
 30
0.0
  0
SPLINE
  5
30B
100
AcDbEntity
  8
0
100
AcDbSpline
 62
7
  6
CONTINUOUS
 70
0
 71
3
 72
8
 73
4
 74
0
 42
0.0000001
 43
0.0000001
 44
0.0000000001
 40
0.0
 40
0.0
 40
0.0
 40
0.0
 40
1.0
 40
1.0
 40
1.0
 40
1.0
 10
588.7775916281
 20
1371.554322107
 30
0.0
 10
596.2426266829
 20
1371.4899320344
 30
0.0
 10
603.7075867236
 20
1371.416985948
 30
0.0
 10
611.1725333611
 20
1371.3430525356
 30
0.0
  0
SPLINE
  5
30C
100
AcDbEntity
  8
0
100
AcDbSpline
 62
7
  6
CONTINUOUS
 70
0
 71
3
 72
10
 73
6
 74
0
 42
0.0000001
 43
0.0000001
 44
0.0000000001
 40
0.0
 40
0.0
 40
0.0
 40
0.0
 40
0.2500000127
 40
0.6250001286
 40
1.0
 40
1.0
 40
1.0
 40
1.0
 10
388.777141105
 20
1372.1687638074
 30
0.0
 10
405.4439562827
 20
1372.1530241145
 30
0.0
 10
447.1109717638
 20
1372.0932150301
 30
0.0
 10
513.7783002203
 20
1372.0529213483
 30
0.0
 10
563.7783309676
 20
1371.7738062688
 30
0.0
 10
588.777625966
 20
1371.5582758929
 30
0.0
  0
SPLINE
  5
30D
100
AcDbEntity
  8
0
100
AcDbSpline
 62
7
  6
CONTINUOUS
 70
0
 71
3
 72
16
 73
12
 74
0
 42
0.0000001
 43
0.0000001
 44
0.0000000001
 40
0.0
 40
0.0
 40
0.0
 40
0.0
 40
0.0625099822
 40
0.1250221527
 40
0.2499409807
 40
0.37488415
 40
0.4998538684
 40
0.6248507709
 40
0.7498741789
 40
0.8749214398
 40
1.0
 40
1.0
 40
1.0
 40
1.0
 10
-94.7882901243
 20
857.8968323686
 30
0.0
 10
-100.2761856121
 20
859.4389642026
 30
0.0
 10
-111.1381182317
 20
862.9609476512
 30
0.0
 10
-132.1125473216
 20
871.9453880841
 30
0.0
 10
-156.7404025598
 20
886.5676338195
 30
0.0
 10
-182.8583860765
 20
908.8621095095
 30
0.0
 10
-204.9445266654
 20
935.1609737894
 30
0.0
 10
-222.5094205127
 20
964.6706279192
 30
0.0
 10
-235.2109268337
 20
996.5802196837
 30
0.0
 10
-242.8453939415
 20
1030.0595747044
 30
0.0
 10
-244.5173669566
 20
1052.9072409041
 30
0.0
 10
-244.5175435793
 20
1064.3134909392
 30
0.0
  0
SPLINE
  5
30E
100
AcDbEntity
  8
0
100
AcDbSpline
 62
7
  6
CONTINUOUS
 70
0
 71
3
 72
14
 73
10
 74
0
 42
0.0000001
 43
0.0000001
 44
0.0000000001
 40
0.0
 40
0.0
 40
0.0
 40
0.0
 40
0.1250238017
 40
0.2500462
 40
0.3125571151
 40
0.3750675203
 40
0.5000774154
 40
0.7500302806
 40
1.0
 40
1.0
 40
1.0
 40
1.0
 10
-0.5833006157
 20
848.4719351118
 30
0.0
 10
-4.5436258531
 20
848.4766805596
 30
0.0
 10
-12.464256259
 20
848.4900420095
 30
0.0
 10
-22.3646873771
 20
848.5911136089
 30
0.0
 10
-30.2840159629
 20
848.7248096283
 30
0.0
 10
-38.2033802698
 20
848.8566630462
 30
0.0
 10
-52.0454618054
 20
849.6264718064
 30
0.0
 10
-71.7078610409
 20
852.1871337012
 30
0.0
 10
-87.1653369199
 20
855.754800055
 30
0.0
 10
-94.7882901243
 20
857.8968323686
 30
0.0
  0
SPLINE
  5
30F
100
AcDbEntity
  8
0
100
AcDbSpline
 62
7
  6
CONTINUOUS
 70
0
 71
3
 72
9
 73
5
 74
0
 42
0.0000001
 43
0.0000001
 44
0.0000000001
 40
0.0
 40
0.0
 40
0.0
 40
0.0
 40
0.4999985371
 40
1.0
 40
1.0
 40
1.0
 40
1.0
 10
482.3127518933
 20
848.4729042868
 30
0.0
 10
401.8303427271
 20
848.5433407351
 30
0.0
 10
240.8649610793
 20
848.3864253283
 30
0.0
 10
79.89957962
 20
848.5422282866
 30
0.0
 10
-0.5833006157
 20
848.4719351118
 30
0.0
  0
SPLINE
  5
310
100
AcDbEntity
  8
0
100
AcDbSpline
 62
7
  6
CONTINUOUS
 70
0
 71
3
 72
9
 73
5
 74
0
 42
0.0000001
 43
0.0000001
 44
0.0000000001
 40
0.0
 40
0.0
 40
0.0
 40
0.0
 40
0.4999967871
 40
1.0
 40
1.0
 40
1.0
 40
1.0
 10
512.9266780314
 20
848.825959587
 30
0.0
 10
507.825786483
 20
848.6905614721
 30
0.0
 10
497.6205749968
 20
848.5636720012
 30
0.0
 10
487.4154990573
 20
848.4811430773
 30
0.0
 10
482.3127518933
 20
848.4729042868
 30
0.0
  0
SPLINE
  5
311
100
AcDbEntity
  8
0
100
AcDbSpline
 62
7
  6
CONTINUOUS
 70
0
 71
3
 72
10
 73
6
 74
0
 42
0.0000001
 43
0.0000001
 44
0.0000000001
 40
0.0
 40
0.0
 40
0.0
 40
0.0
 40
0.2500845258
 40
0.5001793748
 40
1.0
 40
1.0
 40
1.0
 40
1.0
 10
583.391079493
 20
861.3301599153
 30
0.0
 10
577.7311051033
 20
859.3869150564
 30
0.0
 10
566.2208257591
 20
856.044255669
 30
0.0
 10
542.8231986333
 20
850.983186753
 30
0.0
 10
524.8827011118
 20
849.1422648385
 30
0.0
 10
512.9266780314
 20
848.825959587
 30
0.0
  0
SPLINE
  5
312
100
AcDbEntity
  8
0
100
AcDbSpline
 62
7
  6
CONTINUOUS
 70
0
 71
3
 72
13
 73
9
 74
0
 42
0.0000001
 43
0.0000001
 44
0.0000000001
 40
0.0
 40
0.0
 40
0.0
 40
0.0
 40
0.2497514691
 40
0.4994100927
 40
0.6245688119
 40
0.7497127797
 40
0.874853863
 40
1.0
 40
1.0
 40
1.0
 40
1.0
 10
722.0723530016
 20
1064.3134909397
 30
0.0
 10
722.0718232475
 20
1042.5305515255
 30
0.0
 10
715.9137907464
 20
998.7089285873
 30
0.0
 10
692.4898494782
 20
948.5535204494
 30
0.0
 10
665.3989809183
 20
914.1896038979
 30
0.0
 10
641.2334385087
 20
891.8758213126
 30
0.0
 10
613.7898629878
 20
873.760391426
 30
0.0
 10
593.714515138
 20
864.8748849989
 30
0.0
 10
583.391079493
 20
861.3301599153
 30
0.0
  0
SPLINE
  5
313
100
AcDbEntity
  8
0
100
AcDbSpline
 62
7
  6
CONTINUOUS
 70
0
 71
3
 72
16
 73
12
 74
0
 42
0.0000001
 43
0.0000001
 44
0.0000000001
 40
0.0
 40
0.0
 40
0.0
 40
0.0
 40
0.0625128711
 40
0.1250277635
 40
0.2499516184
 40
0.3748995979
 40
0.4998719683
 40
0.6248674206
 40
0.7498867754
 40
0.8749280265
 40
1.0
 40
1.0
 40
1.0
 40
1.0
 10
572.3438943134
 20
1270.7299539122
 30
0.0
 10
577.8320561351
 20
1269.1878607632
 30
0.0
 10
588.6943584969
 20
1265.665438098
 30
0.0
 10
609.6695463608
 20
1256.680513639
 30
0.0
 10
634.2981040429
 20
1242.0573137288
 30
0.0
 10
660.4163851783
 20
1219.7615931031
 30
0.0
 10
682.502286956
 20
1193.4619315279
 30
0.0
 10
700.0661630611
 20
1163.9521050362
 30
0.0
 10
712.7667341558
 20
1132.0434056122
 30
0.0
 10
720.4003711832
 20
1098.5655434733
 30
0.0
 10
722.0722074285
 20
1075.7191052936
 30
0.0
 10
722.0723530016
 20
1064.3134909397
 30
0.0
  0
SPLINE
  5
314
100
AcDbEntity
  8
0
100
AcDbSpline
 62
7
  6
CONTINUOUS
 70
0
 71
3
 72
14
 73
10
 74
0
 42
0.0000001
 43
0.0000001
 44
0.0000000001
 40
0.0
 40
0.0
 40
0.0
 40
0.0
 40
0.1250238034
 40
0.2500461998
 40
0.312557113
 40
0.3750675162
 40
0.5000774067
 40
0.7500302726
 40
1.0
 40
1.0
 40
1.0
 40
1.0
 10
478.1386358372
 20
1280.1550269667
 30
0.0
 10
482.0989744062
 20
1280.1515153785
 30
0.0
 10
490.0196268977
 20
1280.1363333813
 30
0.0
 10
499.9200885787
 20
1280.0359149989
 30
0.0
 10
507.839440806
 20
1279.9021318365
 30
0.0
 10
515.7588289142
 20
1279.7702902788
 30
0.0
 10
529.6009484505
 20
1279.0004174185
 30
0.0
 10
549.2634115928
 20
1276.4397218212
 30
0.0
 10
564.7208826906
 20
1272.8718678965
 30
0.0
 10
572.3438943134
 20
1270.7299539122
 30
0.0
  0
SPLINE
  5
315
100
AcDbEntity
  8
0
100
AcDbSpline
 62
7
  6
CONTINUOUS
 70
0
 71
3
 72
9
 73
5
 74
0
 42
0.0000001
 43
0.0000001
 44
0.0000000001
 40
0.0
 40
0.0
 40
0.0
 40
0.0
 40
0.4999985224
 40
1.0
 40
1.0
 40
1.0
 40
1.0
 10
-4.7583229357
 20
1280.1540589297
 30
0.0
 10
75.7242349133
 20
1280.0836241176
 30
0.0
 10
236.6899186468
 20
1280.2405416014
 30
0.0
 10
397.6556021946
 20
1280.0847337516
 30
0.0
 10
478.1386358372
 20
1280.1550269667
 30
0.0
  0
SPLINE
  5
316
100
AcDbEntity
  8
0
100
AcDbSpline
 62
7
  6
CONTINUOUS
 70
0
 71
3
 72
9
 73
5
 74
0
 42
0.0000001
 43
0.0000001
 44
0.0000000001
 40
0.0
 40
0.0
 40
0.0
 40
0.0
 40
0.4999967869
 40
1.0
 40
1.0
 40
1.0
 40
1.0
 10
-35.3719574596
 20
1279.8010014077
 30
0.0
 10
-30.2711143868
 20
1279.9363942582
 30
0.0
 10
-20.0660002847
 20
1280.0632901093
 30
0.0
 10
-9.8610215015
 20
1280.1458187557
 30
0.0
 10
-4.7583229357
 20
1280.1540589297
 30
0.0
  0
SPLINE
  5
317
100
AcDbEntity
  8
0
100
AcDbSpline
 62
7
  6
CONTINUOUS
 70
0
 71
3
 72
9
 73
5
 74
0
 42
0.0000001
 43
0.0000001
 44
0.0000000001
 40
0.0
 40
0.0
 40
0.0
 40
0.0
 40
0.2502970599
 40
1.0
 40
1.0
 40
1.0
 40
1.0
 10
-100.4402046569
 20
1269.0595823307
 30
0.0
 10
-95.1739684079
 20
1270.6862045236
 30
0.0
 10
-73.9138165169
 20
1276.4453951923
 30
0.0
 10
-51.8752020124
 20
1279.3644431261
 30
0.0
 10
-35.3719574596
 20
1279.8010014077
 30
0.0
  0
SPLINE
  5
318
100
AcDbEntity
  8
0
100
AcDbSpline
 62
7
  6
CONTINUOUS
 70
0
 71
3
 72
11
 73
7
 74
0
 42
0.0000001
 43
0.0000001
 44
0.0000000001
 40
0.0
 40
0.0
 40
0.0
 40
0.0
 40
0.2502483345
 40
0.5003378171
 40
0.7502628451
 40
1.0
 40
1.0
 40
1.0
 40
1.0
 10
-244.5175435793
 20
1064.3134909392
 30
0.0
 10
-244.5172424771
 20
1086.5710127719
 30
0.0
 10
-238.0703586795
 20
1131.3688820185
 30
0.0
 10
-208.8107952437
 20
1192.501821668
 30
0.0
 10
-162.0588704572
 20
1241.5997742006
 30
0.0
 10
-121.6613696751
 20
1262.4992762897
 30
0.0
 10
-100.4402046569
 20
1269.0595823307
 30
0.0
  0
SPLINE
  5
319
100
AcDbEntity
  8
0
100
AcDbSpline
 62
7
  6
CONTINUOUS
 70
0
 71
3
 72
90
 73
86
 74
0
 42
0.0000001
 43
0.0000001
 44
0.0000000001
 40
0.0
 40
0.0
 40
0.0
 40
0.0
 40
0.0312518466
 40
0.0625036932
 40
0.0937555398
 40
0.1093814631
 40
0.1250073863
 40
0.1406333096
 40
0.1562592329
 40
0.1718851562
 40
0.1796981179
 40
0.1875110795
 40
0.1953240412
 40
0.2031370027
 40
0.207043483
 40
0.2109499636
 40
0.214856436
 40
0.2187626952
 40
0.2226664897
 40
0.2265686995
 40
0.2304716099
 40
0.2343748259
 40
0.2382780492
 40
0.2421813076
 40
0.2460844282
 40
0.2499871225
 40
0.2538891723
 40
0.2577938532
 40
0.2617002856
 40
0.265606761
 40
0.2695132417
 40
0.2734197222
 40
0.2812326836
 40
0.2890456453
 40
0.2968586069
 40
0.3124845302
 40
0.3281104535
 40
0.3437363768
 40
0.3593623001
 40
0.3749882234
 40
0.40624007
 40
0.4374919166
 40
0.4687437632
 40
0.4999956097
 40
0.5624993029
 40
0.5937511495
 40
0.6093770728
 40
0.6250029961
 40
0.6406289194
 40
0.6562548427
 40
0.671880766
 40
0.6875066893
 40
0.6953196509
 40
0.7031326125
 40
0.710945574
 40
0.7148520543
 40
0.718758535
 40
0.7226650078
 40
0.7265713478
 40
0.7304756179
 40
0.7343781129
 40
0.738281501
 40
0.7421853872
 40
0.7460898131
 40
0.7499947455
 40
0.7538995389
 40
0.7578036283
 40
0.761706567
 40
0.7656112425
 40
0.7695176392
 40
0.7734241131
 40
0.7773305937
 40
0.7812370741
 40
0.7890500355
 40
0.7968629972
 40
0.8046759588
 40
0.8124889205
 40
0.8281148438
 40
0.8437407671
 40
0.8593666904
 40
0.8749926136
 40
0.9062444602
 40
0.9374963068
 40
0.9687481534
 40
1.0
 40
1.0
 40
1.0
 40
1.0
 10
613.7777885682
 20
1462.9421147634
 30
0.0
 10
629.7868426853
 20
1462.942108611
 30
0.0
 10
661.8049509188
 20
1462.9420838068
 30
0.0
 10
709.8321132681
 20
1462.9420184618
 30
0.0
 10
749.8547485596
 20
1462.941959114
 30
0.0
 10
781.8728567908
 20
1462.9419219768
 30
0.0
 10
805.8864379707
 20
1462.941888301
 30
0.0
 10
829.9000191284
 20
1462.9419043613
 30
0.0
 10
853.9136003709
 20
1462.9417643131
 30
0.0
 10
873.9249178104
 20
1462.9421600971
 30
0.0
 10
889.9339723505
 20
1462.9413906526
 30
0.0
 10
901.9407616418
 20
1462.9431951974
 30
0.0
 10
913.9475569809
 20
1462.9384904615
 30
0.0
 10
923.9532001792
 20
1462.9468300762
 30
0.0
 10
931.9577557335
 20
1462.9437137831
 30
0.0
 10
937.9610490069
 20
1462.9243946455
 30
0.0
 10
943.9646273416
 20
1462.9347041613
 30
0.0
 10
949.965316487
 20
1463.0001199055
 30
0.0
 10
955.9691664501
 20
1462.5561112396
 30
0.0
 10
961.8075077304
 20
1461.0462301768
 30
0.0
 10
967.3216138332
 20
1458.6288163204
 30
0.0
 10
972.3994646767
 20
1455.3905089519
 30
0.0
 10
976.9095363072
 20
1451.3972222345
 30
0.0
 10
980.7228721815
 20
1446.7342153269
 30
0.0
 10
983.7654732104
 20
1441.537849498
 30
0.0
 10
985.974145796
 20
1435.9350124915
 30
0.0
 10
987.2200168457
 20
1430.0346844706
 30
0.0
 10
987.4676015497
 20
1424.0255327615
 30
0.0
 10
987.3851671621
 20
1418.0255129611
 30
0.0
 10
987.3949227761
 20
1412.021493121
 30
0.0
 10
987.4108640422
 20
1406.0182938888
 30
0.0
 10
987.4093798099
 20
1398.0137041924
 30
0.0
 10
987.4041910414
 20
1388.0080773112
 30
0.0
 10
987.4076110257
 20
1376.0012767869
 30
0.0
 10
987.4059202583
 20
1359.9922259767
 30
0.0
 10
987.4068320817
 20
1339.9809067123
 30
0.0
 10
987.4065487818
 20
1315.9673260567
 30
0.0
 10
987.4066282844
 20
1291.9537447412
 30
0.0
 10
987.4066126543
 20
1267.9401636023
 30
0.0
 10
987.4066301791
 20
1235.9220553558
 30
0.0
 10
987.4066535869
 20
1195.8994200709
 30
0.0
 10
987.406730389
 20
1147.8722577238
 30
0.0
 10
987.4068763852
 20
1099.8450953801
 30
0.0
 10
987.406941026
 20
1035.808878922
 30
0.0
 10
987.406695944
 20
971.7726624618
 30
0.0
 10
987.4066493953
 20
915.7409730566
 30
0.0
 10
987.4066348277
 20
883.7228648252
 30
0.0
 10
987.4066218054
 20
859.7092836417
 30
0.0
 10
987.4066426908
 20
835.6957024936
 30
0.0
 10
987.4065497717
 20
811.6821212131
 30
0.0
 10
987.4068893163
 20
787.6685404263
 30
0.0
 10
987.4058062074
 20
767.6572215688
 30
0.0
 10
987.4078347289
 20
751.6481699259
 30
0.0
 10
987.4035737145
 20
739.6413719164
 30
0.0
 10
987.4108300615
 20
729.635737235
 30
0.0
 10
987.4094390223
 20
721.6311642123
 30
0.0
 10
987.3911736505
 20
715.6279201402
 30
0.0
 10
987.3934862485
 20
709.6241204005
 30
0.0
 10
987.4686074465
 20
703.6237704949
 30
0.0
 10
987.0954411261
 20
697.6168293441
 30
0.0
 10
985.6734119746
 20
691.7556794791
 30
0.0
 10
983.3252504014
 20
686.2103136338
 30
0.0
 10
980.1519103489
 20
681.0905002135
 30
0.0
 10
976.2170003623
 20
676.5269796527
 30
0.0
 10
971.6022311843
 20
672.6517117292
 30
0.0
 10
966.4424107544
 20
669.5422095551
 30
0.0
 10
960.8663027765
 20
667.2634846243
 30
0.0
 10
954.9839718572
 20
665.9285888912
 30
0.0
 10
948.9749514272
 20
665.6212926052
 30
0.0
 10
942.974781412
 20
665.7022595246
 30
0.0
 10
936.9708317113
 20
665.6977485219
 30
0.0
 10
930.9676197985
 20
665.6806846025
 30
0.0
 10
922.9630352055
 20
665.6807047267
 30
0.0
 10
912.9574060988
 20
665.6869968204
 30
0.0
 10
900.9506062639
 20
665.6830807853
 30
0.0
 10
888.9438181821
 20
665.6846430617
 30
0.0
 10
872.9347632472
 20
665.6839572793
 30
0.0
 10
852.9234460014
 20
665.6843095949
 30
0.0
 10
828.9098646967
 20
665.684181829
 30
0.0
 10
804.8962835555
 20
665.6841925591
 30
0.0
 10
772.878175311
 20
665.6841486183
 30
0.0
 10
732.8555400257
 20
665.6840971302
 30
0.0
 10
684.8283776747
 20
665.6840214959
 30
0.0
 10
636.801215325
 20
665.6839665176
 30
0.0
 10
604.7831070908
 20
665.6839538727
 30
0.0
 10
588.7740529735
 20
665.683954364
 30
0.0
  0
LINE
  5
31A
100
AcDbEntity
  8
0
100
AcDbLine
 62
7
  6
CONTINUOUS
 10
-111.2184966701
 20
665.6839368486
 11
-136.2221914825
 21
665.6839398808
  0
SPLINE
  5
31B
100
AcDbEntity
  8
0
100
AcDbSpline
 62
7
  6
CONTINUOUS
 70
0
 71
3
 72
11
 73
7
 74
0
 42
0.0000001
 43
0.0000001
 44
0.0000000001
 40
0.0
 40
0.0
 40
0.0
 40
0.0
 40
0.250302969
 40
0.500630275
 40
0.7505978902
 40
1.0
 40
1.0
 40
1.0
 40
1.0
 10
380.9993310485
 20
1357.4371059167
 30
0.0
 10
379.5644174111
 20
1357.4435632653
 30
0.0
 10
376.6707323627
 20
1357.9800361529
 30
0.0
 10
372.9096395568
 20
1360.2499729192
 30
0.0
 10
370.1827191469
 20
1363.6881199964
 30
0.0
 10
369.2905683439
 20
1366.4860319197
 30
0.0
 10
369.1077591602
 20
1367.904060548
 30
0.0
  0
SPLINE
  5
31C
100
AcDbEntity
  8
0
100
AcDbSpline
 62
7
  6
CONTINUOUS
 70
0
 71
3
 72
90
 73
86
 74
0
 42
0.0000001
 43
0.0000001
 44
0.0000000001
 40
0.0
 40
0.0
 40
0.0
 40
0.0
 40
0.0312520196
 40
0.0625040391
 40
0.0937560587
 40
0.1093820685
 40
0.1250080783
 40
0.1406340881
 40
0.1562600979
 40
0.1718861077
 40
0.1796991126
 40
0.1875121175
 40
0.1953251223
 40
0.2031381271
 40
0.207044629
 40
0.2109511312
 40
0.214857624
 40
0.2187639011
 40
0.2226676987
 40
0.2265699347
 40
0.2304728848
 40
0.2343761333
 40
0.2382793583
 40
0.2421825896
 40
0.2460857009
 40
0.2499884133
 40
0.253890481
 40
0.2577951931
 40
0.2617016471
 40
0.2656081451
 40
0.2695146476
 40
0.2734211497
 40
0.2812341543
 40
0.2890471592
 40
0.2968601641
 40
0.3124861739
 40
0.3281121837
 40
0.3437381935
 40
0.3593642033
 40
0.3749902131
 40
0.4062422326
 40
0.4374942522
 40
0.4687462718
 40
0.4999982913
 40
0.5625023305
 40
0.5937543501
 40
0.6093803598
 40
0.6250063696
 40
0.6406323794
 40
0.6562583892
 40
0.671884399
 40
0.6875104088
 40
0.6953234137
 40
0.7031364186
 40
0.7109494233
 40
0.7148559252
 40
0.7187624275
 40
0.7226689214
 40
0.7265752827
 40
0.7304795054
 40
0.734381906
 40
0.7382851727
 40
0.7421889027
 40
0.7460930282
 40
0.7499969481
 40
0.7539004241
 40
0.7578034085
 40
0.7617055335
 40
0.7656099536
 40
0.7695163623
 40
0.7734228587
 40
0.7773293611
 40
0.7812358632
 40
0.7890488679
 40
0.7968618728
 40
0.8046748777
 40
0.8124878825
 40
0.8281138923
 40
0.8437399021
 40
0.8593659119
 40
0.8749919217
 40
0.9062439413
 40
0.9374959608
 40
0.9687479804
 40
1.0
 40
1.0
 40
1.0
 40
1.0
 10
-136.2221914825
 20
665.6839398808
 30
0.0
 10
-152.2313321842
 20
665.6839460294
 30
0.0
 10
-184.2496135867
 20
665.6839703355
 30
0.0
 10
-232.2770356895
 20
665.684036117
 30
0.0
 10
-272.299887442
 20
665.6840959668
 30
0.0
 10
-304.3181688421
 20
665.6841329849
 30
0.0
 10
-328.3318798988
 20
665.6841660232
 30
0.0
 10
-352.3455909336
 20
665.6841497066
 30
0.0
 10
-376.3593020524
 20
665.684291328
 30
0.0
 10
-396.3707277253
 20
665.6838907236
 30
0.0
 10
-412.3798688452
 20
665.6846689086
 30
0.0
 10
-424.3867230914
 20
665.682850212
 30
0.0
 10
-436.3935833101
 20
665.6875815103
 30
0.0
 10
-446.3992807815
 20
665.6792421241
 30
0.0
 10
-454.4038792166
 20
665.6822274168
 30
0.0
 10
-460.4072055284
 20
665.7018792228
 30
0.0
 10
-466.4108076978
 20
665.6910920894
 30
0.0
 10
-472.4115357689
 20
665.6253704375
 30
0.0
 10
-478.4153445888
 20
666.0704215293
 30
0.0
 10
-484.2535886105
 20
667.5805759937
 30
0.0
 10
-489.7677888096
 20
669.9980259935
 30
0.0
 10
-494.8450459096
 20
673.2373097599
 30
0.0
 10
-499.3553699296
 20
677.2302058945
 30
0.0
 10
-503.1689314585
 20
681.8931201445
 30
0.0
 10
-506.2104800533
 20
687.0900573009
 30
0.0
 10
-508.4195059925
 20
692.6927748838
 30
0.0
 10
-509.6641587994
 20
698.5934260912
 30
0.0
 10
-509.9116961939
 20
704.6025560386
 30
0.0
 10
-509.8293984634
 20
710.6026294998
 30
0.0
 10
-509.839506074
 20
716.6066782939
 30
0.0
 10
-509.8551124567
 20
722.6099121412
 30
0.0
 10
-509.8538016494
 20
730.614544608
 30
0.0
 10
-509.848612427
 20
740.6202258411
 30
0.0
 10
-509.8520115641
 20
752.6270912153
 30
0.0
 10
-509.8503222368
 20
768.6362286368
 30
0.0
 10
-509.8512349126
 20
788.6476561183
 30
0.0
 10
-509.8509518003
 20
812.6613666557
 30
0.0
 10
-509.8510311798
 20
836.6750778473
 30
0.0
 10
-509.8510156073
 20
860.6887888638
 30
0.0
 10
-509.8510330605
 20
892.70707028
 30
0.0
 10
-509.8510561478
 20
932.7299220274
 30
0.0
 10
-509.8511334576
 20
980.7573441296
 30
0.0
 10
-509.8512796142
 20
1028.7847662286
 30
0.0
 10
-509.8513436597
 20
1092.8213290258
 30
0.0
 10
-509.8510990593
 20
1156.8578918248
 30
0.0
 10
-509.8510524197
 20
1212.889884276
 30
0.0
 10
-509.851037776
 20
1244.9081656769
 30
0.0
 10
-509.8510245976
 20
1268.9218767376
 30
0.0
 10
-509.8510458559
 20
1292.9355877629
 30
0.0
 10
-509.8509518482
 20
1316.9492989208
 30
0.0
 10
-509.8512949413
 20
1340.9630095839
 30
0.0
 10
-509.85020426
 20
1360.9744366748
 30
0.0
 10
-509.8522380379
 20
1376.9835748959
 30
0.0
 10
-509.8479579952
 20
1388.9904378577
 30
0.0
 10
-509.8552674237
 20
1398.9961265727
 30
0.0
 10
-509.853861141
 20
1407.0007429507
 30
0.0
 10
-509.835437313
 20
1413.004018875
 30
0.0
 10
-509.8378879769
 20
1419.007851027
 30
0.0
 10
-509.9134738889
 20
1425.0081950769
 30
0.0
 10
-509.539332803
 20
1431.0150853546
 30
0.0
 10
-508.1156920877
 20
1436.8756550165
 30
0.0
 10
-505.7673291209
 20
1442.4207403819
 30
0.0
 10
-502.5926388745
 20
1447.5393673515
 30
0.0
 10
-498.6583278476
 20
1452.1023051331
 30
0.0
 10
-494.0443633421
 20
1455.9765429369
 30
0.0
 10
-488.8855089364
 20
1459.0841435491
 30
0.0
 10
-483.3111589863
 20
1461.3626873737
 30
0.0
 10
-477.4298265059
 20
1462.6970795484
 30
0.0
 10
-471.4213733553
 20
1463.0043003938
 30
0.0
 10
-465.4213107116
 20
1462.9237632598
 30
0.0
 10
-459.4173344581
 20
1462.9284247446
 30
0.0
 10
-453.4140889028
 20
1462.9453634881
 30
0.0
 10
-445.409461089
 20
1462.9452814444
 30
0.0
 10
-435.4037777187
 20
1462.9390896252
 30
0.0
 10
-423.396912969
 20
1462.9429555319
 30
0.0
 10
-411.3900599386
 20
1462.9414102395
 30
0.0
 10
-395.3809184207
 20
1462.9420956749
 30
0.0
 10
-375.3694929421
 20
1462.9417466697
 30
0.0
 10
-351.3557817609
 20
1462.9418720742
 30
0.0
 10
-327.3420707426
 20
1462.9418618936
 30
0.0
 10
-295.3237893292
 20
1462.9419064001
 30
0.0
 10
-255.3009375828
 20
1462.94195823
 30
0.0
 10
-207.2735154785
 20
1462.942032333
 30
0.0
 10
-159.2460933751
 20
1462.9420881129
 30
0.0
 10
-127.2278119716
 20
1462.9421009275
 30
0.0
 10
-111.2186712696
 20
1462.9421007426
 30
0.0
  0
LINE
  5
31D
100
AcDbEntity
  8
0
100
AcDbLine
 62
7
  6
CONTINUOUS
 10
588.7741707268
 20
1462.9421182581
 11
613.7777885682
 21
1462.9421147634
  0
SPLINE
  5
31E
100
AcDbEntity
  8
0
100
AcDbSpline
 62
7
  6
CONTINUOUS
 70
0
 71
3
 72
11
 73
7
 74
0
 42
0.0000001
 43
0.0000001
 44
0.0000000001
 40
0.0
 40
0.0
 40
0.0
 40
0.0
 40
0.2503030385
 40
0.500630425
 40
0.7505980869
 40
1.0
 40
1.0
 40
1.0
 40
1.0
 10
378.5926143191
 20
1351.4854206787
 30
0.0
 10
377.1576939696
 20
1351.4918659078
 30
0.0
 10
374.2639906438
 20
1352.0283195885
 30
0.0
 10
370.5028666754
 20
1354.2982457499
 30
0.0
 10
367.7759202573
 20
1357.7363973412
 30
0.0
 10
366.8837592064
 20
1360.5343190558
 30
0.0
 10
366.7009467693
 20
1361.9523524157
 30
0.0
  0
SPLINE
  5
31F
100
AcDbEntity
  8
0
100
AcDbSpline
 62
7
  6
CONTINUOUS
 70
0
 71
3
 72
12
 73
8
 74
0
 42
0.0000001
 43
0.0000001
 44
0.0000000001
 40
0.0
 40
0.0
 40
0.0
 40
0.0
 40
0.0363004309
 40
0.0967534892
 40
0.2985717265
 40
0.6046581821
 40
1.0
 40
1.0
 40
1.0
 40
1.0
 10
378.5926143191
 20
1351.4854206783
 30
0.0
 10
378.5467427678
 20
1351.3719306374
 30
0.0
 10
378.2707455079
 20
1351.1546300713
 30
0.0
 10
377.3491835724
 20
1350.778033313
 30
0.0
 10
375.4495967821
 20
1350.3868507727
 30
0.0
 10
372.4370895528
 20
1350.0017539132
 30
0.0
 10
370.0743959282
 20
1349.8234481401
 30
0.0
 10
368.7435946587
 20
1349.7444213896
 30
0.0
  0
SPLINE
  5
320
100
AcDbEntity
  8
0
100
AcDbSpline
 62
7
  6
CONTINUOUS
 70
0
 71
3
 72
9
 73
5
 74
0
 42
0.0000001
 43
0.0000001
 44
0.0000000001
 40
0.0
 40
0.0
 40
0.0
 40
0.0
 40
0.2357793679
 40
1.0
 40
1.0
 40
1.0
 40
1.0
 10
368.7435946587
 20
1349.7444213896
 30
0.0
 10
367.8054885189
 20
1349.6887291305
 30
0.0
 10
363.8237892322
 20
1349.5022146649
 30
0.0
 10
359.8368633356
 20
1349.4571346872
 30
0.0
 10
356.7908702933
 20
1349.4571040537
 30
0.0
  0
SPLINE
  5
321
100
AcDbEntity
  8
0
100
AcDbSpline
 62
7
  6
CONTINUOUS
 70
0
 71
3
 72
9
 73
5
 74
0
 42
0.0000001
 43
0.0000001
 44
0.0000000001
 40
0.0
 40
0.0
 40
0.0
 40
0.0
 40
0.2714872445
 40
1.0
 40
1.0
 40
1.0
 40
1.0
 10
120.7642689135
 20
1349.4652838218
 30
0.0
 10
119.3985300683
 20
1349.4652717061
 30
0.0
 10
114.3685653288
 20
1349.5153297509
 30
0.0
 10
109.336644328
 20
1349.7334905482
 30
0.0
 10
105.687205891
 20
1350.069160682
 30
0.0
  0
SPLINE
  5
322
100
AcDbEntity
  8
0
100
AcDbSpline
 62
7
  6
CONTINUOUS
 70
0
 71
3
 72
12
 73
8
 74
0
 42
0.0000001
 43
0.0000001
 44
0.0000000001
 40
0.0
 40
0.0
 40
0.0
 40
0.0
 40
0.3847066539
 40
0.6883392446
 40
0.8955032967
 40
0.9599664478
 40
1.0
 40
1.0
 40
1.0
 40
1.0
 10
105.687205891
 20
1350.069160682
 30
0.0
 10
104.8016310412
 20
1350.1510669348
 30
0.0
 10
103.2167787546
 20
1350.3189500954
 30
0.0
 10
101.1767584822
 20
1350.6375802701
 30
0.0
 10
99.8675199661
 20
1350.9445348602
 30
0.0
 10
99.214585111
 20
1351.2323002534
 30
0.0
 10
99.015074198
 20
1351.3971333903
 30
0.0
 10
98.9803808633
 20
1351.4829331322
 30
0.0
  0
SPLINE
  5
323
100
AcDbEntity
  8
0
100
AcDbSpline
 62
7
  6
CONTINUOUS
 70
0
 71
3
 72
8
 73
4
 74
0
 42
0.0000001
 43
0.0000001
 44
0.0000000001
 40
0.0
 40
0.0
 40
0.0
 40
0.0
 40
1.0
 40
1.0
 40
1.0
 40
1.0
 10
98.9803808633
 20
1351.4829331322
 30
0.0
 10
98.177266869
 20
1353.46898843
 30
0.0
 10
97.3586978807
 20
1355.4487707364
 30
0.0
 10
96.5555808991
 20
1357.4348248262
 30
0.0
  0
SPLINE
  5
324
100
AcDbEntity
  8
0
100
AcDbSpline
 62
7
  6
CONTINUOUS
 70
0
 71
3
 72
8
 73
4
 74
0
 42
0.0000001
 43
0.0000001
 44
0.0000000001
 40
0.0
 40
0.0
 40
0.0
 40
0.0
 40
1.0
 40
1.0
 40
1.0
 40
1.0
 10
-5.1036761656
 20
1357.4333112541
 30
0.0
 10
26.1899293351
 20
1357.438224612
 30
0.0
 10
57.4835355994
 20
1357.4343000699
 30
0.0
 10
88.7771414824
 20
1357.4347624472
 30
0.0
  0
SPLINE
  5
325
100
AcDbEntity
  8
0
100
AcDbSpline
 62
7
  6
CONTINUOUS
 70
0
 71
3
 72
8
 73
4
 74
0
 42
0.0000001
 43
0.0000001
 44
0.0000000001
 40
0.0
 40
0.0
 40
0.0
 40
0.0
 40
1.0
 40
1.0
 40
1.0
 40
1.0
 10
388.777141473
 20
1357.4371682906
 30
0.0
 10
418.4437727283
 20
1357.4374205922
 30
0.0
 10
448.1104041214
 20
1357.4406593589
 30
0.0
 10
477.7770352398
 20
1357.4377980614
 30
0.0
  0
SPLINE
  5
326
100
AcDbEntity
  8
0
100
AcDbSpline
 62
7
  6
CONTINUOUS
 70
0
 71
3
 72
8
 73
4
 74
0
 42
0.0000001
 43
0.0000001
 44
0.0000000001
 40
0.0
 40
0.0
 40
0.0
 40
0.0
 40
1.0
 40
1.0
 40
1.0
 40
1.0
 10
-3.8871435456
 20
1314.1494436969
 30
0.0
 10
-4.0807753776
 20
1328.5817981777
 30
0.0
 10
-4.6215186059
 20
1343.0077134074
 30
0.0
 10
-5.1036761656
 20
1357.4333112541
 30
0.0
  0
SPLINE
  5
327
100
AcDbEntity
  8
0
100
AcDbSpline
 62
7
  6
CONTINUOUS
 70
0
 71
3
 72
9
 73
5
 74
0
 42
0.0000001
 43
0.0000001
 44
0.0000000001
 40
0.0
 40
0.0
 40
0.0
 40
0.0
 40
0.2494552585
 40
1.0
 40
1.0
 40
1.0
 40
1.0
 10
-49.0535895538
 20
1357.4195785781
 30
0.0
 10
-45.3990791556
 20
1357.4216301076
 30
0.0
 10
-30.7491151786
 20
1357.4287016974
 30
0.0
 10
-16.0991495824
 20
1357.4326256062
 30
0.0
 10
-5.1036949016
 20
1357.4332806109
 30
0.0
  0
SPLINE
  5
328
100
AcDbEntity
  8
0
100
AcDbSpline
 62
7
  6
CONTINUOUS
 70
0
 71
3
 72
10
 73
6
 74
0
 42
0.0000001
 43
0.0000001
 44
0.0000000001
 40
0.0
 40
0.0
 40
0.0
 40
0.0
 40
0.2499851362
 40
0.4999752597
 40
1.0
 40
1.0
 40
1.0
 40
1.0
 10
-35.3683853989
 20
1313.8518471238
 30
0.0
 10
-32.7457665242
 20
1313.9171539163
 30
0.0
 10
-27.4991080822
 20
1313.9851759814
 30
0.0
 10
-17.005648731
 20
1314.115680801
 30
0.0
 10
-9.1345746855
 20
1314.1487947144
 30
0.0
 10
-3.887139693
 20
1314.1469105293
 30
0.0
  0
SPLINE
  5
329
100
AcDbEntity
  8
0
100
AcDbSpline
 62
7
  6
CONTINUOUS
 70
0
 71
3
 72
9
 73
5
 74
0
 42
0.0000001
 43
0.0000001
 44
0.0000000001
 40
0.0
 40
0.0
 40
0.0
 40
0.0
 40
0.4999835187
 40
1.0
 40
1.0
 40
1.0
 40
1.0
 10
-134.9782831716
 20
1357.2235184716
 30
0.0
 10
-138.5253916303
 20
1357.2080132178
 30
0.0
 10
-145.6196971976
 20
1357.1631794241
 30
0.0
 10
-152.7144818179
 20
1357.1516533152
 30
0.0
 10
-156.2614625551
 20
1357.0986858087
 30
0.0
  0
SPLINE
  5
32A
100
AcDbEntity
  8
0
100
AcDbSpline
 62
7
  6
CONTINUOUS
 70
0
 71
3
 72
9
 73
5
 74
0
 42
0.0000001
 43
0.0000001
 44
0.0000000001
 40
0.0
 40
0.0
 40
0.0
 40
0.0
 40
0.5000491369
 40
1.0
 40
1.0
 40
1.0
 40
1.0
 10
-109.6996644612
 20
1301.6503716034
 30
0.0
 10
-97.6691299438
 20
1305.3449884299
 30
0.0
 10
-73.0942379381
 20
1311.1567876554
 30
0.0
 10
-47.9471686487
 20
1313.5420992127
 30
0.0
 10
-35.36838649
 20
1313.8518506456
 30
0.0
  0
SPLINE
  5
32B
100
AcDbEntity
  8
0
100
AcDbSpline
 62
7
  6
CONTINUOUS
 70
0
 71
3
 72
13
 73
9
 74
0
 42
0.0000001
 43
0.0000001
 44
0.0000000001
 40
0.0
 40
0.0
 40
0.0
 40
0.0
 40
0.1252933808
 40
0.2505527401
 40
0.3757872794
 40
0.5009969085
 40
0.750554238
 40
1.0
 40
1.0
 40
1.0
 40
1.0
 10
-278.1732039155
 20
1064.3134297231
 30
0.0
 10
-278.1731447981
 20
1077.2880468268
 30
0.0
 10
-276.2764737938
 20
1103.2764712037
 30
0.0
 10
-267.6516904466
 20
1141.3671986234
 30
0.0
 10
-253.3253092769
 20
1177.7134978689
 30
0.0
 10
-227.0355640999
 20
1222.5258489146
 30
0.0
 10
-181.3833862021
 20
1269.9021656119
 30
0.0
 10
-134.3733882224
 20
1294.0050220177
 30
0.0
 10
-109.6996468617
 20
1301.6503567531
 30
0.0
  0
SPLINE
  5
32C
100
AcDbEntity
  8
0
100
AcDbSpline
 62
7
  6
CONTINUOUS
 70
0
 71
3
 72
11
 73
7
 74
0
 42
0.0000001
 43
0.0000001
 44
0.0000000001
 40
0.0
 40
0.0
 40
0.0
 40
0.0
 40
0.2057432177
 40
0.4396353721
 40
0.7015277124
 40
1.0
 40
1.0
 40
1.0
 40
1.0
 10
-109.6996468647
 20
1301.6503567522
 30
0.0
 10
-113.5049740164
 20
1304.8612579285
 30
0.0
 10
-121.1650739914
 20
1312.2764879729
 30
0.0
 10
-132.4887543384
 20
1324.9329020124
 30
0.0
 10
-144.5099236402
 20
1339.945745537
 30
0.0
 10
-152.2917944186
 20
1351.0650755242
 30
0.0
 10
-156.2614730625
 20
1357.0994782913
 30
0.0
  0
SPLINE
  5
32D
100
AcDbEntity
  8
0
100
AcDbSpline
 62
7
  6
CONTINUOUS
 70
0
 71
3
 72
15
 73
11
 74
0
 42
0.0000001
 43
0.0000001
 44
0.0000000001
 40
0.0
 40
0.0
 40
0.0
 40
0.0
 40
0.1249989688
 40
0.2499804595
 40
0.3749517571
 40
0.4999241895
 40
0.6249116453
 40
0.749921585
 40
0.8749537038
 40
1.0
 40
1.0
 40
1.0
 40
1.0
 10
-156.2614628275
 20
1357.0986932129
 30
0.0
 10
-174.9385359047
 20
1356.8197872958
 30
0.0
 10
-212.3398807158
 20
1352.5112863996
 30
0.0
 10
-265.9656423944
 20
1335.0688181702
 30
0.0
 10
-315.0248464714
 20
1307.2155155647
 30
0.0
 10
-357.5016841491
 20
1270.1050895944
 30
0.0
 10
-391.7894796385
 20
1225.3278818209
 30
0.0
 10
-416.7710908269
 20
1174.7742885676
 30
0.0
 10
-431.8521469129
 20
1120.4726485277
 30
0.0
 10
-435.1907853333
 20
1083.0136150577
 30
0.0
 10
-435.19152471
 20
1064.3273873144
 30
0.0
  0
SPLINE
  5
32E
100
AcDbEntity
  8
0
100
AcDbSpline
 62
7
  6
CONTINUOUS
 70
0
 71
3
 72
20
 73
16
 74
0
 42
0.0000001
 43
0.0000001
 44
0.0000000001
 40
0.0
 40
0.0
 40
0.0
 40
0.0
 40
0.1249819584
 40
0.2499462787
 40
0.3748874523
 40
0.4998081875
 40
0.62471332
 40
0.6872466386
 40
0.749784932
 40
0.8123230867
 40
0.8748629096
 40
0.9061459817
 40
0.937430291
 40
0.9687150867
 40
1.0
 40
1.0
 40
1.0
 40
1.0
 10
-435.1915147695
 20
1064.3273873093
 30
0.0
 10
-435.1925248097
 20
1045.2391166961
 30
0.0
 10
-431.7114522822
 20
1006.9702179366
 30
0.0
 10
-415.9783057836
 20
951.5791143402
 30
0.0
 10
-389.9246631932
 20
900.1858671882
 30
0.0
 10
-354.2262796227
 20
854.9596986923
 30
0.0
 10
-317.4123364921
 20
824.0445262819
 30
0.0
 10
-284.6968401825
 20
804.2567365874
 30
0.0
 10
-258.7361288794
 20
792.0046135558
 30
0.0
 10
-231.6567614676
 20
782.4873052018
 30
0.0
 10
-208.3900013021
 20
776.9090783505
 30
0.0
 10
-189.5162908475
 20
773.8846757387
 30
0.0
 10
-175.2594118084
 20
772.346938542
 30
0.0
 10
-160.9424617793
 20
771.5018091593
 30
0.0
 10
-151.3838588175
 20
771.4854060214
 30
0.0
 10
-146.6058307612
 20
771.4613174003
 30
0.0
  0
SPLINE
  5
32F
100
AcDbEntity
  8
0
100
AcDbSpline
 62
7
  6
CONTINUOUS
 70
0
 71
3
 72
16
 73
12
 74
0
 42
0.0000001
 43
0.0000001
 44
0.0000000001
 40
0.0
 40
0.0
 40
0.0
 40
0.0
 40
0.0625269026
 40
0.1250531716
 40
0.2499916979
 40
0.3749386907
 40
0.4999002187
 40
0.6248830178
 40
0.7498919994
 40
0.8749279924
 40
1.0
 40
1.0
 40
1.0
 40
1.0
 10
-103.1962626296
 20
825.0533291787
 30
0.0
 10
-109.576980646
 20
826.8453587833
 30
0.0
 10
-122.2013282246
 20
830.9512643308
 30
0.0
 10
-146.5991524841
 20
841.3599959265
 30
0.0
 10
-175.2812791789
 20
858.259531446
 30
0.0
 10
-205.7728214265
 20
884.0133180953
 30
0.0
 10
-231.6248302307
 20
914.4252417519
 30
0.0
 10
-252.2394681593
 20
948.6029771865
 30
0.0
 10
-267.1852874822
 20
985.6174663404
 30
0.0
 10
-276.1929882027
 20
1024.5006013557
 30
0.0
 10
-278.1731120262
 20
1051.0563228617
 30
0.0
 10
-278.1732039155
 20
1064.3134297231
 30
0.0
  0
SPLINE
  5
330
100
AcDbEntity
  8
0
100
AcDbSpline
 62
7
  6
CONTINUOUS
 70
0
 71
3
 72
11
 73
7
 74
0
 42
0.0000001
 43
0.0000001
 44
0.0000000001
 40
0.0
 40
0.0
 40
0.0
 40
0.0
 40
0.2086512247
 40
0.4436673004
 40
0.704778702
 40
1.0
 40
1.0
 40
1.0
 40
1.0
 10
-103.1962634987
 20
825.0533284129
 30
0.0
 10
-106.7735538904
 20
821.8405435724
 30
0.0
 10
-113.9572420649
 20
814.5407315688
 30
0.0
 10
-124.5543539586
 20
802.2264963167
 30
0.0
 10
-135.7258090105
 20
787.8004685683
 30
0.0
 10
-142.9400413759
 20
777.1907865877
 30
0.0
 10
-146.6058257659
 20
771.4597202522
 30
0.0
  0
SPLINE
  5
331
100
AcDbEntity
  8
0
100
AcDbSpline
 62
7
  6
CONTINUOUS
 70
0
 71
3
 72
16
 73
12
 74
0
 42
0.0000001
 43
0.0000001
 44
0.0000000001
 40
0.0
 40
0.0
 40
0.0
 40
0.0
 40
0.1242255443
 40
0.2484512585
 40
0.3726767539
 40
0.4969165661
 40
0.6211541482
 40
0.6834443735
 40
0.7461038884
 40
0.8707851583
 40
1.0
 40
1.0
 40
1.0
 40
1.0
 10
-0.2213848552
 20
771.1885650387
 30
0.0
 10
-0.2215052576
 20
772.9927075029
 30
0.0
 10
-0.2134279716
 20
776.6010217719
 30
0.0
 10
-0.2246115002
 20
782.0133208681
 30
0.0
 10
-0.2561014782
 20
787.4263739512
 30
0.0
 10
-0.1198698013
 20
792.8376457598
 30
0.0
 10
-0.1388902313
 20
797.352649543
 30
0.0
 10
-0.4000553599
 20
800.966979601
 30
0.0
 10
-0.90647131
 20
804.5489320429
 30
0.0
 10
-1.7085253486
 20
809.1494682454
 30
0.0
 10
-0.5345828136
 20
812.8036333334
 30
0.0
 10
0.2989211759
 20
814.4849746246
 30
0.0
  0
SPLINE
  5
332
100
AcDbEntity
  8
0
100
AcDbSpline
 62
7
  6
CONTINUOUS
 70
0
 71
3
 72
13
 73
9
 74
0
 42
0.0000001
 43
0.0000001
 44
0.0000000001
 40
0.0
 40
0.0
 40
0.0
 40
0.0
 40
0.1250117756
 40
0.2500118383
 40
0.3750069898
 40
0.500013956
 40
0.7499883273
 40
1.0
 40
1.0
 40
1.0
 40
1.0
 10
0.2989583771
 20
814.4864667401
 30
0.0
 10
-4.0526443741
 20
814.4807392304
 30
0.0
 10
-12.7557151586
 20
814.4782558747
 30
0.0
 10
-25.8083217975
 20
814.6163032435
 30
0.0
 10
-38.8633190598
 20
814.7732082161
 30
0.0
 10
-56.240618523
 20
815.8565574638
 30
0.0
 10
-77.8357288024
 20
818.7579870628
 30
0.0
 10
-94.8180612054
 20
822.6986635454
 30
0.0
 10
-103.1962634863
 20
825.0533284093
 30
0.0
  0
SPLINE
  5
333
100
AcDbEntity
  8
DATUM_AXIS
100
AcDbSpline
 62
7
  6
CONTINUOUS
 70
0
 71
3
 72
19
 73
15
 74
0
 42
0.0000001
 43
0.0000001
 44
0.0000000001
 40
0.0
 40
0.0
 40
0.0
 40
0.0
 40
0.0138749526
 40
0.0435003778
 40
0.0898791061
 40
0.1515857852
 40
0.3116434545
 40
0.4999999701
 40
0.6883564907
 40
0.848414174
 40
0.9101208628
 40
0.9564996021
 40
0.9861250388
 40
1.0
 40
1.0
 40
1.0
 40
1.0
 10
368.5775652911
 20
774.9361633766
 30
0.0
 10
368.5775648462
 20
774.9850303302
 30
0.0
 10
368.7389780058
 20
775.0860231274
 30
0.0
 10
369.0215067599
 20
775.1622270728
 30
0.0
 10
369.5100780955
 20
775.2573848274
 30
0.0
 10
370.4416868091
 20
775.3683770676
 30
0.0
 10
371.8881829895
 20
775.4615314661
 30
0.0
 10
373.7775602019
 20
775.498040842
 30
0.0
 10
375.6669380832
 20
775.4615635103
 30
0.0
 10
377.1134359435
 20
775.3684336583
 30
0.0
 10
378.0450466634
 20
775.2574572037
 30
0.0
 10
378.5336197282
 20
775.1623077668
 30
0.0
 10
378.8161498821
 20
775.0861085484
 30
0.0
 10
378.9775648474
 20
774.985118568
 30
0.0
 10
378.9775652923
 20
774.936251584
 30
0.0
  0
SPLINE
  5
334
100
AcDbEntity
  8
0
100
AcDbSpline
 62
7
  6
CONTINUOUS
 70
0
 71
3
 72
11
 73
7
 74
0
 42
0.0000001
 43
0.0000001
 44
0.0000000001
 40
0.0
 40
0.0
 40
0.0
 40
0.0
 40
0.1752089255
 40
0.4086176541
 40
0.6921329216
 40
1.0
 40
1.0
 40
1.0
 40
1.0
 10
368.7436178255
 20
1349.7443934718
 30
0.0
 10
367.9783460326
 20
1349.8880629427
 30
0.0
 10
366.3598215163
 20
1350.9303845911
 30
0.0
 10
364.5749361745
 20
1353.4637661193
 30
0.0
 10
363.1559854661
 20
1356.8718346255
 30
0.0
 10
362.5978834831
 20
1359.4555015579
 30
0.0
 10
362.4235736042
 20
1360.8125357329
 30
0.0
  0
SPLINE
  5
335
100
AcDbEntity
  8
DATUM_AXIS
100
AcDbSpline
 62
7
  6
CONTINUOUS
 70
0
 71
3
 72
19
 73
15
 74
0
 42
0.0000001
 43
0.0000001
 44
0.0000000001
 40
0.0
 40
0.0
 40
0.0
 40
0.0
 40
0.0138749615
 40
0.0435003987
 40
0.0898791384
 40
0.1515858276
 40
0.3116435115
 40
0.5000000322
 40
0.6883565477
 40
0.8484142164
 40
0.9101208952
 40
0.956499623
 40
0.9861250478
 40
1.0
 40
1.0
 40
1.0
 40
1.0
 10
108.9774373301
 20
774.93396151
 30
0.0
 10
108.9774368827
 20
774.9828284952
 30
0.0
 10
108.8160219138
 20
775.0838184724
 30
0.0
 10
108.5334917556
 20
775.1600176932
 30
0.0
 10
108.0449186863
 20
775.2551671286
 30
0.0
 10
107.1133079616
 20
775.3661435833
 30
0.0
 10
105.6668100975
 20
775.4592734342
 30
0.0
 10
103.7774322144
 20
775.4957507651
 30
0.0
 10
101.8880550042
 20
775.4592413883
 30
0.0
 10
100.4415588279
 20
775.3660869886
 30
0.0
 10
99.5099501194
 20
775.2550947486
 30
0.0
 10
99.0213787887
 20
775.1599369925
 30
0.0
 10
98.7388500389
 20
775.0837330496
 30
0.0
 10
98.5774368831
 20
774.9827402492
 30
0.0
 10
98.5774373304
 20
774.9338732967
 30
0.0
  0
SPLINE
  5
336
100
AcDbEntity
  8
0
100
AcDbSpline
 62
7
  6
CONTINUOUS
 70
0
 71
3
 72
9
 73
5
 74
0
 42
0.0000001
 43
0.0000001
 44
0.0000000001
 40
0.0
 40
0.0
 40
0.0
 40
0.0
 40
0.4999999964
 40
1.0
 40
1.0
 40
1.0
 40
1.0
 10
-0.2213848552
 20
771.1885650387
 30
0.0
 10
80.2587293743
 20
771.1809145584
 30
0.0
 10
241.2189597247
 20
771.203683194
 30
0.0
 10
402.1791913824
 20
771.1805953013
 30
0.0
 10
482.6593061386
 20
771.1932300034
 30
0.0
  0
SPLINE
  5
337
100
AcDbEntity
  8
0
100
AcDbSpline
 62
7
  6
CONTINUOUS
 70
0
 71
3
 72
8
 73
4
 74
0
 42
0.0000001
 43
0.0000001
 44
0.0000000001
 40
0.0
 40
0.0
 40
0.0
 40
0.0
 40
1.0
 40
1.0
 40
1.0
 40
1.0
 10
481.4416285791
 20
814.4774895077
 30
0.0
 10
481.6361008908
 20
800.0450049901
 30
0.0
 10
482.1768972225
 20
785.6189608503
 30
0.0
 10
482.6593061386
 20
771.1932300034
 30
0.0
  0
SPLINE
  5
338
100
AcDbEntity
  8
0
100
AcDbSpline
 62
7
  6
CONTINUOUS
 70
0
 71
3
 72
9
 73
5
 74
0
 42
0.0000001
 43
0.0000001
 44
0.0000000001
 40
0.0
 40
0.0
 40
0.0
 40
0.0
 40
0.7505439102
 40
1.0
 40
1.0
 40
1.0
 40
1.0
 10
482.6593247863
 20
771.193243149
 30
0.0
 10
493.654689256
 20
771.1938976885
 30
0.0
 10
508.3045508846
 20
771.1978192261
 30
0.0
 10
522.954410897
 20
771.2048849701
 30
0.0
 10
526.6089075396
 20
771.2069353734
 30
0.0
  0
SPLINE
  5
339
100
AcDbEntity
  8
0
100
AcDbSpline
 62
7
  6
CONTINUOUS
 70
0
 71
3
 72
10
 73
6
 74
0
 42
0.0000001
 43
0.0000001
 44
0.0000000001
 40
0.0
 40
0.0
 40
0.0
 40
0.0
 40
0.2499851375
 40
0.4999752613
 40
1.0
 40
1.0
 40
1.0
 40
1.0
 10
512.9231939943
 20
814.7750839904
 30
0.0
 10
510.3005482123
 20
814.7097741675
 30
0.0
 10
505.053835745
 20
814.6417550263
 30
0.0
 10
494.5602685773
 20
814.5112487384
 30
0.0
 10
486.6891136286
 20
814.4781368396
 30
0.0
 10
481.4416247257
 20
814.4800224459
 30
0.0
  0
SPLINE
  5
33A
100
AcDbEntity
  8
0
100
AcDbSpline
 62
7
  6
CONTINUOUS
 70
0
 71
3
 72
8
 73
4
 74
0
 42
0.0000001
 43
0.0000001
 44
0.0000000001
 40
0.0
 40
0.0
 40
0.0
 40
0.0
 40
1.0
 40
1.0
 40
1.0
 40
1.0
 10
617.9901538004
 20
771.427999706
 30
0.0
 10
626.4261732449
 20
771.4685432116
 30
0.0
 10
634.8692631806
 20
771.4206859268
 30
0.0
 10
643.2952469167
 20
771.8340452416
 30
0.0
  0
SPLINE
  5
33B
100
AcDbEntity
  8
0
100
AcDbSpline
 62
7
  6
CONTINUOUS
 70
0
 71
3
 72
10
 73
6
 74
0
 42
0.0000001
 43
0.0000001
 44
0.0000000001
 40
0.0
 40
0.0
 40
0.0
 40
0.0
 40
0.2501099322
 40
0.5002182556
 40
1.0
 40
1.0
 40
1.0
 40
1.0
 10
593.6658919306
 20
829.0739401805
 30
0.0
 10
587.1799599617
 20
826.8459526154
 30
0.0
 10
573.9969312971
 20
822.99076192
 30
0.0
 10
547.1838192451
 20
817.1964044586
 30
0.0
 10
526.6228942667
 20
815.1124589662
 30
0.0
 10
512.9231954657
 20
814.7750792414
 30
0.0
  0
SPLINE
  5
33C
100
AcDbEntity
  8
0
100
AcDbSpline
 62
7
  6
CONTINUOUS
 70
0
 71
3
 72
15
 73
11
 74
0
 42
0.0000001
 43
0.0000001
 44
0.0000000001
 40
0.0
 40
0.0
 40
0.0
 40
0.0
 40
0.1250288075
 40
0.2500530655
 40
0.375059848
 40
0.5000600057
 40
0.6250386003
 40
0.7500117251
 40
0.8749963119
 40
1.0
 40
1.0
 40
1.0
 40
1.0
 10
755.7280754073
 20
1064.3135217852
 30
0.0
 10
755.727956367
 20
1051.6245022012
 30
0.0
 10
753.913777148
 20
1026.2073733014
 30
0.0
 10
745.6637344761
 20
988.9115821927
 30
0.0
 10
731.9551812459
 20
953.2484250647
 30
0.0
 10
713.010462448
 20
920.0707550743
 30
0.0
 10
689.1877140736
 20
890.1999368342
 30
0.0
 10
660.9737457183
 20
864.4256759294
 30
0.0
 10
629.0039902107
 20
843.4927120586
 30
0.0
 10
605.6631245981
 20
833.1986052273
 30
0.0
 10
593.6658876782
 20
829.0739435908
 30
0.0
  0
SPLINE
  5
33D
100
AcDbEntity
  8
0
100
AcDbSpline
 62
7
  6
CONTINUOUS
 70
0
 71
3
 72
11
 73
7
 74
0
 42
0.0000001
 43
0.0000001
 44
0.0000000001
 40
0.0
 40
0.0
 40
0.0
 40
0.0
 40
0.2028773432
 40
0.4356962797
 40
0.6983769581
 40
1.0
 40
1.0
 40
1.0
 40
1.0
 10
593.661618296
 20
829.0724333094
 30
0.0
 10
597.6778947256
 20
825.8671786764
 30
0.0
 10
605.7877542629
 20
818.3442716835
 30
0.0
 10
617.8135754038
 20
805.3644066334
 30
0.0
 10
630.6746200696
 20
789.7838459717
 30
0.0
 10
639.0218731937
 20
778.1665932847
 30
0.0
 10
643.2951735403
 20
771.8340266739
 30
0.0
  0
SPLINE
  5
33E
100
AcDbEntity
  8
0
100
AcDbSpline
 62
7
  6
CONTINUOUS
 70
0
 71
3
 72
23
 73
19
 74
0
 42
0.0000001
 43
0.0000001
 44
0.0000000001
 40
0.0
 40
0.0
 40
0.0
 40
0.0
 40
0.0624993209
 40
0.1249892944
 40
0.1874764336
 40
0.2499629076
 40
0.3124572633
 40
0.3749621109
 40
0.4374785816
 40
0.5000008118
 40
0.5625238306
 40
0.6250397175
 40
0.6875444958
 40
0.7500391317
 40
0.8125261545
 40
0.8750112281
 40
0.9375021212
 40
1.0
 40
1.0
 40
1.0
 40
1.0
 10
643.2952476488
 20
771.834037805
 30
0.0
 10
661.5779285958
 20
772.7309426549
 30
0.0
 10
698.0680260452
 20
778.0915297037
 30
0.0
 10
750.1074641719
 20
796.6497540723
 30
0.0
 10
797.5019762986
 20
825.0803748399
 30
0.0
 10
838.3887507969
 20
862.2532772517
 30
0.0
 10
871.2984304024
 20
906.6350608404
 30
0.0
 10
895.219737805
 20
956.4278892654
 30
0.0
 10
909.6202857609
 20
1009.7453330307
 30
0.0
 10
914.3492189334
 20
1064.7569442891
 30
0.0
 10
909.4655401856
 20
1119.7550307953
 30
0.0
 10
894.9102995695
 20
1173.030874149
 30
0.0
 10
870.8389871218
 20
1222.7516206487
 30
0.0
 10
837.7918137742
 20
1267.0317245462
 30
0.0
 10
796.7880286536
 20
1304.0751996204
 30
0.0
 10
749.3036351026
 20
1332.3551395347
 30
0.0
 10
697.2064289604
 20
1350.7479174355
 30
0.0
 10
660.7000190246
 20
1355.9946773704
 30
0.0
 10
642.4150397111
 20
1356.8342787252
 30
0.0
  0
SPLINE
  5
33F
100
AcDbEntity
  8
0
100
AcDbSpline
 62
7
  6
CONTINUOUS
 70
0
 71
3
 72
9
 73
5
 74
0
 42
0.0000001
 43
0.0000001
 44
0.0000000001
 40
0.0
 40
0.0
 40
0.0
 40
0.0
 40
0.4999697599
 40
1.0
 40
1.0
 40
1.0
 40
1.0
 10
642.4150389415
 20
1356.8342706216
 30
0.0
 10
639.3756362374
 20
1356.9737136718
 30
0.0
 10
633.2913160836
 20
1357.1522778096
 30
0.0
 10
627.2055317413
 20
1357.1501512305
 30
0.0
 10
624.1626075352
 20
1357.1664382619
 30
0.0
  0
SPLINE
  5
340
100
AcDbEntity
  8
0
100
AcDbSpline
 62
7
  6
CONTINUOUS
 70
0
 71
3
 72
16
 73
12
 74
0
 42
0.0000001
 43
0.0000001
 44
0.0000000001
 40
0.0
 40
0.0
 40
0.0
 40
0.0
 40
0.0625293919
 40
0.1250580192
 40
0.2500009145
 40
0.374952184
 40
0.4999162026
 40
0.6248976402
 40
0.7499030073
 40
0.8749340406
 40
1.0
 40
1.0
 40
1.0
 40
1.0
 10
580.7513743888
 20
1303.57358628
 30
0.0
 10
587.132326218
 20
1301.7814321617
 30
0.0
 10
599.7571472477
 20
1297.6753552122
 30
0.0
 10
624.1557801722
 20
1287.2660659852
 30
0.0
 10
652.8387110714
 20
1270.3656225387
 30
0.0
 10
683.3307825318
 20
1244.6106669827
 30
0.0
 10
709.182621012
 20
1214.1978501045
 30
0.0
 10
729.7961775679
 20
1180.0198254739
 30
0.0
 10
744.741219219
 20
1143.0062123378
 30
0.0
 10
753.7479903716
 20
1104.1244935393
 30
0.0
 10
755.7279964529
 20
1077.5699773826
 30
0.0
 10
755.7280754073
 20
1064.3135217852
 30
0.0
  0
SPLINE
  5
341
100
AcDbEntity
  8
0
100
AcDbSpline
 62
7
  6
CONTINUOUS
 70
0
 71
3
 72
11
 73
7
 74
0
 42
0.0000001
 43
0.0000001
 44
0.0000000001
 40
0.0
 40
0.0
 40
0.0
 40
0.0
 40
0.2086531078
 40
0.4436698273
 40
0.7047807101
 40
1.0
 40
1.0
 40
1.0
 40
1.0
 10
580.7513759131
 20
1303.5735875838
 30
0.0
 10
584.3288712772
 20
1306.7863238796
 30
0.0
 10
591.5129455939
 20
1314.0860716401
 30
0.0
 10
602.1105337822
 20
1326.4003025472
 30
0.0
 10
613.2823583677
 20
1340.8263602548
 30
0.0
 10
620.4967598567
 20
1351.4361064447
 30
0.0
 10
624.1626108821
 20
1357.1672039963
 30
0.0
  0
SPLINE
  5
342
100
AcDbEntity
  8
0
100
AcDbSpline
 62
7
  6
CONTINUOUS
 70
0
 71
3
 72
16
 73
12
 74
0
 42
0.0000001
 43
0.0000001
 44
0.0000000001
 40
0.0
 40
0.0
 40
0.0
 40
0.0
 40
0.1242293869
 40
0.2484589364
 40
0.3726882733
 40
0.4969318457
 40
0.6211732072
 40
0.6834643256
 40
0.7461229838
 40
0.8708041577
 40
1.0
 40
1.0
 40
1.0
 40
1.0
 10
477.7770352398
 20
1357.4377980614
 30
0.0
 10
477.7771248042
 20
1355.6336799779
 30
0.0
 10
477.7690148757
 20
1352.0254149562
 30
0.0
 10
477.7800817082
 20
1346.6131877874
 30
0.0
 10
477.8112215866
 20
1341.2002122824
 30
0.0
 10
477.6754231638
 20
1335.78900468
 30
0.0
 10
477.6944463257
 20
1331.2740960284
 30
0.0
 10
477.9547508631
 20
1327.6598302825
 30
0.0
 10
478.4600483281
 20
1324.077841913
 30
0.0
 10
479.2588467421
 20
1319.4776481044
 30
0.0
 10
478.0878984123
 20
1315.8239266653
 30
0.0
 10
477.2564711977
 20
1314.1419582545
 30
0.0
  0
SPLINE
  5
343
100
AcDbEntity
  8
0
100
AcDbSpline
 62
7
  6
CONTINUOUS
 70
0
 71
3
 72
13
 73
9
 74
0
 42
0.0000001
 43
0.0000001
 44
0.0000000001
 40
0.0
 40
0.0
 40
0.0
 40
0.0
 40
0.1250117827
 40
0.2500118438
 40
0.3750069935
 40
0.5000139565
 40
0.7499883246
 40
1.0
 40
1.0
 40
1.0
 40
1.0
 10
477.2564351323
 20
1314.1404730887
 30
0.0
 10
481.6080268018
 20
1314.1457964928
 30
0.0
 10
490.3110733765
 20
1314.1488623035
 30
0.0
 10
503.3636447447
 20
1314.0105775244
 30
0.0
 10
516.4186066723
 20
1313.853730348
 30
0.0
 10
533.7958546633
 20
1312.7703212561
 30
0.0
 10
555.3909150421
 20
1309.8689171307
 30
0.0
 10
572.3731555193
 20
1305.9281010179
 30
0.0
 10
580.7513758583
 20
1303.5735875997
 30
0.0
  0
SPLINE
  5
344
100
AcDbEntity
  8
0
100
AcDbSpline
 62
7
  6
CONTINUOUS
 70
0
 71
3
 72
10
 73
6
 74
0
 42
0.0000001
 43
0.0000001
 44
0.0000000001
 40
0.0
 40
0.0
 40
0.0
 40
0.0
 40
0.4377119423
 40
0.7120177992
 40
1.0
 40
1.0
 40
1.0
 40
1.0
 10
105.686291299
 20
1350.0698340856
 30
0.0
 10
107.7123395774
 20
1350.3144565254
 30
0.0
 10
110.6193068677
 20
1352.7599943363
 30
0.0
 10
112.7222226483
 20
1356.8793212319
 30
0.0
 10
113.3716960546
 20
1359.4639864022
 30
0.0
 10
113.5354103522
 20
1360.796639399
 30
0.0
  0
SPLINE
  5
345
100
AcDbEntity
  8
0
100
AcDbSpline
 62
7
  6
CONTINUOUS
 70
0
 71
3
 72
11
 73
7
 74
0
 42
0.0000001
 43
0.0000001
 44
0.0000000001
 40
0.0
 40
0.0
 40
0.0
 40
0.0
 40
0.2503036295
 40
0.5006313145
 40
0.750598648
 40
1.0
 40
1.0
 40
1.0
 40
1.0
 10
98.980380851
 20
1351.4829242884
 30
0.0
 10
100.4137361042
 20
1351.4893989205
 30
0.0
 10
103.3042986114
 20
1352.0256737247
 30
0.0
 10
107.0605979777
 20
1354.2945259288
 30
0.0
 10
109.7826439164
 20
1357.7305833353
 30
0.0
 10
110.6715980698
 20
1360.5262505563
 30
0.0
 10
110.8529055505
 20
1361.942898465
 30
0.0
  0
SPLINE
  5
346
100
AcDbEntity
  8
_SURFACE
100
AcDbSpline
 62
7
  6
CONTINUOUS
 70
0
 71
3
 72
10
 73
6
 74
0
 42
0.0000001
 43
0.0000001
 44
0.0000000001
 40
0.0
 40
0.0
 40
0.0
 40
0.0
 40
0.3268592805
 40
0.6603145017
 40
1.0
 40
1.0
 40
1.0
 40
1.0
 10
-111.2223995624
 20
1371.5606830562
 30
0.0
 10
-89.4324714478
 20
1371.7464497495
 30
0.0
 10
-45.4118854641
 20
1372.0185813895
 30
0.0
 10
21.2551531723
 20
1372.0836973654
 30
0.0
 10
66.1313462708
 20
1372.1467406218
 30
0.0
 10
88.7771411058
 20
1372.1683227813
 30
0.0
  0
LINE
  5
347
100
AcDbEntity
  8
_SURFACE
100
AcDbLine
 62
7
  6
CONTINUOUS
 10
588.7737206978
 20
1461.9673691161
 11
-111.218170199
 21
1461.9673516006
  0
SPLINE
  5
348
100
AcDbEntity
  8
_SURFACE
100
AcDbSpline
 62
7
  6
CONTINUOUS
 70
0
 71
3
 72
10
 73
6
 74
0
 42
0.0000001
 43
0.0000001
 44
0.0000000001
 40
0.0
 40
0.0
 40
0.0
 40
0.0
 40
0.3405189152
 40
0.673952886
 40
1.0
 40
1.0
 40
1.0
 40
1.0
 10
388.7771411063
 20
1372.1687638074
 30
0.0
 10
411.4786046327
 20
1372.1473251545
 30
0.0
 10
456.4091555114
 20
1372.0844385865
 30
0.0
 10
523.0765030291
 20
1372.0174882426
 30
0.0
 10
567.041741066
 20
1371.7456712365
 30
0.0
 10
588.7776111333
 20
1371.5582762277
 30
0.0
  0
SPLINE
  5
349
100
AcDbEntity
  8
_SURFACE
100
AcDbSpline
 62
7
  6
CONTINUOUS
 70
0
 71
3
 72
10
 73
6
 74
0
 42
0.0000001
 43
0.0000001
 44
0.0000000001
 40
0.0
 40
0.0
 40
0.0
 40
0.0
 40
0.3172023126
 40
0.6505741241
 40
1.0
 40
1.0
 40
1.0
 40
1.0
 10
588.7777307609
 20
757.0679830332
 30
0.0
 10
514.7663978144
 20
756.4327124612
 30
0.0
 10
362.9623792902
 20
756.4379786588
 30
0.0
 10
129.630943801
 20
756.4485997047
 30
0.0
 10
-29.6925517745
 20
756.3468918796
 30
0.0
 10
-111.2222920723
 20
757.0657833966
 30
0.0
  0
LINE
  5
34A
100
AcDbEntity
  8
_SURFACE
100
AcDbLine
 62
7
  6
CONTINUOUS
 10
-111.2179718261
 20
666.658677605
 11
588.7735763534
 21
666.6586951204
  0
SPLINE
  5
34B
100
AcDbEntity
  8
_SURFACE
100
AcDbSpline
 62
7
  6
CONTINUOUS
 70
0
 71
3
 72
12
 73
8
 74
0
 42
0.0000001
 43
0.0000001
 44
0.0000000001
 40
0.0
 40
0.0
 40
0.0
 40
0.0
 40
0.1125914724
 40
0.2251697996
 40
0.4834479669
 40
0.7417272618
 40
1.0
 40
1.0
 40
1.0
 40
1.0
 10
-137.5390503469
 20
1371.3333948684
 30
0.0
 10
-136.5513040782
 20
1371.332281019
 30
0.0
 10
-134.5760242039
 20
1371.3432679475
 30
0.0
 10
-130.3352036506
 20
1371.3916356339
 30
0.0
 10
-124.8162769002
 20
1371.4391891715
 30
0.0
 10
-118.0193143557
 20
1371.5016379774
 30
0.0
 10
-113.488005322
 20
1371.5417772963
 30
0.0
 10
-111.2223679801
 20
1371.5604530721
 30
0.0
  0
SPLINE
  5
34C
100
AcDbEntity
  8
_SURFACE
100
AcDbSpline
 62
7
  6
CONTINUOUS
 70
0
 71
3
 72
85
 73
81
 74
0
 42
0.0000001
 43
0.0000001
 44
0.0000000001
 40
0.0
 40
0.0
 40
0.0
 40
0.0
 40
0.0016695218
 40
0.0147117839
 40
0.0276892248
 40
0.0407139871
 40
0.0537856067
 40
0.0669039411
 40
0.0799669324
 40
0.0930113017
 40
0.1060564744
 40
0.1191024001
 40
0.1319501932
 40
0.1448472061
 40
0.1577956248
 40
0.1707980005
 40
0.1838572576
 40
0.1969767012
 40
0.2101600232
 40
0.2234113073
 40
0.2365601294
 40
0.2495668094
 40
0.2625479326
 40
0.2755820784
 40
0.2886670066
 40
0.3018006677
 40
0.3148628882
 40
0.3279087175
 40
0.3407569289
 40
0.353645262
 40
0.3665729032
 40
0.379539283
 40
0.3925440884
 40
0.4055872753
 40
0.4186690804
 40
0.4317900339
 40
0.4449509706
 40
0.4581530416
 40
0.4713977254
 40
0.4845075813
 40
0.4975289435
 40
0.5105393039
 40
0.5235781184
 40
0.5366447329
 40
0.5497384382
 40
0.5627201007
 40
0.5756466682
 40
0.5885972044
 40
0.6015709518
 40
0.6145671628
 40
0.627585112
 40
0.640624108
 40
0.6536835053
 40
0.6667627159
 40
0.6798612213
 40
0.6929785835
 40
0.7061144574
 40
0.7192686017
 40
0.7324408903
 40
0.7455062381
 40
0.7585374635
 40
0.771567775
 40
0.7846128189
 40
0.7976720481
 40
0.8107448643
 40
0.82377044
 40
0.8367662938
 40
0.8497735741
 40
0.8627916071
 40
0.8758197238
 40
0.8888572708
 40
0.9019036209
 40
0.9149581839
 40
0.9280204171
 40
0.9410898359
 40
0.9541660246
 40
0.9672486469
 40
0.9803374566
 40
0.9934323079
 40
1.0
 40
1.0
 40
1.0
 40
1.0
 10
-137.5390503469
 20
1371.3333948684
 30
0.0
 10
-137.8289169684
 20
1371.3335784723
 30
0.0
 10
-140.3831542035
 20
1371.342163101
 30
0.0
 10
-145.1897008364
 20
1371.4533145802
 30
0.0
 10
-151.9689349011
 20
1371.4465993958
 30
0.0
 10
-158.752656929
 20
1371.3790569026
 30
0.0
 10
-165.5594269209
 20
1371.2176165666
 30
0.0
 10
-172.3700581169
 20
1370.9659587849
 30
0.0
 10
-179.1717913029
 20
1370.6188454805
 30
0.0
 10
-185.9551292822
 20
1370.1742744471
 30
0.0
 10
-192.7281140414
 20
1369.6283980883
 30
0.0
 10
-199.4578881818
 20
1368.9810880768
 30
0.0
 10
-206.1510136832
 20
1368.2301874288
 30
0.0
 10
-212.814330273
 20
1367.3731625547
 30
0.0
 10
-219.4889871533
 20
1366.4011363803
 30
0.0
 10
-226.1737709002
 20
1365.3099842795
 30
0.0
 10
-232.8674684278
 20
1364.0955843755
 30
0.0
 10
-239.5688611407
 20
1362.7538024536
 30
0.0
 10
-246.2767487851
 20
1361.2805499335
 30
0.0
 10
-252.9603269472
 20
1359.6786440954
 30
0.0
 10
-259.5822103918
 20
1357.956059039
 30
0.0
 10
-266.1204794406
 20
1356.1044115224
 30
0.0
 10
-272.5993586545
 20
1354.1217120418
 30
0.0
 10
-279.0477885819
 20
1351.9982148187
 30
0.0
 10
-285.4746041663
 20
1349.7293162742
 30
0.0
 10
-291.8559231533
 20
1347.3215708021
 30
0.0
 10
-298.1777227781
 20
1344.7797758926
 30
0.0
 10
-304.3977604559
 20
1342.1219311223
 30
0.0
 10
-310.5317567111
 20
1339.3435526326
 30
0.0
 10
-316.5861385235
 20
1336.4428686914
 30
0.0
 10
-322.5944465218
 20
1333.4021793306
 30
0.0
 10
-328.5524568004
 20
1330.2208895213
 30
0.0
 10
-334.4559442931
 20
1326.8984044299
 30
0.0
 10
-340.300683653
 20
1323.4341287903
 30
0.0
 10
-346.0824494408
 20
1319.8274676524
 30
0.0
 10
-351.7970142669
 20
1316.0778241268
 30
0.0
 10
-357.4401558489
 20
1312.1846078446
 30
0.0
 10
-363.0076303103
 20
1308.1472034265
 30
0.0
 10
-368.4705162386
 20
1303.9839553016
 30
0.0
 10
-373.8076531767
 20
1299.710714375
 30
0.0
 10
-379.0107943697
 20
1295.338302783
 30
0.0
 10
-384.1010593957
 20
1290.8536439494
 30
0.0
 10
-389.0916254981
 20
1286.2467133062
 30
0.0
 10
-393.9848887211
 20
1281.515726757
 30
0.0
 10
-398.76112673
 20
1276.6805666482
 30
0.0
 10
-403.4092722942
 20
1271.755551174
 30
0.0
 10
-407.9286540177
 20
1266.7455598655
 30
0.0
 10
-412.3337672241
 20
1261.6366232058
 30
0.0
 10
-416.6311988222
 20
1256.4211068312
 30
0.0
 10
-420.818252727
 20
1251.1016667453
 30
0.0
 10
-424.8922324794
 20
1245.6809589513
 30
0.0
 10
-428.8504414022
 20
1240.1616392906
 30
0.0
 10
-432.6901825758
 20
1234.5463635106
 30
0.0
 10
-436.4087587436
 20
1228.8377872216
 30
0.0
 10
-440.0034726765
 20
1223.0385660653
 30
0.0
 10
-443.471625764
 20
1217.1513551518
 30
0.0
 10
-446.8105232475
 20
1211.1788112177
 30
0.0
 10
-450.0174546061
 20
1205.1235846176
 30
0.0
 10
-453.0800418103
 20
1199.0077697353
 30
0.0
 10
-455.9930918408
 20
1192.8429403695
 30
0.0
 10
-458.7560685179
 20
1186.6363937314
 30
0.0
 10
-461.3779157472
 20
1180.3727535201
 30
0.0
 10
-463.8612540621
 20
1174.047700359
 30
0.0
 10
-466.2060975691
 20
1167.6621487739
 30
0.0
 10
-468.4079871308
 20
1161.2294802206
 30
0.0
 10
-470.4644050661
 20
1154.7603952666
 30
0.0
 10
-472.3755773814
 20
1148.2587874678
 30
0.0
 10
-474.1441419826
 20
1141.7183058281
 30
0.0
 10
-475.7710971242
 20
1135.1353983829
 30
0.0
 10
-477.2553932613
 20
1128.5134787566
 30
0.0
 10
-478.5959805777
 20
1121.8559606398
 30
0.0
 10
-479.7918090217
 20
1115.1662576813
 30
0.0
 10
-480.8418283088
 20
1108.4477834952
 30
0.0
 10
-481.7449878608
 20
1101.7039518024
 30
0.0
 10
-482.5002370318
 20
1094.9381759239
 30
0.0
 10
-483.1065242429
 20
1088.1538707355
 30
0.0
 10
-483.5628001988
 20
1081.3544454235
 30
0.0
 10
-483.8680058558
 20
1074.5433306068
 30
0.0
 10
-483.9956543113
 20
1068.8579784223
 30
0.0
 10
-484.0147146435
 20
1065.4441523262
 30
0.0
 10
-484.0146377621
 20
1064.3038764887
 30
0.0
  0
SPLINE
  5
34D
100
AcDbEntity
  8
_SURFACE
100
AcDbSpline
 62
7
  6
CONTINUOUS
 70
0
 71
3
 72
85
 73
81
 74
0
 42
0.0000001
 43
0.0000001
 44
0.0000000001
 40
0.0
 40
0.0
 40
0.0
 40
0.0
 40
0.0015829338
 40
0.0144490523
 40
0.0273628419
 40
0.0403235335
 40
0.0533306581
 40
0.0663840617
 40
0.0794839196
 40
0.0926307508
 40
0.1058254326
 40
0.1190692133
 40
0.1321205838
 40
0.1451719778
 40
0.1582053566
 40
0.1711615705
 40
0.184174321
 40
0.1972468837
 40
0.2103829155
 40
0.2234683644
 40
0.2361757446
 40
0.2492166071
 40
0.2621063224
 40
0.2750484005
 40
0.2880406415
 40
0.3010810298
 40
0.3141677483
 40
0.3272991927
 40
0.3404739858
 40
0.3536909915
 40
0.3669493293
 40
0.380000512
 40
0.3930517143
 40
0.4061373322
 40
0.4191397843
 40
0.4321809129
 40
0.4452615454
 40
0.4583828179
 40
0.4714407921
 40
0.4843766042
 40
0.4972807346
 40
0.5102135579
 40
0.5231745041
 40
0.5361629344
 40
0.5491781552
 40
0.562219431
 40
0.5752859978
 40
0.5883770759
 40
0.6014918832
 40
0.6146296474
 40
0.6277896192
 40
0.6409710844
 40
0.6541577752
 40
0.6671727747
 40
0.6802068568
 40
0.6932595912
 40
0.7063306383
 40
0.7194164131
 40
0.7324667634
 40
0.7454450166
 40
0.758423089
 40
0.7714162876
 40
0.7844241353
 40
0.7974460925
 40
0.8104815687
 40
0.8235299334
 40
0.8365905273
 40
0.8496626739
 40
0.8627456899
 40
0.875838897
 40
0.8889416321
 40
0.9020532588
 40
0.9151731781
 40
0.9282241346
 40
0.9412675296
 40
0.9543176636
 40
0.9673742018
 40
0.9804368985
 40
0.9934912125
 40
1.0
 40
1.0
 40
1.0
 40
1.0
 10
-137.572037549
 20
757.2936322177
 30
0.0
 10
-137.8468431961
 20
757.2934585118
 30
0.0
 10
-140.3552170191
 20
757.2852217207
 30
0.0
 10
-145.1046196933
 20
757.1742885392
 30
0.0
 10
-151.8304245883
 20
757.1796314838
 30
0.0
 10
-158.5801240444
 20
757.2446558664
 30
0.0
 10
-165.3526942541
 20
757.4026747749
 30
0.0
 10
-172.1467058534
 20
757.6505070596
 30
0.0
 10
-178.9608384774
 20
757.9948037885
 30
0.0
 10
-185.7937422518
 20
758.4395679916
 30
0.0
 10
-192.6440743908
 20
758.989516575
 30
0.0
 10
-199.4684733076
 20
759.6451383285
 30
0.0
 10
-206.256736752
 20
760.4076139332
 30
0.0
 10
-212.9953505397
 20
761.276815317
 30
0.0
 10
-219.7020184056
 20
762.2571382845
 30
0.0
 10
-226.3841914079
 20
763.3517807565
 30
0.0
 10
-233.0527537758
 20
764.565203942
 30
0.0
 10
-239.7289067668
 20
765.9051692632
 30
0.0
 10
-246.3914404961
 20
767.3713016804
 30
0.0
 10
-252.9634188044
 20
768.9482997541
 30
0.0
 10
-259.488645004
 20
770.6443913699
 30
0.0
 10
-265.9439653763
 20
772.4687494882
 30
0.0
 10
-272.3985648577
 20
774.4398814092
 30
0.0
 10
-278.8023604011
 20
776.5434473192
 30
0.0
 10
-285.185015962
 20
778.7903711277
 30
0.0
 10
-291.541969555
 20
781.1813322689
 30
0.0
 10
-297.8686698601
 20
783.7169579146
 30
0.0
 10
-304.1605623016
 20
786.3978896335
 30
0.0
 10
-310.4130930542
 20
789.2247655876
 30
0.0
 10
-316.6217068486
 20
792.1982247514
 30
0.0
 10
-322.7434611918
 20
795.2994596638
 30
0.0
 10
-328.7691680306
 20
798.5228059439
 30
0.0
 10
-334.6954057932
 20
801.8649626621
 30
0.0
 10
-340.5376493932
 20
805.3353556844
 30
0.0
 10
-346.2982694565
 20
808.9363192498
 30
0.0
 10
-351.9745101486
 20
812.6673266313
 30
0.0
 10
-357.5800860484
 20
816.5401185147
 30
0.0
 10
-363.0960266793
 20
820.5445480045
 30
0.0
 10
-368.4962172691
 20
824.6624302398
 30
0.0
 10
-373.7682312233
 20
828.8831167589
 30
0.0
 10
-378.9231649529
 20
833.2122977254
 30
0.0
 10
-383.9795410899
 20
837.6627872798
 30
0.0
 10
-388.9426197004
 20
842.2386981509
 30
0.0
 10
-393.8096332261
 20
846.9372677834
 30
0.0
 10
-398.5777965533
 20
851.755755337
 30
0.0
 10
-403.2443289844
 20
856.6914144093
 30
0.0
 10
-407.8064483276
 20
861.7415003472
 30
0.0
 10
-412.2613724791
 20
866.9032682598
 30
0.0
 10
-416.6063190007
 20
872.1739735463
 30
0.0
 10
-420.8385052007
 20
877.5508716952
 30
0.0
 10
-424.9551482084
 20
883.0312184797
 30
0.0
 10
-428.9518870676
 20
888.6100673544
 30
0.0
 10
-432.8073275854
 20
894.2570354194
 30
0.0
 10
-436.5209949657
 20
899.9677130361
 30
0.0
 10
-440.0938677015
 20
905.7401906554
 30
0.0
 10
-443.5413932073
 20
911.599690738
 30
0.0
 10
-446.8606359732
 20
917.5430881825
 30
0.0
 10
-450.044633978
 20
923.5595591916
 30
0.0
 10
-453.084472136
 20
929.6321299548
 30
0.0
 10
-455.9780421716
 20
935.7550606726
 30
0.0
 10
-458.7292388599
 20
941.9324016003
 30
0.0
 10
-461.3438030823
 20
948.1743657087
 30
0.0
 10
-463.8217610057
 20
954.479990581
 30
0.0
 10
-466.1620571833
 20
960.8458094268
 30
0.0
 10
-468.3636283268
 20
967.2683590306
 30
0.0
 10
-470.4254129414
 20
973.7441753364
 30
0.0
 10
-472.3463487409
 20
980.2697946171
 30
0.0
 10
-474.1253733414
 20
986.8417531436
 30
0.0
 10
-475.7614240766
 20
993.4565872662
 30
0.0
 10
-477.2534380423
 20
1000.1108333526
 30
0.0
 10
-478.6003520977
 20
1006.8010278896
 30
0.0
 10
-479.8011028098
 20
1013.5237070754
 30
0.0
 10
-480.8525735177
 20
1020.2622503226
 30
0.0
 10
-481.7543727616
 20
1027.0104949888
 30
0.0
 10
-482.5066570199
 20
1033.7648511688
 30
0.0
 10
-483.1103393625
 20
1040.5350830463
 30
0.0
 10
-483.5646620263
 20
1047.3203422079
 30
0.0
 10
-483.8684629677
 20
1054.1147233709
 30
0.0
 10
-483.9954268054
 20
1059.7777187034
 30
0.0
 10
-484.0145881016
 20
1063.1739398349
 30
0.0
 10
-484.0146377621
 20
1064.3038764887
 30
0.0
  0
SPLINE
  5
34E
100
AcDbEntity
  8
_SURFACE
100
AcDbSpline
 62
7
  6
CONTINUOUS
 70
0
 71
3
 72
12
 73
8
 74
0
 42
0.0000001
 43
0.0000001
 44
0.0000000001
 40
0.0
 40
0.0
 40
0.0
 40
0.0
 40
0.257948756
 40
0.5159042044
 40
0.7738592183
 40
0.8871323675
 40
1.0
 40
1.0
 40
1.0
 40
1.0
 10
-111.2223963053
 20
757.0655785869
 30
0.0
 10
-113.4880266015
 20
757.0841967502
 30
0.0
 10
-118.0193209062
 20
757.1243933335
 30
0.0
 10
-124.8162680645
 20
757.1869281278
 30
0.0
 10
-130.3425317241
 20
757.2341941727
 30
0.0
 10
-134.5943467142
 20
757.2833745928
 30
0.0
 10
-136.5806276532
 20
757.2946889151
 30
0.0
 10
-137.572037549
 20
757.2936322177
 30
0.0
  0
LINE
  5
34F
100
AcDbEntity
  8
_SURFACE
100
AcDbLine
 62
7
  6
CONTINUOUS
 10
-136.2221825187
 20
666.6584741348
 11
-111.217971826
 21
666.6586742806
  0
SPLINE
  5
350
100
AcDbEntity
  8
_SURFACE
100
AcDbSpline
 62
7
  6
CONTINUOUS
 70
0
 71
3
 72
117
 73
113
 74
0
 42
0.0000001
 43
0.0000001
 44
0.0000000001
 40
0.0
 40
0.0
 40
0.0
 40
0.0
 40
0.0213994687
 40
0.041316034
 40
0.0597795702
 40
0.0768271544
 40
0.0925349491
 40
0.1070127723
 40
0.1203767494
 40
0.1327403733
 40
0.1442243508
 40
0.1549200499
 40
0.164778156
 40
0.1737725836
 40
0.1819920267
 40
0.1895287551
 40
0.1964693718
 40
0.2029035353
 40
0.2089210565
 40
0.2146119148
 40
0.2200476239
 40
0.2252553027
 40
0.2302362638
 40
0.2349726866
 40
0.239392959
 40
0.2434221906
 40
0.2469219262
 40
0.2499912825
 40
0.2527885344
 40
0.2554733021
 40
0.2581808962
 40
0.2609059893
 40
0.2636266087
 40
0.2663002588
 40
0.2689900964
 40
0.2718356835
 40
0.2749848078
 40
0.2785441973
 40
0.2825252917
 40
0.2869698171
 40
0.2919355942
 40
0.2974953746
 40
0.3037141643
 40
0.3105582471
 40
0.3178873648
 40
0.3256377373
 40
0.333930066
 40
0.3429103269
 40
0.3527249617
 40
0.3635218047
 40
0.375437234
 40
0.3884224188
 40
0.4025313368
 40
0.4179685797
 40
0.4349520072
 40
0.4537719321
 40
0.474599545
 40
0.4968018896
 40
0.5197437557
 40
0.5430392129
 40
0.5640984673
 40
0.5825948323
 40
0.5992469807
 40
0.6144522276
 40
0.6281519988
 40
0.6404867568
 40
0.6516390328
 40
0.661768873
 40
0.6710083406
 40
0.6794835997
 40
0.6873151115
 40
0.6946327283
 40
0.701456791
 40
0.7077232147
 40
0.7134465486
 40
0.7186521837
 40
0.7233661914
 40
0.7276159866
 40
0.7314819728
 40
0.7350879968
 40
0.7385622989
 40
0.7420070201
 40
0.7454416806
 40
0.748888787
 40
0.7523361461
 40
0.7558480835
 40
0.7595128731
 40
0.7634410755
 40
0.7676614506
 40
0.7721540864
 40
0.7767895887
 40
0.7813832113
 40
0.7859427257
 40
0.7904922262
 40
0.7952226281
 40
0.8003466956
 40
0.8060680014
 40
0.812462738
 40
0.8195061127
 40
0.8271676864
 40
0.8355688944
 40
0.8450440381
 40
0.8557753202
 40
0.8672849769
 40
0.8795717816
 40
0.8928360533
 40
0.9072863645
 40
0.9230898125
 40
0.9401639604
 40
0.95857539
 40
0.9784680389
 40
1.0
 40
1.0
 40
1.0
 40
1.0
 10
-111.2181701989
 20
1461.9673540011
 30
0.0
 10
-122.1590834167
 20
1461.9673537639
 30
0.0
 10
-143.2827453364
 20
1461.9675759708
 30
0.0
 10
-173.8462653123
 20
1461.9685056099
 30
0.0
 10
-202.1847958459
 20
1461.9698833469
 30
0.0
 10
-228.3715068612
 20
1461.9715440329
 30
0.0
 10
-252.5204410969
 20
1461.9733207359
 30
0.0
 10
-274.7860563764
 20
1461.9751398329
 30
0.0
 10
-295.3418963884
 20
1461.9769381868
 30
0.0
 10
-314.3670719639
 20
1461.978680848
 30
0.0
 10
-332.0280362088
 20
1461.9802868646
 30
0.0
 10
-348.4080035493
 20
1461.9817406903
 30
0.0
 10
-363.5151379046
 20
1461.9830605759
 30
0.0
 10
-377.3562360251
 20
1461.9842624851
 30
0.0
 10
-390.0104827688
 20
1461.9852575651
 30
0.0
 10
-401.61467665
 20
1461.9862903285
 30
0.0
 10
-412.3061111447
 20
1461.9867851229
 30
0.0
 10
-422.2208165132
 20
1461.9880688867
 30
0.0
 10
-431.4965694581
 20
1461.9884209164
 30
0.0
 10
-440.2618016289
 20
1461.9866933404
 30
0.0
 10
-448.6131264994
 20
1461.9953953246
 30
0.0
 10
-456.6010024429
 20
1461.9895276024
 30
0.0
 10
-464.2330769429
 20
1461.9532615647
 30
0.0
 10
-471.4566533955
 20
1462.0814430102
 30
0.0
 10
-478.213619057
 20
1461.6655728759
 30
0.0
 10
-484.1501346352
 20
1460.0668370926
 30
0.0
 10
-489.1140284132
 20
1457.8532167347
 30
0.0
 10
-493.1999482858
 20
1455.3313892087
 30
0.0
 10
-496.6266541099
 20
1452.6006077891
 30
0.0
 10
-499.5866984814
 20
1449.6266033295
 30
0.0
 10
-502.1701685624
 20
1446.3674498165
 30
0.0
 10
-504.3866938093
 20
1442.8270354898
 30
0.0
 10
-506.1912396124
 20
1439.0789961399
 30
0.0
 10
-507.5617740851
 20
1435.1707775043
 30
0.0
 10
-508.4850065679
 20
1431.0649888143
 30
0.0
 10
-508.8919930714
 20
1426.6339112273
 30
0.0
 10
-508.9313071487
 20
1421.7478929179
 30
0.0
 10
-508.8746859953
 20
1416.2831330094
 30
0.0
 10
-508.8945763144
 20
1410.1553875292
 30
0.0
 10
-508.9063530476
 20
1403.3088293837
 30
0.0
 10
-508.8986692731
 20
1395.6550504178
 30
0.0
 10
-508.8982474222
 20
1387.0941692022
 30
0.0
 10
-508.8998403363
 20
1377.5729574658
 30
0.0
 10
-508.8984939829
 20
1367.1471387641
 30
0.0
 10
-508.898631187
 20
1355.9382663952
 30
0.0
 10
-508.8981091305
 20
1343.9889491136
 30
0.0
 10
-508.8977265971
 20
1331.1954512698
 30
0.0
 10
-508.8971755608
 20
1317.3465574279
 30
0.0
 10
-508.8965181032
 20
1302.2171797748
 30
0.0
 10
-508.895674339
 20
1285.5871375944
 30
0.0
 10
-508.8945868954
 20
1267.336087288
 30
0.0
 10
-508.8932132424
 20
1247.391671347
 30
0.0
 10
-508.8914282252
 20
1225.6466566926
 30
0.0
 10
-508.8891097941
 20
1201.8574592679
 30
0.0
 10
-508.886169311
 20
1175.6596639075
 30
0.0
 10
-508.8826012904
 20
1146.7059323807
 30
0.0
 10
-508.8789479721
 20
1115.0839234642
 30
0.0
 10
-508.8764587743
 20
1081.3544882029
 30
0.0
 10
-508.87647294
 20
1046.3633173115
 30
0.0
 10
-508.879072642
 20
1011.9565745921
 30
0.0
 10
-508.8828421694
 20
979.8226847961
 30
0.0
 10
-508.8863954369
 20
951.0853216038
 30
0.0
 10
-508.8892796725
 20
925.340938641
 30
0.0
 10
-508.8915184567
 20
902.0489116653
 30
0.0
 10
-508.8932296559
 20
880.9642381944
 30
0.0
 10
-508.8945328187
 20
861.9517284473
 30
0.0
 10
-508.895554547
 20
844.7644184563
 30
0.0
 10
-508.8963600475
 20
829.1596386009
 30
0.0
 10
-508.8969988867
 20
814.9235380015
 30
0.0
 10
-508.8975234427
 20
801.8625044679
 30
0.0
 10
-508.8979428213
 20
789.7840562074
 30
0.0
 10
-508.898342391
 20
778.5498156945
 30
0.0
 10
-508.8986289331
 20
768.1157582317
 30
0.0
 10
-508.8987118748
 20
758.4968104175
 30
0.0
 10
-508.8997264293
 20
749.7053161406
 30
0.0
 10
-508.8984735668
 20
741.7075275421
 30
0.0
 10
-508.8980947474
 20
734.4631110881
 30
0.0
 10
-508.9040362806
 20
727.9036315621
 30
0.0
 10
-508.9024143197
 20
721.9105900501
 30
0.0
 10
-508.8873289865
 20
716.3141706746
 30
0.0
 10
-508.8804823087
 20
710.9327208972
 30
0.0
 10
-508.9439613933
 20
705.6403018851
 30
0.0
 10
-508.8311748826
 20
700.3568214729
 30
0.0
 10
-508.0583130346
 20
695.1114684401
 30
0.0
 10
-506.4377583968
 20
690.021591712
 30
0.0
 10
-504.0664047974
 20
685.1153624516
 30
0.0
 10
-500.8667353592
 20
680.39917103
 30
0.0
 10
-496.7161918993
 20
675.9740655915
 30
0.0
 10
-491.5300703605
 20
672.0610019047
 30
0.0
 10
-485.4130833318
 20
668.9577788878
 30
0.0
 10
-478.6207435435
 20
666.9864456884
 30
0.0
 10
-471.5525745936
 20
666.5460256503
 30
0.0
 10
-464.551713883
 20
666.6680293864
 30
0.0
 10
-457.4747132346
 20
666.6409761653
 30
0.0
 10
-450.1107764557
 20
666.6296750395
 30
0.0
 10
-442.1472304128
 20
666.6380676115
 30
0.0
 10
-433.332909975
 20
666.6382592272
 30
0.0
 10
-423.5372572797
 20
666.6375074759
 30
0.0
 10
-412.7496181712
 20
666.6392891202
 30
0.0
 10
-400.9361251317
 20
666.6397614386
 30
0.0
 10
-387.8793422508
 20
666.6409871525
 30
0.0
 10
-373.2531081215
 20
666.6421388705
 30
0.0
 10
-357.0376166144
 20
666.6435567702
 30
0.0
 10
-339.3846062297
 20
666.6450962988
 30
0.0
 10
-320.4365534641
 20
666.6467898918
 30
0.0
 10
-299.9850313005
 20
666.6486350106
 30
0.0
 10
-277.7355538066
 20
666.6506040621
 30
0.0
 10
-253.5381996619
 20
666.652600203
 30
0.0
 10
-227.3156432789
 20
666.654577446
 30
0.0
 10
-199.0023998195
 20
666.6563528912
 30
0.0
 10
-168.4100087632
 20
666.657744834
 30
0.0
 10
-147.2308351586
 20
666.658298461
 30
0.0
 10
-136.2221825187
 20
666.6584741348
 30
0.0
  0
SPLINE
  5
351
100
AcDbEntity
  8
_SURFACE
100
AcDbSpline
 62
7
  6
CONTINUOUS
 70
0
 71
3
 72
11
 73
7
 74
0
 42
0.0000001
 43
0.0000001
 44
0.0000000001
 40
0.0
 40
0.0
 40
0.0
 40
0.0
 40
0.30349257
 40
0.6069785234
 40
0.910463152
 40
1.0
 40
1.0
 40
1.0
 40
1.0
 10
588.7776407957
 20
1371.5604733269
 30
0.0
 10
591.0433795023
 20
1371.5411226294
 30
0.0
 10
595.5748041875
 20
1371.5019702796
 30
0.0
 10
602.3718677201
 20
1371.4391215052
 30
0.0
 10
607.5716800922
 20
1371.3944065565
 30
0.0
 10
610.5057276341
 20
1371.3617454034
 30
0.0
 10
611.1741604682
 20
1371.3550746014
 30
0.0
  0
LINE
  5
352
100
AcDbEntity
  8
_SURFACE
100
AcDbLine
 62
7
  6
CONTINUOUS
 10
613.7777975807
 20
1461.9675716888
 11
588.7737206977
 21
1461.9673715167
  0
SPLINE
  5
353
100
AcDbEntity
  8
_SURFACE
100
AcDbSpline
 62
7
  6
CONTINUOUS
 70
0
 71
3
 72
93
 73
89
 74
0
 42
0.0000001
 43
0.0000001
 44
0.0000000001
 40
0.0
 40
0.0
 40
0.0
 40
0.0
 40
0.0263801927
 40
0.0508403531
 40
0.0734173402
 40
0.094196913
 40
0.1133347422
 40
0.1309912638
 40
0.1473466294
 40
0.162472941
 40
0.1762977085
 40
0.1889538943
 40
0.2006194994
 40
0.2114766376
 40
0.2216737951
 40
0.2311509251
 40
0.2397453645
 40
0.2476509114
 40
0.2549824984
 40
0.262111199
 40
0.2690731594
 40
0.2765234958
 40
0.2844843937
 40
0.2927747448
 40
0.301441249
 40
0.3105036891
 40
0.3201118002
 40
0.3304392434
 40
0.3416626682
 40
0.3539584198
 40
0.3674994769
 40
0.3824078684
 40
0.3986578998
 40
0.4164799653
 40
0.4361492978
 40
0.4580300434
 40
0.4821880859
 40
0.5077721575
 40
0.5343046801
 40
0.5596031729
 40
0.5817144175
 40
0.6015032769
 40
0.6194360559
 40
0.6355213733
 40
0.6499945417
 40
0.6630911714
 40
0.6750079791
 40
0.6859329908
 40
0.696049412
 40
0.7053652566
 40
0.7138538014
 40
0.7216023124
 40
0.7287081381
 40
0.7352804786
 40
0.7413892364
 40
0.7469518472
 40
0.7521213569
 40
0.7567498988
 40
0.7608512673
 40
0.7645744933
 40
0.7680801091
 40
0.7715778078
 40
0.775129276
 40
0.7786818535
 40
0.7821764472
 40
0.7855989983
 40
0.7891092206
 40
0.7929298509
 40
0.7972200301
 40
0.8019903401
 40
0.8072310442
 40
0.8129446115
 40
0.8191378937
 40
0.8258160041
 40
0.8330100575
 40
0.8407946519
 40
0.849261366
 40
0.8583625817
 40
0.8680219108
 40
0.878361138
 40
0.8895325102
 40
0.9017023871
 40
0.9150314147
 40
0.9295246057
 40
0.9451455653
 40
0.9620078632
 40
0.9802446279
 40
1.0
 40
1.0
 40
1.0
 40
1.0
 10
588.7735763533
 20
666.6586917959
 30
0.0
 10
602.2594165177
 20
666.6586920884
 30
0.0
 10
628.2495555179
 20
666.658350864
 30
0.0
 10
665.7812947432
 20
666.6569686771
 30
0.0
 10
700.4499365081
 20
666.6549360845
 30
0.0
 10
732.3977445513
 20
666.6525338277
 30
0.0
 10
761.8301584374
 20
666.6500783898
 30
0.0
 10
789.0008660764
 20
666.6476158791
 30
0.0
 10
814.1208544513
 20
666.645354363
 30
0.0
 10
837.2819691793
 20
666.6434192485
 30
0.0
 10
858.5521527054
 20
666.6412816607
 30
0.0
 10
878.0527609627
 20
666.640768205
 30
0.0
 10
896.0376874056
 20
666.6357455567
 30
0.0
 10
912.7608403886
 20
666.6465388403
 30
0.0
 10
928.3810581402
 20
666.6101805322
 30
0.0
 10
942.7916408759
 20
666.7050382527
 30
0.0
 10
956.2040554524
 20
666.4253010997
 30
0.0
 10
967.8619051652
 20
670.8605631127
 30
0.0
 10
976.9478103
 20
678.0591517538
 30
0.0
 10
983.1948607597
 20
687.2401902159
 30
0.0
 10
986.6177710113
 20
697.9128505486
 30
0.0
 10
986.4104449936
 20
709.431526175
 30
0.0
 10
986.4675248953
 20
721.5241228139
 30
0.0
 10
986.4514002316
 20
734.269216276
 30
0.0
 10
986.4560686198
 20
747.5685979148
 30
0.0
 10
986.4539668818
 20
761.5441606669
 30
0.0
 10
986.4541912426
 20
776.3680847503
 30
0.0
 10
986.4534486993
 20
792.2969412752
 30
0.0
 10
986.4528705242
 20
809.5996848523
 30
0.0
 10
986.4520241843
 20
828.5452820034
 30
0.0
 10
986.4509359094
 20
849.3746681193
 30
0.0
 10
986.4494988265
 20
872.2255266815
 30
0.0
 10
986.4475800595
 20
897.2648825166
 30
0.0
 10
986.4449899441
 20
924.7380830548
 30
0.0
 10
986.4415548072
 20
955.0897655581
 30
0.0
 10
986.4373355478
 20
988.6804680366
 30
0.0
 10
986.4333709105
 20
1025.2948492175
 30
0.0
 10
986.4315733142
 20
1064.2872693777
 30
0.0
 10
986.4333865866
 20
1103.8627001079
 30
0.0
 10
986.4375717865
 20
1141.6627838565
 30
0.0
 10
986.4418425349
 20
1176.0154338992
 30
0.0
 10
986.4452321232
 20
1206.6026513696
 30
0.0
 10
986.4477916301
 20
1234.1093496592
 30
0.0
 10
986.4496505207
 20
1258.8986092571
 30
0.0
 10
986.4510470688
 20
1281.2155769052
 30
0.0
 10
986.4520814546
 20
1301.401557563
 30
0.0
 10
986.452913776
 20
1319.7736809989
 30
0.0
 10
986.4534200411
 20
1336.6222931757
 30
0.0
 10
986.4542914249
 20
1352.1412530359
 30
0.0
 10
986.4535620506
 20
1366.4147037309
 30
0.0
 10
986.4571141447
 20
1379.4775253547
 30
0.0
 10
986.4484015746
 20
1391.4109778185
 30
0.0
 10
986.4721505874
 20
1402.363479851
 30
0.0
 10
986.4190825247
 20
1412.4822434094
 30
0.0
 10
986.5076827346
 20
1421.7970233257
 30
0.0
 10
986.3851101773
 20
1430.4441397788
 30
0.0
 10
984.3271664761
 20
1438.1074412298
 30
0.0
 10
981.1128092247
 20
1444.4868645041
 30
0.0
 10
977.276662362
 20
1449.606231476
 30
0.0
 10
973.0755449458
 20
1453.6276171048
 30
0.0
 10
968.5762699053
 20
1456.7953875697
 30
0.0
 10
963.7526443083
 20
1459.2516140749
 30
0.0
 10
958.6010287103
 20
1461.0046429792
 30
0.0
 10
953.2319191392
 20
1461.8916035814
 30
0.0
 10
947.8748458992
 20
1462.0380359984
 30
0.0
 10
942.5455847981
 20
1461.9731890204
 30
0.0
 10
937.0479633883
 20
1461.9766532784
 30
0.0
 10
931.1072943982
 20
1461.9931907652
 30
0.0
 10
924.522286647
 20
1461.9935416398
 30
0.0
 10
917.2113761969
 20
1461.9868838201
 30
0.0
 10
909.1727954749
 20
1461.9883808022
 30
0.0
 10
900.4067817114
 20
1461.9882004381
 30
0.0
 10
890.9059486707
 20
1461.9868840322
 30
0.0
 10
880.6482755029
 20
1461.9864275447
 30
0.0
 10
869.5771062371
 20
1461.9854576639
 30
0.0
 10
857.5915833954
 20
1461.9845115453
 30
0.0
 10
844.6310985862
 20
1461.9834013236
 30
0.0
 10
830.7122290422
 20
1461.9821889193
 30
0.0
 10
815.8361105731
 20
1461.9808697991
 30
0.0
 10
799.9017056668
 20
1461.9794435788
 30
0.0
 10
782.6838815607
 20
1461.977852493
 30
0.0
 10
763.9376391366
 20
1461.9761723674
 30
0.0
 10
743.4932469429
 20
1461.9744222969
 30
0.0
 10
721.2846239545
 20
1461.9726828189
 30
0.0
 10
697.2697548725
 20
1461.9709816329
 30
0.0
 10
671.3411304045
 20
1461.9694527776
 30
0.0
 10
643.2989494307
 20
1461.9682296705
 30
0.0
 10
623.8769577222
 20
1461.967732902
 30
0.0
 10
613.7777975807
 20
1461.9675716888
 30
0.0
  0
SPLINE
  5
354
100
AcDbEntity
  8
_SURFACE
100
AcDbSpline
 62
7
  6
CONTINUOUS
 70
0
 71
3
 72
10
 73
6
 74
0
 42
0.0000001
 43
0.0000001
 44
0.0000000001
 40
0.0
 40
0.0
 40
0.0
 40
0.0
 40
0.3260814628
 40
0.6584083247
 40
1.0
 40
1.0
 40
1.0
 40
1.0
 10
621.1264939578
 20
757.3239947243
 30
0.0
 10
617.6104208184
 20
757.364535346
 30
0.0
 10
610.510035758
 20
757.3561901867
 30
0.0
 10
599.7271052141
 20
757.2477423288
 30
0.0
 10
592.4606832275
 20
757.135872599
 30
0.0
 10
588.777742726
 20
757.0682326699
 30
0.0
  0
SPLINE
  5
355
100
AcDbEntity
  8
_SURFACE
100
AcDbSpline
 62
7
  6
CONTINUOUS
 70
0
 71
3
 72
10
 73
6
 74
0
 42
0.0000001
 43
0.0000001
 44
0.0000000001
 40
0.0
 40
0.0
 40
0.0
 40
0.0
 40
0.3486610693
 40
0.6804557157
 40
1.0
 40
1.0
 40
1.0
 40
1.0
 10
621.1264939578
 20
757.3239947243
 30
0.0
 10
622.7629723449
 20
757.2977031832
 30
0.0
 10
625.9571713928
 20
757.2699497939
 30
0.0
 10
630.6514147489
 20
757.2812892003
 30
0.0
 10
633.708837014
 20
757.3110897691
 30
0.0
 10
635.2086802796
 20
757.3333981118
 30
0.0
  0
SPLINE
  5
356
100
AcDbEntity
  8
_SURFACE
100
AcDbSpline
 62
7
  6
CONTINUOUS
 70
0
 71
3
 72
12
 73
8
 74
0
 42
0.0000001
 43
0.0000001
 44
0.0000000001
 40
0.0
 40
0.0
 40
0.0
 40
0.0
 40
0.2276639736
 40
0.4321655084
 40
0.6263571581
 40
0.8144393978
 40
1.0
 40
1.0
 40
1.0
 40
1.0
 10
672.2373327772
 20
759.2396161539
 30
0.0
 10
688.8207985463
 20
760.7535809343
 30
0.0
 10
720.1870098571
 20
765.4345249129
 30
0.0
 10
764.3137679547
 20
778.2603848956
 30
0.0
 10
803.5881415262
 20
795.9160756187
 30
0.0
 10
838.8675373372
 20
818.0785127081
 30
0.0
 10
859.8044367976
 20
835.8093552776
 30
0.0
 10
869.5332088168
 20
845.2735816439
 30
0.0
  0
SPLINE
  5
357
100
AcDbEntity
  8
_SURFACE
100
AcDbSpline
 62
7
  6
CONTINUOUS
 70
0
 71
3
 72
81
 73
77
 74
0
 42
0.0000001
 43
0.0000001
 44
0.0000000001
 40
0.0
 40
0.0
 40
0.0
 40
0.0
 40
0.0050031903
 40
0.0187242797
 40
0.0324728371
 40
0.0462480571
 40
0.0600491179
 40
0.0738751946
 40
0.0877254734
 40
0.1015991642
 40
0.115495514
 40
0.1293973728
 40
0.1431182288
 40
0.1568592024
 40
0.1706198398
 40
0.1843997832
 40
0.1981952529
 40
0.2119533769
 40
0.2256354936
 40
0.2393174198
 40
0.2530152925
 40
0.2667286088
 40
0.2804567999
 40
0.2941992432
 40
0.3079552738
 40
0.321724197
 40
0.3355052994
 40
0.3492978607
 40
0.3631011658
 40
0.3769145156
 40
0.3907372393
 40
0.4045687052
 40
0.4183274683
 40
0.4320782598
 40
0.4458361557
 40
0.4596008032
 40
0.4733719432
 40
0.4871342458
 40
0.5009203871
 40
0.5147267965
 40
0.528526836
 40
0.542320352
 40
0.5561070847
 40
0.5698866797
 40
0.5836586985
 40
0.5974226304
 40
0.6111779031
 40
0.6249238944
 40
0.638659943
 40
0.6523853599
 40
0.6660994398
 40
0.6798014723
 40
0.6935348418
 40
0.7073180188
 40
0.7210868705
 40
0.734840766
 40
0.7485791286
 40
0.7623184548
 40
0.7760937576
 40
0.7899818122
 40
0.8038507365
 40
0.8177003977
 40
0.8315305413
 40
0.8453408034
 40
0.8591307223
 40
0.8728997512
 40
0.8866472703
 40
0.9003725989
 40
0.9140750081
 40
0.927753733
 40
0.9414079856
 40
0.9550369669
 40
0.9687240371
 40
0.9825292383
 40
0.9963058767
 40
1.0
 40
1.0
 40
1.0
 40
1.0
 10
869.5780754036
 20
845.2228752237
 30
0.0
 10
870.1690598462
 20
845.7969142012
 30
0.0
 10
872.3718187003
 20
847.954484322
 30
0.0
 10
876.1334291774
 20
851.7557973458
 30
0.0
 10
880.7999491841
 20
856.6914438199
 30
0.0
 10
885.3620716213
 20
861.7415334343
 30
0.0
 10
889.8169946873
 20
866.9033006434
 30
0.0
 10
894.1619412373
 20
872.1740063962
 30
0.0
 10
898.3941271574
 20
877.5509046901
 30
0.0
 10
902.5107699592
 20
883.0312516985
 30
0.0
 10
906.5075085841
 20
888.6101007684
 30
0.0
 10
910.362948868
 20
894.2570690277
 30
0.0
 10
914.0766160077
 20
899.9677468299
 30
0.0
 10
917.6494884982
 20
905.7402246281
 30
0.0
 10
921.0970137526
 20
911.5997248833
 30
0.0
 10
924.4162562612
 20
917.5431224939
 30
0.0
 10
927.6002540033
 20
923.5595936623
 30
0.0
 10
930.6400918939
 20
929.6321645776
 30
0.0
 10
933.5336616577
 20
935.7550954404
 30
0.0
 10
936.2848580698
 20
941.9324365058
 30
0.0
 10
938.8994220109
 20
948.174400745
 30
0.0
 10
941.3773796482
 20
954.4800257413
 30
0.0
 10
943.717675535
 20
960.8458447042
 30
0.0
 10
945.9192463831
 20
967.2683944182
 30
0.0
 10
947.9810306979
 20
973.7442108273
 30
0.0
 10
949.9019661934
 20
980.2698302042
 30
0.0
 10
951.6809904859
 20
986.8417888197
 30
0.0
 10
953.3170409092
 20
993.4566230241
 30
0.0
 10
954.8090545593
 20
1000.1108691855
 30
0.0
 10
956.1559682959
 20
1006.8010637889
 30
0.0
 10
957.3567186845
 20
1013.5237430387
 30
0.0
 10
958.408189071
 20
1020.262286324
 30
0.0
 10
959.3099879744
 20
1027.0105310895
 30
0.0
 10
960.0622719524
 20
1033.7648871058
 30
0.0
 10
960.6659537801
 20
1040.5351197653
 30
0.0
 10
961.1202767934
 20
1047.320376142
 30
0.0
 10
961.424074845
 20
1054.1147678024
 30
0.0
 10
961.5766078951
 20
1060.9177831474
 30
0.0
 10
961.5766411175
 20
1067.7283237849
 30
0.0
 10
961.4236163385
 20
1074.5433585567
 30
0.0
 10
961.1184133622
 20
1081.3544837719
 30
0.0
 10
960.6621362508
 20
1088.1539062727
 30
0.0
 10
960.0558489101
 20
1094.9382121773
 30
0.0
 10
959.3005993338
 20
1101.7039878183
 30
0.0
 10
958.3974394495
 20
1108.4478195194
 30
0.0
 10
957.3474198097
 20
1115.1662936386
 30
0.0
 10
956.1515910183
 20
1121.8559965412
 30
0.0
 10
954.8110033528
 20
1128.5135145899
 30
0.0
 10
953.326706867
 20
1135.1354341422
 30
0.0
 10
951.699751377
 20
1141.718341506
 30
0.0
 10
949.9311864277
 20
1148.2588230572
 30
0.0
 10
948.0200137646
 20
1154.7604307604
 30
0.0
 10
945.9635954813
 20
1161.2295156115
 30
0.0
 10
943.7617055716
 20
1167.6621840547
 30
0.0
 10
941.4168617173
 20
1174.0477355224
 30
0.0
 10
938.9335230564
 20
1180.3727885592
 30
0.0
 10
936.3116754824
 20
1186.6364286394
 30
0.0
 10
933.5486984617
 20
1192.8429751393
 30
0.0
 10
930.6356480879
 20
1199.0078043593
 30
0.0
 10
927.5730605408
 20
1205.1236190883
 30
0.0
 10
924.3661288406
 20
1211.178845528
 30
0.0
 10
921.0272310178
 20
1217.1513892951
 30
0.0
 10
917.5590775936
 20
1223.038600035
 30
0.0
 10
913.9643633267
 20
1228.8378210114
 30
0.0
 10
910.2457868276
 20
1234.5463971145
 30
0.0
 10
906.4060453259
 20
1240.1616727016
 30
0.0
 10
902.4478360776
 20
1245.680992167
 30
0.0
 10
898.3738560041
 20
1251.1016997466
 30
0.0
 10
894.1868017774
 20
1256.4211396624
 30
0.0
 10
889.8893698766
 20
1261.6366556748
 30
0.0
 10
885.4842563123
 20
1266.7455926621
 30
0.0
 10
880.9648744533
 20
1271.7555817001
 30
0.0
 10
876.3167279336
 20
1276.6806046221
 30
0.0
 10
871.5404920652
 20
1281.5157355828
 30
0.0
 10
867.8374943113
 20
1285.0960042684
 30
0.0
 10
865.740048595
 20
1287.0651535946
 30
0.0
 10
865.2952680229
 20
1287.4801473487
 30
0.0
  0
SPLINE
  5
358
100
AcDbEntity
  8
_SURFACE
100
AcDbSpline
 62
7
  6
CONTINUOUS
 70
0
 71
3
 72
12
 73
8
 74
0
 42
0.0000001
 43
0.0000001
 44
0.0000000001
 40
0.0
 40
0.0
 40
0.0
 40
0.0
 40
0.187476501
 40
0.3764078415
 40
0.5706591175
 40
0.7756419187
 40
1.0
 40
1.0
 40
1.0
 40
1.0
 10
865.2389834445
 20
1287.4167814427
 30
0.0
 10
855.9601751993
 20
1296.054960862
 30
0.0
 10
836.1771229532
 20
1312.2062833275
 30
0.0
 10
803.2816019011
 20
1332.5688998462
 30
0.0
 10
766.9894708033
 20
1349.1084072766
 30
0.0
 10
726.5669334234
 20
1361.5012495336
 30
0.0
 10
697.8826140344
 20
1366.4864071204
 30
0.0
 10
682.8168846903
 20
1368.2729194529
 30
0.0
  0
SPLINE
  5
359
100
AcDbEntity
  8
_SURFACE
100
AcDbSpline
 62
7
  6
CONTINUOUS
 70
0
 71
3
 72
9
 73
5
 74
0
 42
0.0000001
 43
0.0000001
 44
0.0000000001
 40
0.0
 40
0.0
 40
0.0
 40
0.0
 40
0.4622069056
 40
1.0
 40
1.0
 40
1.0
 40
1.0
 10
645.4035785627
 20
1371.0788477624
 30
0.0
 10
645.8369446337
 20
1371.0569946379
 30
0.0
 10
646.776253627
 20
1371.1708061199
 30
0.0
 10
647.7138131925
 20
1371.0542144285
 30
0.0
 10
648.2186366374
 20
1371.0615343023
 30
0.0
  0
SPLINE
  5
35A
100
AcDbEntity
  8
_SURFACE
100
AcDbSpline
 62
7
  6
CONTINUOUS
 70
0
 71
3
 72
9
 73
5
 74
0
 42
0.0000001
 43
0.0000001
 44
0.0000000001
 40
0.0
 40
0.0
 40
0.0
 40
0.0
 40
0.5007690101
 40
1.0
 40
1.0
 40
1.0
 40
1.0
 10
611.1724469147
 20
1371.3394132809
 30
0.0
 10
616.8865550366
 20
1371.2726308925
 30
0.0
 10
628.2981937552
 20
1371.5314742772
 30
0.0
 10
639.7101388092
 20
1371.2787292747
 30
0.0
 10
645.4035785627
 20
1371.0788477624
 30
0.0
  0
SPLINE
  5
35B
100
AcDbEntity
  8
_SURFACE
100
AcDbSpline
 62
7
  6
CONTINUOUS
 70
0
 71
3
 72
10
 73
6
 74
0
 42
0.0000001
 43
0.0000001
 44
0.0000000001
 40
0.0
 40
0.0
 40
0.0
 40
0.0
 40
0.3268592814
 40
0.6603145016
 40
1.0
 40
1.0
 40
1.0
 40
1.0
 10
-111.2224068348
 20
1371.8224328568
 30
0.0
 10
-89.4324786643
 20
1372.0082001393
 30
0.0
 10
-45.4118926812
 20
1372.2803309084
 30
0.0
 10
21.255145952
 20
1372.3454472491
 30
0.0
 10
66.1313389903
 20
1372.4084904213
 30
0.0
 10
88.7771338334
 20
1372.4300725819
 30
0.0
  0
SPLINE
  5
35C
100
AcDbEntity
  8
_SURFACE
100
AcDbSpline
 62
7
  6
CONTINUOUS
 70
0
 71
3
 72
10
 73
6
 74
0
 42
0.0000001
 43
0.0000001
 44
0.0000000001
 40
0.0
 40
0.0
 40
0.0
 40
0.0
 40
0.3405189152
 40
0.6739528838
 40
1.0
 40
1.0
 40
1.0
 40
1.0
 10
388.7771338339
 20
1372.4305136081
 30
0.0
 10
411.4785973546
 20
1372.409074956
 30
0.0
 10
456.4091480887
 20
1372.3461886275
 30
0.0
 10
523.0764955973
 20
1372.2792372285
 30
0.0
 10
567.0417336615
 20
1372.0074227359
 30
0.0
 10
588.7776038609
 20
1371.8200260283
 30
0.0
  0
LINE
  5
35D
100
AcDbEntity
  8
_SURFACE
100
AcDbLine
 62
7
  6
CONTINUOUS
 10
588.7741662605
 20
1452.7349383074
 11
-111.2186893602
 21
1452.7349207918
  0
SPLINE
  5
35E
100
AcDbEntity
  8
_SURFACE
100
AcDbSpline
 62
7
  6
CONTINUOUS
 70
0
 71
3
 72
10
 73
6
 74
0
 42
0.0000001
 43
0.0000001
 44
0.0000000001
 40
0.0
 40
0.0
 40
0.0
 40
0.0
 40
0.3172023116
 40
0.650574126
 40
1.0
 40
1.0
 40
1.0
 40
1.0
 10
588.7777235016
 20
756.8062403833
 30
0.0
 10
514.766390758
 20
756.1709751055
 30
0.0
 10
362.9623719494
 20
756.1762448452
 30
0.0
 10
129.6309359641
 20
756.1868162219
 30
0.0
 10
-29.6925586527
 20
756.0852434654
 30
0.0
 10
-111.2222993316
 20
756.8040407467
 30
0.0
  0
LINE
  5
35F
100
AcDbEntity
  8
_SURFACE
100
AcDbLine
 62
7
  6
CONTINUOUS
 10
-111.2184881103
 20
675.8911158806
 11
588.7740730393
 21
675.8911333961
  0
SPLINE
  5
360
100
AcDbEntity
  8
_SURFACE
100
AcDbSpline
 62
6
  6
CONTINUOUS
 70
0
 71
3
 72
9
 73
5
 74
0
 42
0.0000001
 43
0.0000001
 44
0.0000000001
 40
0.0
 40
0.0
 40
0.0
 40
0.0
 40
0.5002479881
 40
1.0
 40
1.0
 40
1.0
 40
1.0
 10
-111.2224068348
 20
1371.8224328568
 30
0.0
 10
-111.2218717384
 20
1385.3145359618
 30
0.0
 10
-111.2207174542
 20
1412.2853652776
 30
0.0
 10
-111.2193935062
 20
1439.2561945856
 30
0.0
 10
-111.2186893602
 20
1452.7349207918
 30
0.0
  0
SPLINE
  5
361
100
AcDbEntity
  8
_SURFACE
100
AcDbSpline
 62
7
  6
CONTINUOUS
 70
0
 71
3
 72
140
 73
136
 74
0
 42
0.0000001
 43
0.0000001
 44
0.0000000001
 40
0.0
 40
0.0
 40
0.0
 40
0.0
 40
0.0211388141
 40
0.0407822835
 40
0.058986959
 40
0.0758094814
 40
0.0913162518
 40
0.1055930662
 40
0.1187370593
 40
0.1308826651
 40
0.142174097
 40
0.152738221
 40
0.1624595253
 40
0.171090064
 40
0.1787824056
 40
0.1857123596
 40
0.1920267758
 40
0.197772652
 40
0.2029751506
 40
0.2076934721
 40
0.2119985017
 40
0.2159484476
 40
0.2195206044
 40
0.2226743348
 40
0.2254791565
 40
0.2280885478
 40
0.2306450113
 40
0.2332023096
 40
0.2357454085
 40
0.2383110258
 40
0.2409531586
 40
0.2436850031
 40
0.2466683232
 40
0.2498339097
 40
0.2531378339
 40
0.2563088973
 40
0.2591349992
 40
0.2616541534
 40
0.2639435903
 40
0.2661151201
 40
0.2682713644
 40
0.2704503608
 40
0.272618063
 40
0.2747858668
 40
0.2769981605
 40
0.2793392464
 40
0.2819007031
 40
0.2847755832
 40
0.2879924174
 40
0.2916278436
 40
0.2957147455
 40
0.3002779799
 40
0.3052611801
 40
0.3105506374
 40
0.3160865234
 40
0.3218715883
 40
0.3279437197
 40
0.334387476
 40
0.3412924589
 40
0.3487483032
 40
0.3568348515
 40
0.3656125745
 40
0.3751409761
 40
0.3853525844
 40
0.3962396719
 40
0.407951871
 40
0.4206425546
 40
0.4344636608
 40
0.449527172
 40
0.4659040216
 40
0.4836171455
 40
0.502749663
 40
0.5235880954
 40
0.5459806441
 40
0.5663967425
 40
0.5845674336
 40
0.6009102232
 40
0.6156427463
 40
0.6288829849
 40
0.640756494
 40
0.6513955122
 40
0.6609489588
 40
0.6695717425
 40
0.6774191833
 40
0.6846466374
 40
0.6914083073
 40
0.6978800856
 40
0.704482138
 40
0.7109986196
 40
0.7170804821
 40
0.7225058079
 40
0.7271887017
 40
0.7313049032
 40
0.7351754278
 40
0.7390159311
 40
0.7428616978
 40
0.7467058885
 40
0.7505548559
 40
0.7545042952
 40
0.7585301635
 40
0.7625425652
 40
0.7663535114
 40
0.7696887405
 40
0.7725966509
 40
0.7751275537
 40
0.7775763691
 40
0.7800505707
 40
0.7825369368
 40
0.7850140955
 40
0.7874583913
 40
0.7899239865
 40
0.7925201467
 40
0.7953713493
 40
0.7985662532
 40
0.8021198625
 40
0.8060280692
 40
0.8103006816
 40
0.8149616207
 40
0.8200344011
 40
0.8255361686
 40
0.8315405164
 40
0.8382034125
 40
0.8457044273
 40
0.8540566035
 40
0.8629904369
 40
0.8724486654
 40
0.8825614453
 40
0.8934805608
 40
0.9053571909
 40
0.9183335987
 40
0.9323500911
 40
0.9473975447
 40
0.9635945099
 40
0.981080001
 40
1.0
 40
1.0
 40
1.0
 40
1.0
 10
-111.2186893601
 20
1452.7349228434
 30
0.0
 10
-121.8213801545
 20
1452.734922641
 30
0.0
 10
-142.2767349099
 20
1452.7349124754
 30
0.0
 10
-171.8630912917
 20
1452.734872068
 30
0.0
 10
-199.2845056851
 20
1452.7348138816
 30
0.0
 10
-224.6310572313
 20
1452.7347450654
 30
0.0
 10
-248.0074936201
 20
1452.7346748493
 30
0.0
 10
-269.5388734178
 20
1452.7346054018
 30
0.0
 10
-289.3843786292
 20
1452.7345390826
 30
0.0
 10
-307.7324920424
 20
1452.7344781349
 30
0.0
 10
-324.7866088233
 20
1452.7344239393
 30
0.0
 10
-340.6247576857
 20
1452.7343772293
 30
0.0
 10
-355.1282703047
 20
1452.7343352259
 30
0.0
 10
-368.1913700047
 20
1452.7342963587
 30
0.0
 10
-379.8543994996
 20
1452.7342779258
 30
0.0
 10
-390.355720949
 20
1452.7342384387
 30
0.0
 10
-399.8807448857
 20
1452.7342565102
 30
0.0
 10
-408.5393212161
 20
1452.7341650918
 30
0.0
 10
-416.397337075
 20
1452.7340810074
 30
0.0
 10
-423.5326609706
 20
1452.7344490874
 30
0.0
 10
-430.0397363989
 20
1452.7342754335
 30
0.0
 10
-435.9719246335
 20
1452.7332562957
 30
0.0
 10
-441.3266508571
 20
1452.7335791572
 30
0.0
 10
-446.1070107843
 20
1452.7362764656
 30
0.0
 10
-450.4044736135
 20
1452.7373264355
 30
0.0
 10
-454.4023600749
 20
1452.7342308423
 30
0.0
 10
-458.2760960403
 20
1452.7265002065
 30
0.0
 10
-462.1165575925
 20
1452.722722546
 30
0.0
 10
-465.9617299334
 20
1452.7298007861
 30
0.0
 10
-469.8489358507
 20
1452.758892812
 30
0.0
 10
-473.8327739873
 20
1452.7069889024
 30
0.0
 10
-478.0086946409
 20
1452.1904227642
 30
0.0
 10
-482.2855497713
 20
1450.8581418142
 30
0.0
 10
-486.5269976296
 20
1448.6936905252
 30
0.0
 10
-490.4352907115
 20
1445.8033998712
 30
0.0
 10
-493.6419765785
 20
1442.3808830676
 30
0.0
 10
-496.0301527777
 20
1438.821106649
 30
0.0
 10
-497.7156623166
 20
1435.3700412017
 30
0.0
 10
-498.8198344331
 20
1432.0367133554
 30
0.0
 10
-499.4361433827
 20
1428.7654107315
 30
0.0
 10
-499.6435940371
 20
1425.5036305034
 30
0.0
 10
-499.6633265516
 20
1422.2418851007
 30
0.0
 10
-499.6394319974
 20
1418.9744281049
 30
0.0
 10
-499.6325419555
 20
1415.6902220008
 30
0.0
 10
-499.6341658594
 20
1412.3190453499
 30
0.0
 10
-499.6409729466
 20
1408.7504312613
 30
0.0
 10
-499.6462219606
 20
1404.8494768537
 30
0.0
 10
-499.6461237948
 20
1400.509265708
 30
0.0
 10
-499.643301694
 20
1395.6303807357
 30
0.0
 10
-499.6422503427
 20
1390.143575408
 30
0.0
 10
-499.6433296696
 20
1383.981450237
 30
0.0
 10
-499.6436532575
 20
1377.1433158205
 30
0.0
 10
-499.6432257965
 20
1369.7020102478
 30
0.0
 10
-499.6433019893
 20
1361.7728474225
 30
0.0
 10
-499.6433778423
 20
1353.4414896916
 30
0.0
 10
-499.6433472157
 20
1344.7175625931
 30
0.0
 10
-499.6433644696
 20
1335.53827085
 30
0.0
 10
-499.6433690327
 20
1325.7972567872
 30
0.0
 10
-499.6433764239
 20
1315.3622075736
 30
0.0
 10
-499.6433904518
 20
1304.1031757155
 30
0.0
 10
-499.6434050775
 20
1291.9048251111
 30
0.0
 10
-499.6434230945
 20
1278.6669325365
 30
0.0
 10
-499.6434447895
 20
1264.3631640233
 30
0.0
 10
-499.6434722284
 20
1249.0013919561
 30
0.0
 10
-499.643507454
 20
1232.5442827048
 30
0.0
 10
-499.6435529006
 20
1214.8437324063
 30
0.0
 10
-499.6436125014
 20
1195.6715530957
 30
0.0
 10
-499.6436912572
 20
1174.8184409517
 30
0.0
 10
-499.6437932911
 20
1152.1164417834
 30
0.0
 10
-499.6439201449
 20
1127.4623056898
 30
0.0
 10
-499.6440562349
 20
1100.7672596619
 30
0.0
 10
-499.64414475
 20
1071.8343973389
 30
0.0
 10
-499.6441110022
 20
1040.5544546659
 30
0.0
 10
-499.6439587083
 20
1008.6307005192
 30
0.0
 10
-499.6437950463
 20
978.0450174908
 30
0.0
 10
-499.6436703483
 20
950.493739552
 30
0.0
 10
-499.6435803669
 20
925.7931982433
 30
0.0
 10
-499.6435166127
 20
903.5656463407
 30
0.0
 10
-499.6434705614
 20
883.5797716993
 30
0.0
 10
-499.6434370139
 20
865.6470948422
 30
0.0
 10
-499.6434119758
 20
849.563618983
 30
0.0
 10
-499.6433917825
 20
835.1106242175
 30
0.0
 10
-499.6433758887
 20
822.0578135995
 30
0.0
 10
-499.6433598863
 20
810.1716615256
 30
0.0
 10
-499.6433569701
 20
799.2189967462
 30
0.0
 10
-499.6433398936
 20
788.9563292253
 30
0.0
 10
-499.6433469962
 20
779.0073473119
 30
0.0
 10
-499.643346553
 20
769.1813454966
 30
0.0
 10
-499.6431371108
 20
759.550915911
 30
0.0
 10
-499.6437802887
 20
750.510701184
 30
0.0
 10
-499.6428960408
 20
742.390171432
 30
0.0
 10
-499.64210706
 20
735.2555548612
 30
0.0
 10
-499.6459246734
 20
728.9008250123
 30
0.0
 10
-499.6464408986
 20
722.9684923649
 30
0.0
 10
-499.6363455832
 20
717.1722481775
 30
0.0
 10
-499.6253651809
 20
711.3875948575
 30
0.0
 10
-499.680905927
 20
705.6046878244
 30
0.0
 10
-499.5759242114
 20
699.7474246975
 30
0.0
 10
-498.1412809936
 20
693.9300359936
 30
0.0
 10
-495.3892829292
 20
688.5341583445
 30
0.0
 10
-491.6424767491
 20
683.8605772245
 30
0.0
 10
-487.2324802581
 20
680.3474697333
 30
0.0
 10
-482.7611573268
 20
677.9642409582
 30
0.0
 10
-478.5610307784
 20
676.5773144177
 30
0.0
 10
-474.6356534967
 20
675.9792096809
 30
0.0
 10
-470.8951226991
 20
675.8666116674
 30
0.0
 10
-467.1792464374
 20
675.8869787933
 30
0.0
 10
-463.448584606
 20
675.903184083
 30
0.0
 10
-459.7330324427
 20
675.901638051
 30
0.0
 10
-456.0278760177
 20
675.8950193506
 30
0.0
 10
-452.2630372457
 20
675.889385294
 30
0.0
 10
-448.2940976449
 20
675.8888854263
 30
0.0
 10
-443.9593575733
 20
675.8910097293
 30
0.0
 10
-439.1443847824
 20
675.8928817788
 30
0.0
 10
-433.7992453904
 20
675.892412852
 30
0.0
 10
-427.9135550298
 20
675.8915474768
 30
0.0
 10
-421.4724561741
 20
675.8916950307
 30
0.0
 10
-414.4472368033
 20
675.8919514586
 30
0.0
 10
-406.8055045495
 20
675.89182071
 30
0.0
 10
-398.4899526597
 20
675.8917705995
 30
0.0
 10
-389.3768392911
 20
675.8917790069
 30
0.0
 10
-379.2609543752
 20
675.8917424655
 30
0.0
 10
-367.9674585512
 20
675.8917244756
 30
0.0
 10
-355.5349183588
 20
675.8916882371
 30
0.0
 10
-342.1206896286
 20
675.8916503079
 30
0.0
 10
-327.8233869165
 20
675.8916093055
 30
0.0
 10
-312.5303173119
 20
675.8915631133
 30
0.0
 10
-296.0242390312
 20
675.8915104483
 30
0.0
 10
-278.0818379378
 20
675.8914511881
 30
0.0
 10
-258.5858714725
 20
675.8913885366
 30
0.0
 10
-237.4995006881
 20
675.8913227869
 30
0.0
 10
-214.7977803217
 20
675.8912567938
 30
0.0
 10
-190.356098562
 20
675.8911966222
 30
0.0
 10
-163.9720466587
 20
675.8911479512
 30
0.0
 10
-145.7119799967
 20
675.8911280955
 30
0.0
 10
-136.2221903354
 20
675.8911214174
 30
0.0
  0
SPLINE
  5
362
100
AcDbEntity
  8
_SURFACE
100
AcDbSpline
 62
7
  6
CONTINUOUS
 70
0
 71
3
 72
9
 73
5
 74
0
 42
0.0000001
 43
0.0000001
 44
0.0000000001
 40
0.0
 40
0.0
 40
0.0
 40
0.0
 40
0.04518936
 40
1.0
 40
1.0
 40
1.0
 40
1.0
 10
-136.2220494145
 20
675.8927344364
 30
0.0
 10
-135.8454177739
 20
675.8926683636
 30
0.0
 10
-127.510897419
 20
675.8912338129
 30
0.0
 10
-119.1763769286
 20
675.8905396983
 30
0.0
 10
-111.2184880998
 20
675.8903116378
 30
0.0
  0
SPLINE
  5
363
100
AcDbEntity
  8
_SURFACE
100
AcDbSpline
 62
6
  6
CONTINUOUS
 70
0
 71
3
 72
9
 73
5
 74
0
 42
0.0000001
 43
0.0000001
 44
0.0000000001
 40
0.0
 40
0.0
 40
0.0
 40
0.0
 40
0.5000396576
 40
1.0
 40
1.0
 40
1.0
 40
1.0
 10
-111.2184881103
 20
675.8911158806
 30
0.0
 10
-111.2192350394
 20
689.377672957
 30
0.0
 10
-111.2206171395
 20
716.3486479074
 30
0.0
 10
-111.2217758714
 20
743.3196228684
 30
0.0
 10
-111.2222993316
 20
756.8040407467
 30
0.0
  0
SPLINE
  5
364
100
AcDbEntity
  8
_SURFACE
100
AcDbSpline
 62
7
  6
CONTINUOUS
 70
0
 71
3
 72
10
 73
6
 74
0
 42
0.0000001
 43
0.0000001
 44
0.0000000001
 40
0.0
 40
0.0
 40
0.0
 40
0.0
 40
0.6488158136
 40
0.9731858441
 40
1.0
 40
1.0
 40
1.0
 40
1.0
 10
-111.2224035221
 20
756.8114069884
 30
0.0
 10
-116.925377245
 20
756.8600717574
 30
0.0
 10
-125.4795558602
 20
756.9084231956
 30
0.0
 10
-134.2690948288
 20
757.0540512874
 30
0.0
 10
-137.3560538532
 20
757.0441678405
 30
0.0
 10
-137.5917515794
 20
757.0430957203
 30
0.0
  0
SPLINE
  5
365
100
AcDbEntity
  8
_SURFACE
100
AcDbSpline
 62
7
  6
CONTINUOUS
 70
0
 71
3
 72
18
 73
14
 74
0
 42
0.0000001
 43
0.0000001
 44
0.0000000001
 40
0.0
 40
0.0
 40
0.0
 40
0.0
 40
0.0661931351
 40
0.1400024659
 40
0.2228131305
 40
0.3154687195
 40
0.4132267653
 40
0.5093260427
 40
0.6059132107
 40
0.7037056678
 40
0.802100401
 40
0.901577201
 40
1.0
 40
1.0
 40
1.0
 40
1.0
 10
-137.5920070392
 20
757.0411067673
 30
0.0
 10
-149.0781545672
 20
756.9752151085
 30
0.0
 10
-173.3862540895
 20
756.9632026195
 30
0.0
 10
-211.96522874
 20
760.2630727338
 30
0.0
 10
-254.5925786597
 20
768.1289191682
 30
0.0
 10
-299.8161390349
 20
782.9504026853
 30
0.0
 10
-344.2395288078
 20
805.7890387271
 30
0.0
 10
-384.7296329906
 20
836.2187754905
 30
0.0
 10
-419.3668532584
 20
873.1703916965
 30
0.0
 10
-447.6497137034
 20
915.6587017908
 30
0.0
 10
-468.5471867833
 20
962.7902508864
 30
0.0
 10
-481.3179820011
 20
1012.8211128908
 30
0.0
 10
-484.3027977839
 20
1047.2248304318
 30
0.0
 10
-484.2758364085
 20
1064.3038822379
 30
0.0
  0
SPLINE
  5
366
100
AcDbEntity
  8
_SURFACE
100
AcDbSpline
 62
7
  6
CONTINUOUS
 70
0
 71
3
 72
22
 73
18
 74
0
 42
0.0000001
 43
0.0000001
 44
0.0000000001
 40
0.0
 40
0.0
 40
0.0
 40
0.0
 40
0.0383553216
 40
0.0799321745
 40
0.1251102046
 40
0.1742173679
 40
0.2284390979
 40
0.2881247493
 40
0.3543734075
 40
0.4277891477
 40
0.5057630852
 40
0.5864692389
 40
0.6682782516
 40
0.7507364397
 40
0.8335263861
 40
0.9169925081
 40
1.0
 40
1.0
 40
1.0
 40
1.0
 10
-137.5604688637
 20
1371.5843693726
 30
0.0
 10
-144.2191559132
 20
1371.6143864184
 30
0.0
 10
-158.0972733387
 20
1371.8025916504
 30
0.0
 10
-179.810829014
 20
1370.9678985038
 30
0.0
 10
-203.3257816842
 20
1369.0124905441
 30
0.0
 10
-228.8632906066
 20
1365.3440360211
 30
0.0
 10
-256.5582300027
 20
1359.3850060966
 30
0.0
 10
-286.4838024571
 20
1350.1264387703
 30
0.0
 10
-318.3723383274
 20
1336.5010585308
 30
0.0
 10
-351.2405796231
 20
1317.6626447474
 30
0.0
 10
-383.3094227574
 20
1293.0464687092
 30
0.0
 10
-412.5787457315
 20
1263.0769569858
 30
0.0
 10
-437.8551087844
 20
1228.7024351386
 30
0.0
 10
-458.2182254278
 20
1190.7883982562
 30
0.0
 10
-473.0810343404
 20
1150.0932453209
 30
0.0
 10
-482.1742342205
 20
1107.6542475055
 30
0.0
 10
-484.2982626683
 20
1078.714551595
 30
0.0
 10
-484.2758364085
 20
1064.3038822379
 30
0.0
  0
SPLINE
  5
367
100
AcDbEntity
  8
_SURFACE
100
AcDbSpline
 62
7
  6
CONTINUOUS
 70
0
 71
3
 72
10
 73
6
 74
0
 42
0.0000001
 43
0.0000001
 44
0.0000000001
 40
0.0
 40
0.0
 40
0.0
 40
0.0
 40
0.0255761291
 40
0.3503641986
 40
1.0
 40
1.0
 40
1.0
 40
1.0
 10
-137.5605527059
 20
1371.5850235581
 30
0.0
 10
-137.3360030569
 20
1371.5840126466
 30
0.0
 10
-134.2598947175
 20
1371.5740315917
 30
0.0
 10
-125.4807281821
 20
1371.7180689211
 30
0.0
 10
-116.9258049273
 20
1371.7672193918
 30
0.0
 10
-111.2223750622
 20
1371.8158877429
 30
0.0
  0
SPLINE
  5
368
100
AcDbEntity
  8
_SURFACE
100
AcDbSpline
 62
6
  6
CONTINUOUS
 70
0
 71
3
 72
9
 73
5
 74
0
 42
0.0000001
 43
0.0000001
 44
0.0000000001
 40
0.0
 40
0.0
 40
0.0
 40
0.0
 40
0.4997567381
 40
1.0
 40
1.0
 40
1.0
 40
1.0
 10
588.7741662605
 20
1452.7349383074
 30
0.0
 10
588.7748249997
 20
1439.2556807687
 30
0.0
 10
588.7760568673
 20
1412.2840433458
 30
0.0
 10
588.7771166496
 20
1385.3124059155
 30
0.0
 10
588.7776038609
 20
1371.8200260283
 30
0.0
  0
SPLINE
  5
369
100
AcDbEntity
  8
_SURFACE
100
AcDbSpline
 62
7
  6
CONTINUOUS
 70
0
 71
3
 72
9
 73
5
 74
0
 42
0.0000001
 43
0.0000001
 44
0.0000000001
 40
0.0
 40
0.0
 40
0.0
 40
0.0
 40
0.7634338942
 40
1.0
 40
1.0
 40
1.0
 40
1.0
 10
588.7776330948
 20
1371.7818901373
 30
0.0
 10
594.4802134713
 20
1371.7332003492
 30
0.0
 10
601.9500936186
 20
1371.6902615567
 30
0.0
 10
609.4192266107
 20
1371.5777388188
 30
0.0
 10
611.1862859332
 20
1371.5620123456
 30
0.0
  0
SPLINE
  5
36A
100
AcDbEntity
  8
_SURFACE
100
AcDbSpline
 62
7
  6
CONTINUOUS
 70
0
 71
3
 72
10
 73
6
 74
0
 42
0.0000001
 43
0.0000001
 44
0.0000000001
 40
0.0
 40
0.0
 40
0.0
 40
0.0
 40
0.3232164472
 40
0.6562617234
 40
1.0
 40
1.0
 40
1.0
 40
1.0
 10
611.1889874102
 20
1371.586781851
 30
0.0
 10
614.8678650675
 20
1371.5422361177
 30
0.0
 10
622.3381788998
 20
1371.6348157904
 30
0.0
 10
633.7218880662
 20
1371.6730092981
 30
0.0
 10
641.4233360047
 20
1371.4375854053
 30
0.0
 10
645.3335381502
 20
1371.2965246665
 30
0.0
  0
SPLINE
  5
36B
100
AcDbEntity
  8
_SURFACE
100
AcDbSpline
 62
7
  6
CONTINUOUS
 70
0
 71
3
 72
10
 73
6
 74
0
 42
0.0000001
 43
0.0000001
 44
0.0000000001
 40
0.0
 40
0.0
 40
0.0
 40
0.0
 40
0.3192596899
 40
0.6539928655
 40
1.0
 40
1.0
 40
1.0
 40
1.0
 10
645.3335381502
 20
1371.2965246665
 30
0.0
 10
645.6435398618
 20
1371.2974208317
 30
0.0
 10
646.2779813399
 20
1371.3199357662
 30
0.0
 10
647.24959709
 20
1371.3691953943
 30
0.0
 10
647.9088346412
 20
1371.2847446132
 30
0.0
 10
648.2447744154
 20
1371.2896048604
 30
0.0
  0
SPLINE
  5
36C
100
AcDbEntity
  8
_SURFACE
100
AcDbSpline
 62
7
  6
CONTINUOUS
 70
0
 71
3
 72
10
 73
6
 74
0
 42
0.0000001
 43
0.0000001
 44
0.0000000001
 40
0.0
 40
0.0
 40
0.0
 40
0.0
 40
0.3265118398
 40
0.6594220988
 40
1.0
 40
1.0
 40
1.0
 40
1.0
 10
682.8919871208
 20
1368.459282837
 30
0.0
 10
679.1361209302
 20
1368.9218991358
 30
0.0
 10
671.5366175379
 20
1369.7467084182
 30
0.0
 10
659.9802846251
 20
1370.6429287321
 30
0.0
 10
652.187479406
 20
1371.0997333523
 30
0.0
 10
648.2447744154
 20
1371.2896048604
 30
0.0
  0
SPLINE
  5
36D
100
AcDbEntity
  8
_SURFACE
100
AcDbSpline
 62
7
  6
CONTINUOUS
 70
0
 71
3
 72
11
 73
7
 74
0
 42
0.0000001
 43
0.0000001
 44
0.0000000001
 40
0.0
 40
0.0
 40
0.0
 40
0.0
 40
0.2345372587
 40
0.4723067445
 40
0.7225958297
 40
1.0
 40
1.0
 40
1.0
 40
1.0
 10
865.3012876642
 20
1287.4303925247
 30
0.0
 10
853.7261175201
 20
1298.2741889319
 30
0.0
 10
828.5753783602
 20
1318.2398248524
 30
0.0
 10
785.6563886209
 20
1342.0230141818
 30
0.0
 10
736.7735596275
 20
1359.7089859889
 30
0.0
 10
701.5228941641
 20
1366.262307201
 30
0.0
 10
682.8919871208
 20
1368.459282837
 30
0.0
  0
SPLINE
  5
36E
100
AcDbEntity
  8
_SURFACE
100
AcDbSpline
 62
7
  6
CONTINUOUS
 70
0
 71
3
 72
17
 73
13
 74
0
 42
0.0000001
 43
0.0000001
 44
0.0000000001
 40
0.0
 40
0.0
 40
0.0
 40
0.0
 40
0.0997619652
 40
0.1988916106
 40
0.298881877
 40
0.3998148556
 40
0.5006507678
 40
0.6011967878
 40
0.702294024
 40
0.8022228095
 40
0.90154213
 40
1.0
 40
1.0
 40
1.0
 40
1.0
 10
869.5967091121
 20
845.2601292395
 30
0.0
 10
881.4349154894
 20
856.6328338338
 30
0.0
 10
903.1226272117
 20
881.3896475849
 30
0.0
 10
929.1185357543
 20
923.377323554
 30
0.0
 10
948.124266345
 20
969.1843296784
 30
0.0
 10
959.5512355812
 20
1017.7235433094
 30
0.0
 10
963.1571961192
 20
1067.5590624484
 30
0.0
 10
958.5109035593
 20
1117.3368521034
 30
0.0
 10
946.0452195808
 20
1165.5869445953
 30
0.0
 10
926.0960317745
 20
1211.0433317455
 30
0.0
 10
899.2819088724
 20
1252.2875613331
 30
0.0
 10
877.2086220646
 20
1276.4441459343
 30
0.0
 10
865.3012876642
 20
1287.4303925247
 30
0.0
  0
SPLINE
  5
36F
100
AcDbEntity
  8
_SURFACE
100
AcDbSpline
 62
7
  6
CONTINUOUS
 70
0
 71
3
 72
11
 73
7
 74
0
 42
0.0000001
 43
0.0000001
 44
0.0000000001
 40
0.0
 40
0.0
 40
0.0
 40
0.0
 40
0.280881056
 40
0.5302893797
 40
0.7676832162
 40
1.0
 40
1.0
 40
1.0
 40
1.0
 10
672.2752134354
 20
759.0391085917
 30
0.0
 10
692.7385509878
 20
760.9081444617
 30
0.0
 10
731.240818537
 20
767.1389369631
 30
0.0
 10
784.5229539691
 20
785.7344043158
 30
0.0
 10
830.7237603872
 20
811.4353864848
 30
0.0
 10
857.4484487648
 20
833.3742989759
 30
0.0
 10
869.5967091121
 20
845.2601292395
 30
0.0
  0
SPLINE
  5
370
100
AcDbEntity
  8
_SURFACE
100
AcDbSpline
 62
7
  6
CONTINUOUS
 70
0
 71
3
 72
10
 73
6
 74
0
 42
0.0000001
 43
0.0000001
 44
0.0000000001
 40
0.0
 40
0.0
 40
0.0
 40
0.0
 40
0.3413601986
 40
0.6747808741
 40
1.0
 40
1.0
 40
1.0
 40
1.0
 10
637.4888632126
 20
757.1154083519
 30
0.0
 10
641.4535931605
 20
757.1826755876
 30
0.0
 10
649.2896028611
 20
757.4051559092
 30
0.0
 10
660.891137353
 20
758.0160873495
 30
0.0
 10
668.5162474411
 20
758.6623194313
 30
0.0
 10
672.2752134354
 20
759.0391085917
 30
0.0
  0
SPLINE
  5
371
100
AcDbEntity
  8
_SURFACE
100
AcDbSpline
 62
7
  6
CONTINUOUS
 70
0
 71
3
 72
10
 73
6
 74
0
 42
0.0000001
 43
0.0000001
 44
0.0000000001
 40
0.0
 40
0.0
 40
0.0
 40
0.0
 40
0.2077093047
 40
0.4717829584
 40
1.0
 40
1.0
 40
1.0
 40
1.0
 10
621.1597146705
 20
757.0279399356
 30
0.0
 10
618.9177906576
 20
757.0569423324
 30
0.0
 10
613.8253292002
 20
757.1398207879
 30
0.0
 10
603.0313454667
 20
756.9601876112
 30
0.0
 10
594.4793496011
 20
756.9120591414
 30
0.0
 10
588.7777352106
 20
756.8633617824
 30
0.0
  0
SPLINE
  5
372
100
AcDbEntity
  8
_SURFACE
100
AcDbSpline
 62
6
  6
CONTINUOUS
 70
0
 71
3
 72
9
 73
5
 74
0
 42
0.0000001
 43
0.0000001
 44
0.0000000001
 40
0.0
 40
0.0
 40
0.0
 40
0.0
 40
0.500285657
 40
1.0
 40
1.0
 40
1.0
 40
1.0
 10
588.7777235016
 20
756.8062403833
 30
0.0
 10
588.7772036113
 20
743.3126845599
 30
0.0
 10
588.7760757595
 20
716.3409822266
 30
0.0
 10
588.7747700713
 20
689.3692799013
 30
0.0
 10
588.7740730393
 20
675.8911333961
 30
0.0
  0
SPLINE
  5
373
100
AcDbEntity
  8
_SURFACE
100
AcDbSpline
 62
7
  6
CONTINUOUS
 70
0
 71
3
 72
131
 73
127
 74
0
 42
0.0000001
 43
0.0000001
 44
0.0000000001
 40
0.0
 40
0.0
 40
0.0
 40
0.0
 40
0.0211752589
 40
0.0408488753
 40
0.0590766174
 40
0.0759138255
 40
0.0914275326
 40
0.1057057863
 40
0.1188479164
 40
0.1309884523
 40
0.1422714573
 40
0.1528253435
 40
0.1625343761
 40
0.1711539
 40
0.1788345102
 40
0.1857515693
 40
0.1920531518
 40
0.1977858799
 40
0.2029722913
 40
0.207674276
 40
0.2119700661
 40
0.2159267579
 40
0.2195219648
 40
0.2227056179
 40
0.2255392777
 40
0.2281752542
 40
0.2307556928
 40
0.2333413142
 40
0.2359286727
 40
0.2385141161
 40
0.2411040252
 40
0.2438079114
 40
0.246922797
 40
0.2505018269
 40
0.2545349452
 40
0.2587328243
 40
0.2630103604
 40
0.267244326
 40
0.2714947279
 40
0.2757370457
 40
0.2799832664
 40
0.2842127123
 40
0.2885434383
 40
0.2933187908
 40
0.2988323647
 40
0.305045898
 40
0.3113909976
 40
0.3175951861
 40
0.3237752334
 40
0.3300850539
 40
0.336689152
 40
0.3437527494
 40
0.3514377365
 40
0.3598348893
 40
0.3689726854
 40
0.3788628033
 40
0.3893992034
 40
0.4006753854
 40
0.4128470212
 40
0.4260708165
 40
0.4404936836
 40
0.4562059008
 40
0.4732665879
 40
0.4917090151
 40
0.5116481131
 40
0.5335696674
 40
0.5558665912
 40
0.5763671065
 40
0.595045945
 40
0.6119492997
 40
0.6271018857
 40
0.6406041834
 40
0.6525942861
 40
0.6631890476
 40
0.6724960384
 40
0.6807056486
 40
0.6881219954
 40
0.6950640049
 40
0.7018143596
 40
0.7083959747
 40
0.7147023389
 40
0.7205004704
 40
0.7255403817
 40
0.7298874974
 40
0.7338533868
 40
0.7377314348
 40
0.7416257643
 40
0.7455176441
 40
0.7494027857
 40
0.7533514888
 40
0.7574030828
 40
0.7614607072
 40
0.7654011037
 40
0.7689085744
 40
0.7719558812
 40
0.7745818377
 40
0.7770614491
 40
0.7795603658
 40
0.7820674904
 40
0.7845807519
 40
0.7870592322
 40
0.789540022
 40
0.7921293249
 40
0.7949527468
 40
0.7981158079
 40
0.8016437214
 40
0.8055333991
 40
0.8097911669
 40
0.8144401798
 40
0.8195049299
 40
0.8250028535
 40
0.8309970137
 40
0.8376415471
 40
0.8451192497
 40
0.8534718043
 40
0.8624341556
 40
0.8719219797
 40
0.8820620113
 40
0.8930091285
 40
0.9049171029
 40
0.9179350008
 40
0.93201046
 40
0.9471272659
 40
0.9634031969
 40
0.9809782106
 40
1.0
 40
1.0
 40
1.0
 40
1.0
 10
588.7740730391
 20
675.8911304207
 30
0.0
 10
599.3947829654
 20
675.8911306235
 30
0.0
 10
619.8830357023
 20
675.8911410032
 30
0.0
 10
649.5136353273
 20
675.891180871
 30
0.0
 10
676.9684325428
 20
675.8912389001
 30
0.0
 10
702.3367763925
 20
675.8913079222
 30
0.0
 10
725.7242060613
 20
675.8913801001
 30
0.0
 10
747.2583241863
 20
675.8914493482
 30
0.0
 10
767.100587047
 20
675.891515567
 30
0.0
 10
785.4405462882
 20
675.8915760121
 30
0.0
 10
802.4823402105
 20
675.8916290865
 30
0.0
 10
818.3045839032
 20
675.8916754443
 30
0.0
 10
832.7909261319
 20
675.8917171069
 30
0.0
 10
845.8361416394
 20
675.8917557043
 30
0.0
 10
857.481008742
 20
675.8917745388
 30
0.0
 10
867.9632839561
 20
675.8918147402
 30
0.0
 10
877.4685750588
 20
675.8917966377
 30
0.0
 10
886.1058386574
 20
675.8918890628
 30
0.0
 10
893.9408044295
 20
675.8919730583
 30
0.0
 10
901.0550564087
 20
675.8916049653
 30
0.0
 10
907.5525275134
 20
675.8917716017
 30
0.0
 10
913.4948805107
 20
675.8928041557
 30
0.0
 10
918.8794280089
 20
675.8924864708
 30
0.0
 10
923.700703846
 20
675.8897340541
 30
0.0
 10
928.0408677385
 20
675.8886799434
 30
0.0
 10
932.0784789075
 20
675.8920204703
 30
0.0
 10
935.9916854011
 20
675.8999021335
 30
0.0
 10
939.8804791747
 20
675.9035771975
 30
0.0
 10
943.7719197762
 20
675.8948464417
 30
0.0
 10
947.6649179636
 20
675.8656440532
 30
0.0
 10
951.6186282711
 20
675.9328279044
 30
0.0
 10
955.8159231263
 20
676.4874596009
 30
0.0
 10
960.3273677335
 20
677.9475131416
 30
0.0
 10
965.086656519
 20
680.5186725222
 30
0.0
 10
969.6879798372
 20
684.3286789868
 30
0.0
 10
973.4922402105
 20
689.3798363586
 30
0.0
 10
976.2000618154
 20
695.2208095964
 30
0.0
 10
977.2872926581
 20
701.5943555284
 30
0.0
 10
977.1912964938
 20
707.9832119667
 30
0.0
 10
977.186205452
 20
714.3710396774
 30
0.0
 10
977.1992297653
 20
720.7503049667
 30
0.0
 10
977.2028707014
 20
727.1733975988
 30
0.0
 10
977.1980481243
 20
733.8620228564
 30
0.0
 10
977.1982036577
 20
741.1946790094
 30
0.0
 10
977.1994651077
 20
749.4716923073
 30
0.0
 10
977.1987738024
 20
758.5360276316
 30
0.0
 10
977.1989329347
 20
767.9467503341
 30
0.0
 10
977.1989708956
 20
777.3406773673
 30
0.0
 10
977.1989487844
 20
786.7169098569
 30
0.0
 10
977.1989688705
 20
796.2937218497
 30
0.0
 10
977.1989698714
 20
806.3136892144
 30
0.0
 10
977.1989815349
 20
817.023388188
 30
0.0
 10
977.1989954041
 20
828.6324156766
 30
0.0
 10
977.1990113088
 20
841.2817828784
 30
0.0
 10
977.1990305477
 20
855.0371603795
 30
0.0
 10
977.199054156
 20
869.8655034725
 30
0.0
 10
977.1990843498
 20
885.7663802244
 30
0.0
 10
977.1991232413
 20
902.8115801248
 30
0.0
 10
977.1991738967
 20
921.2046759784
 30
0.0
 10
977.1992410282
 20
941.1760301522
 30
0.0
 10
977.1993299422
 20
962.9232062137
 30
0.0
 10
977.199443575
 20
986.5948222572
 30
0.0
 10
977.1995799688
 20
1012.2824978429
 30
0.0
 10
977.1997056455
 20
1040.0902171469
 30
0.0
 10
977.1997482206
 20
1070.3359638205
 30
0.0
 10
977.1996507352
 20
1102.5149803852
 30
0.0
 10
977.1994753451
 20
1134.9755826665
 30
0.0
 10
977.1993226329
 20
1165.8097611983
 30
0.0
 10
977.1992101163
 20
1193.9387291849
 30
0.0
 10
977.1991313643
 20
1219.3853778833
 30
0.0
 10
977.1990761662
 20
1242.2356692635
 30
0.0
 10
977.1990372158
 20
1262.621659035
 30
0.0
 10
977.1990090202
 20
1280.7216161945
 30
0.0
 10
977.1989873653
 20
1296.7173658903
 30
0.0
 10
977.1989696369
 20
1310.8169633763
 30
0.0
 10
977.1989558772
 20
1323.3223881417
 30
0.0
 10
977.1989541079
 20
1334.641627621
 30
0.0
 10
977.1989265635
 20
1345.2289596824
 30
0.0
 10
977.1989870413
 20
1355.3976218597
 30
0.0
 10
977.198769217
 20
1365.2474682666
 30
0.0
 10
977.1990932519
 20
1374.6197158743
 30
0.0
 10
977.1991697502
 20
1383.2187017944
 30
0.0
 10
977.1975182627
 20
1390.8350067294
 30
0.0
 10
977.1998812554
 20
1397.5323156174
 30
0.0
 10
977.2032058769
 20
1403.6469171124
 30
0.0
 10
977.1955285921
 20
1409.53428102
 30
0.0
 10
977.1839846397
 20
1415.3850109245
 30
0.0
 10
977.2044027826
 20
1421.237494831
 30
0.0
 10
977.254112389
 20
1427.1238102667
 30
0.0
 10
976.2733609705
 20
1433.0575930316
 30
0.0
 10
973.8200961574
 20
1438.6451048975
 30
0.0
 10
970.2981281364
 20
1443.6104664773
 30
0.0
 10
965.9603778339
 20
1447.4880718147
 30
0.0
 10
961.4019537726
 20
1450.1761014728
 30
0.0
 10
957.0705203368
 20
1451.805950774
 30
0.0
 10
953.035994271
 20
1452.5740293284
 30
0.0
 10
949.2203488982
 20
1452.7550116523
 30
0.0
 10
945.4663009917
 20
1452.7453857332
 30
0.0
 10
941.694830468
 20
1452.7235836946
 30
0.0
 10
937.9337019522
 20
1452.7238684738
 30
0.0
 10
934.1857610274
 20
1452.7297868042
 30
0.0
 10
930.3996885433
 20
1452.7362162519
 30
0.0
 10
926.440598384
 20
1452.7372579948
 30
0.0
 10
922.1393087926
 20
1452.7354224611
 30
0.0
 10
917.3672472229
 20
1452.7332531972
 30
0.0
 10
912.0603916485
 20
1452.7335266392
 30
0.0
 10
906.2044726952
 20
1452.7344545542
 30
0.0
 10
899.786252533
 20
1452.7344029021
 30
0.0
 10
892.7786604403
 20
1452.7341047341
 30
0.0
 10
885.1490531062
 20
1452.7342176078
 30
0.0
 10
876.8447706949
 20
1452.7342847227
 30
0.0
 10
867.7481286727
 20
1452.734271675
 30
0.0
 10
857.6585042241
 20
1452.734307838
 30
0.0
 10
846.385998241
 20
1452.734325605
 30
0.0
 10
833.9509623545
 20
1452.7343610761
 30
0.0
 10
820.5077254951
 20
1452.7343996789
 30
0.0
 10
806.1679576977
 20
1452.7344408809
 30
0.0
 10
790.8327062859
 20
1452.7344878175
 30
0.0
 10
774.2835989164
 20
1452.7345413646
 30
0.0
 10
756.2910625108
 20
1452.7346006469
 30
0.0
 10
736.7294679582
 20
1452.7346642273
 30
0.0
 10
715.5584447503
 20
1452.73472925
 30
0.0
 10
692.7533152171
 20
1452.7347945
 30
0.0
 10
668.1929413193
 20
1452.734855408
 30
0.0
 10
641.6739751902
 20
1452.734904754
 30
0.0
 10
623.31840122
 20
1452.7349251685
 30
0.0
 10
613.7777902246
 20
1452.7349318496
 30
0.0
  0
SPLINE
  5
374
100
AcDbEntity
  8
_SURFACE
100
AcDbSpline
 62
7
  6
CONTINUOUS
 70
0
 71
3
 72
9
 73
5
 74
0
 42
0.0000001
 43
0.0000001
 44
0.0000000001
 40
0.0
 40
0.0
 40
0.0
 40
0.0
 40
0.0451840532
 40
1.0
 40
1.0
 40
1.0
 40
1.0
 10
613.7776495276
 20
1452.7333215668
 30
0.0
 10
613.4010632922
 20
1452.7333872921
 30
0.0
 10
605.0665689486
 20
1452.7348146954
 30
0.0
 10
596.7320744718
 20
1452.7355160356
 30
0.0
 10
588.7741662502
 20
1452.7357440903
 30
0.0
  0
SPLINE
  5
375
100
AcDbEntity
  8
_SURFACE
100
AcDbSpline
 62
6
  6
CONTINUOUS
 70
0
 71
3
 72
11
 73
7
 74
0
 42
0.0000001
 43
0.0000001
 44
0.0000000001
 40
0.0
 40
0.0
 40
0.0
 40
0.0
 40
0.1328253054
 40
0.3342618185
 40
0.5856741493
 40
1.0
 40
1.0
 40
1.0
 40
1.0
 10
388.7770767946
 20
1364.8952409069
 30
0.0
 10
388.7771519555
 20
1365.2288658736
 30
0.0
 10
388.7774595575
 20
1366.0684504942
 30
0.0
 10
388.7779708674
 20
1367.5395219327
 30
0.0
 10
388.7779507925
 20
1369.7176546409
 30
0.0
 10
388.7774413256
 20
1371.3898275339
 30
0.0
 10
388.7771338336
 20
1372.4305136081
 30
0.0
  0
SPLINE
  5
376
100
AcDbEntity
  8
_SURFACE
100
AcDbSpline
 62
6
  6
CONTINUOUS
 70
0
 71
3
 72
11
 73
7
 74
0
 42
0.0000001
 43
0.0000001
 44
0.0000000001
 40
0.0
 40
0.0
 40
0.0
 40
0.0
 40
0.414173163
 40
0.6654965748
 40
0.8667737527
 40
1.0
 40
1.0
 40
1.0
 40
1.0
 10
88.7771338337
 20
1372.4300725819
 30
0.0
 10
88.7768160461
 20
1371.3894987723
 30
0.0
 10
88.7762949523
 20
1369.7174968834
 30
0.0
 10
88.7763777694
 20
1367.5398035571
 30
0.0
 10
88.7770772172
 20
1366.0679649857
 30
0.0
 10
88.7770952268
 20
1365.2275543603
 30
0.0
 10
88.7770768062
 20
1364.8928350634
 30
0.0
  0
SPLINE
  5
377
100
AcDbEntity
  8
_SURFACE
100
AcDbSpline
 62
7
  6
CONTINUOUS
 70
0
 71
3
 72
22
 73
18
 74
0
 42
0.0000001
 43
0.0000001
 44
0.0000000001
 40
0.0
 40
0.0
 40
0.0
 40
0.0
 40
0.0482273649
 40
0.0966276696
 40
0.1450023806
 40
0.1931627488
 40
0.2414901265
 40
0.2915133023
 40
0.3449374846
 40
0.4037776921
 40
0.4686798951
 40
0.5396200949
 40
0.6166246724
 40
0.7003330342
 40
0.7915542421
 40
0.891186735
 40
1.0
 40
1.0
 40
1.0
 40
1.0
 10
473.8565326248
 20
1317.6518157977
 30
0.0
 10
475.5656465707
 20
1317.6555208413
 30
0.0
 10
478.9900044709
 20
1317.6624310842
 30
0.0
 10
484.1287055445
 20
1317.6689012813
 30
0.0
 10
489.2650382775
 20
1317.6686579743
 30
0.0
 10
494.3987767209
 20
1317.6590021958
 30
0.0
 10
499.5909168582
 20
1317.6414800298
 30
0.0
 10
504.9695306535
 20
1317.6089304774
 30
0.0
 10
510.7207440262
 20
1317.5839576175
 30
0.0
 10
516.99872935
 20
1317.4646733429
 30
0.0
 10
523.8912681401
 20
1317.1386940839
 30
0.0
 10
531.4147122609
 20
1316.5822339193
 30
0.0
 10
539.5809981759
 20
1315.7275658792
 30
0.0
 10
548.4274929312
 20
1314.5098714141
 30
0.0
 10
558.0161894806
 20
1312.8438051367
 30
0.0
 10
568.4046081246
 20
1310.626219641
 30
0.0
 10
575.5611005938
 20
1308.7838823687
 30
0.0
 10
579.2739872245
 20
1307.7423422179
 30
0.0
  0
SPLINE
  5
378
100
AcDbEntity
  8
_SURFACE
100
AcDbSpline
 62
6
  6
CONTINUOUS
 70
0
 71
3
 72
12
 73
8
 74
0
 42
0.0000001
 43
0.0000001
 44
0.0000000001
 40
0.0
 40
0.0
 40
0.0
 40
0.0
 40
0.165846116
 40
0.2853680751
 40
0.4128348743
 40
0.6912362776
 40
1.0
 40
1.0
 40
1.0
 40
1.0
 10
579.2741034114
 20
1307.7423095844
 30
0.0
 10
582.3960948541
 20
1310.2730567185
 30
0.0
 10
587.4303155589
 20
1315.0449008019
 30
0.0
 10
594.1613043948
 20
1322.4472634449
 30
0.0
 10
602.3016641991
 20
1332.2410364619
 30
0.0
 10
612.6919168661
 20
1346.1126667917
 30
0.0
 10
620.3669404272
 20
1358.1112398509
 30
0.0
 10
624.1923049414
 20
1364.5415935539
 30
0.0
  0
SPLINE
  5
379
100
AcDbEntity
  8
_SURFACE
100
AcDbSpline
 62
6
  6
CONTINUOUS
 70
0
 71
3
 72
12
 73
8
 74
0
 42
0.0000001
 43
0.0000001
 44
0.0000000001
 40
0.0
 40
0.0
 40
0.0
 40
0.0
 40
0.2442489844
 40
0.4594925558
 40
0.650783519
 40
0.8216524245
 40
1.0
 40
1.0
 40
1.0
 40
1.0
 10
477.7769705652
 20
1364.8958706776
 30
0.0
 10
477.7526344084
 20
1360.9402832652
 30
0.0
 10
477.6984000867
 20
1353.5048470431
 30
0.0
 10
477.5278773152
 20
1342.9430188071
 30
0.0
 10
477.4135670025
 20
1333.6649574559
 30
0.0
 10
479.7496477743
 20
1324.7012645106
 30
0.0
 10
475.9397320812
 20
1319.6525959493
 30
0.0
 10
473.8565326245
 20
1317.6518478635
 30
0.0
  0
SPLINE
  5
37A
100
AcDbEntity
  8
_SURFACE
100
AcDbSpline
 62
7
  6
CONTINUOUS
 70
0
 71
3
 72
16
 73
12
 74
0
 42
0.0000001
 43
0.0000001
 44
0.0000000001
 40
0.0
 40
0.0
 40
0.0
 40
0.0
 40
0.0762830644
 40
0.1614876463
 40
0.2570789166
 40
0.3648615404
 40
0.4844360937
 40
0.6106360465
 40
0.7401294793
 40
0.8708943998
 40
1.0
 40
1.0
 40
1.0
 40
1.0
 10
579.2739504901
 20
1307.7422123477
 30
0.0
 10
587.2491758948
 20
1305.5050471179
 30
0.0
 10
603.9100334292
 20
1299.9265761405
 30
0.0
 10
629.3072004356
 20
1288.1996565883
 30
0.0
 10
656.0448303574
 20
1271.6993604459
 30
0.0
 10
683.2402342538
 20
1249.3756685549
 30
0.0
 10
709.082783191
 20
1220.7749492908
 30
0.0
 10
731.3607438903
 20
1186.441298066
 30
0.0
 10
748.2135042053
 20
1147.7983500005
 30
0.0
 10
758.5252819414
 20
1106.6038767495
 30
0.0
 10
760.8116679312
 20
1078.3321990255
 30
0.0
 10
760.8116857611
 20
1064.313493874
 30
0.0
  0
SPLINE
  5
37B
100
AcDbEntity
  8
_SURFACE
100
AcDbSpline
 62
7
  6
CONTINUOUS
 70
0
 71
3
 72
14
 73
10
 74
0
 42
0.0000001
 43
0.0000001
 44
0.0000000001
 40
0.0
 40
0.0
 40
0.0
 40
0.0
 40
0.1463316433
 40
0.291639889
 40
0.4357933003
 40
0.5787246723
 40
0.720760633
 40
0.861138924
 40
1.0
 40
1.0
 40
1.0
 40
1.0
 10
760.8116857611
 20
1064.313493874
 30
0.0
 10
760.81170512
 20
1049.0927003267
 30
0.0
 10
758.1403616894
 20
1018.6880572726
 30
0.0
 10
746.219063841
 20
974.719426545
 30
0.0
 10
726.887268295
 20
933.846340455
 30
0.0
 10
700.8599029104
 20
897.2993921516
 30
0.0
 10
669.0684560043
 20
866.1909001375
 30
0.0
 10
632.6395336262
 20
841.4428433482
 30
0.0
 10
605.9315166031
 20
829.5698428575
 30
0.0
 10
592.259904011
 20
824.910599613
 30
0.0
  0
SPLINE
  5
37C
100
AcDbEntity
  8
_SURFACE
100
AcDbSpline
 62
6
  6
CONTINUOUS
 70
0
 71
3
 72
15
 73
11
 74
0
 42
0.0000001
 43
0.0000001
 44
0.0000000001
 40
0.0
 40
0.0
 40
0.0
 40
0.0
 40
0.0528543082
 40
0.1604893199
 40
0.2779223401
 40
0.404469497
 40
0.5396346612
 40
0.6847047514
 40
0.8415152425
 40
1.0
 40
1.0
 40
1.0
 40
1.0
 10
592.2539823661
 20
824.9085818928
 30
0.0
 10
593.4042629805
 20
824.1032518912
 30
0.0
 10
596.8192779255
 20
821.5460222893
 30
0.0
 10
602.3808294651
 20
816.6749146766
 30
0.0
 10
608.965217327
 20
810.0419452588
 30
0.0
 10
615.6954817263
 20
802.5438166037
 30
0.0
 10
622.6240898721
 20
794.2472871155
 30
0.0
 10
629.716540596
 20
785.0503560071
 30
0.0
 10
636.7991872826
 20
775.0756573683
 30
0.0
 10
641.3903431689
 20
768.0671080537
 30
0.0
 10
643.6386873821
 20
764.5072240906
 30
0.0
  0
SPLINE
  5
37D
100
AcDbEntity
  8
_SURFACE
100
AcDbSpline
 62
6
  6
CONTINUOUS
 70
0
 71
3
 72
57
 73
53
 74
0
 42
0.0000001
 43
0.0000001
 44
0.0000000001
 40
0.0
 40
0.0
 40
0.0
 40
0.0
 40
0.0034019411
 40
0.0356520103
 40
0.067893286
 40
0.0840168475
 40
0.1001351285
 40
0.1323546267
 40
0.1484646318
 40
0.1645699846
 40
0.1806723631
 40
0.1887220772
 40
0.1967690164
 40
0.2048181738
 40
0.2128643044
 40
0.2289517506
 40
0.245035499
 40
0.2611140662
 40
0.2932456263
 40
0.3253572484
 40
0.3574492051
 40
0.3895231009
 40
0.4215813432
 40
0.4536222174
 40
0.4856546134
 40
0.5176854496
 40
0.5497182707
 40
0.5817644954
 40
0.6138227773
 40
0.6298631789
 40
0.6459083186
 40
0.6780031101
 40
0.6940615029
 40
0.7101264661
 40
0.7261965883
 40
0.742271086
 40
0.7583509348
 40
0.7744359524
 40
0.7824806662
 40
0.7905260074
 40
0.7985724773
 40
0.8066214057
 40
0.8146704254
 40
0.8227211621
 40
0.8388242018
 40
0.8549306572
 40
0.8710398782
 40
0.8871556562
 40
0.9032720124
 40
0.9355056685
 40
0.9677482164
 40
1.0
 40
1.0
 40
1.0
 40
1.0
 10
643.6368574025
 20
764.5071593464
 30
0.0
 10
644.6551269952
 20
764.559538283
 30
0.0
 10
655.3233203382
 20
765.1647611492
 30
0.0
 10
675.5831113771
 20
767.4467230391
 30
0.0
 10
699.2388877471
 20
772.5726555037
 30
0.0
 10
717.76754171
 20
778.0954912755
 30
0.0
 10
735.9838242847
 20
784.5520203617
 30
0.0
 10
753.6799362384
 20
792.3948834739
 30
0.0
 10
770.6899472739
 20
801.5526144709
 30
0.0
 10
783.0800948687
 20
809.061999154
 30
0.0
 10
793.0706442561
 20
815.837508025
 30
0.0
 10
800.8460282805
 20
821.5553213828
 30
0.0
 10
806.5661026723
 20
825.9898300008
 30
0.0
 10
812.1709492014
 20
830.5674128118
 30
0.0
 10
819.485116862
 20
836.8569752877
 30
0.0
 10
828.3240780269
 20
845.0605738433
 30
0.0
 10
838.4196442323
 20
855.4233187157
 30
0.0
 10
851.1620946435
 20
869.8876089889
 30
0.0
 10
865.7098234208
 20
889.1224095705
 30
0.0
 10
880.8056131183
 20
913.7873242924
 30
0.0
 10
893.4427653579
 20
939.7783654053
 30
0.0
 10
903.5525766072
 20
966.8335493997
 30
0.0
 10
911.0968210129
 20
994.6958043729
 30
0.0
 10
916.0611055891
 20
1023.1172344884
 30
0.0
 10
918.4478633532
 20
1051.8606107666
 30
0.0
 10
918.2735902928
 20
1080.6993368308
 30
0.0
 10
915.5355402372
 20
1109.4135086935
 30
0.0
 10
910.2192072233
 20
1137.7721956348
 30
0.0
 10
903.6384865258
 20
1160.9126886617
 30
0.0
 10
897.0965062765
 20
1178.9970182394
 30
0.0
 10
889.7054696632
 20
1196.762323161
 30
0.0
 10
881.0503611791
 20
1213.9866804371
 30
0.0
 10
871.1789307278
 20
1230.516422244
 30
0.0
 10
863.173657687
 20
1242.5469147844
 30
0.0
 10
854.5827504914
 20
1254.1719797564
 30
0.0
 10
845.4237610206
 20
1265.3610177746
 30
0.0
 10
835.7152563534
 20
1276.0825855063
 30
0.0
 10
827.1839849174
 20
1284.6024889842
 30
0.0
 10
820.1074253647
 20
1291.1548352683
 30
0.0
 10
814.6763158981
 20
1295.9346829198
 30
0.0
 10
809.1249841968
 20
1300.5762695088
 30
0.0
 10
803.45674845
 20
1305.076124609
 30
0.0
 10
797.6750402849
 20
1309.4314219999
 30
0.0
 10
789.8201162985
 20
1315.0413838722
 30
0.0
 10
779.73543976
 20
1321.6776948057
 30
0.0
 10
767.2418721843
 20
1329.0135289551
 30
0.0
 10
754.387021601
 20
1335.7045300474
 30
0.0
 10
741.2041228056
 20
1341.7315320663
 30
0.0
 10
723.2384052627
 20
1348.8598873128
 30
0.0
 10
700.1269428956
 20
1356.0399404151
 30
0.0
 10
671.66586932
 20
1361.7947263337
 30
0.0
 10
652.3907309778
 20
1363.6981698366
 30
0.0
 10
642.7356049532
 20
1364.1643277771
 30
0.0
  0
SPLINE
  5
37E
100
AcDbEntity
  8
_SURFACE
100
AcDbSpline
 62
6
  6
CONTINUOUS
 70
0
 71
3
 72
14
 73
10
 74
0
 42
0.0000001
 43
0.0000001
 44
0.0000000001
 40
0.0
 40
0.0
 40
0.0
 40
0.0
 40
0.1855215311
 40
0.370905693
 40
0.4636823463
 40
0.5567791943
 40
0.6487511458
 40
0.7393512273
 40
1.0
 40
1.0
 40
1.0
 40
1.0
 10
642.7353172294
 20
1364.1643315048
 30
0.0
 10
641.5897388458
 20
1364.2195816998
 30
0.0
 10
639.2987736938
 20
1364.3170221364
 30
0.0
 10
636.4334801025
 20
1364.4032529227
 30
0.0
 10
634.1388847323
 20
1364.4539482017
 30
0.0
 10
632.4214127069
 20
1364.4807750019
 30
0.0
 10
630.7172569619
 20
1364.4949782892
 30
0.0
 10
627.9772987419
 20
1364.5143725789
 30
0.0
 10
625.8059007521
 20
1364.5295963037
 30
0.0
 10
624.1945857529
 20
1364.5406574292
 30
0.0
  0
SPLINE
  5
37F
100
AcDbEntity
  8
_SURFACE
100
AcDbSpline
 62
7
  6
CONTINUOUS
 70
0
 71
3
 72
10
 73
6
 74
0
 42
0.0000001
 43
0.0000001
 44
0.0000000001
 40
0.0
 40
0.0
 40
0.0
 40
0.0
 40
0.331957878
 40
0.6663451928
 40
1.0
 40
1.0
 40
1.0
 40
1.0
 10
592.2599591468
 20
824.9104389569
 30
0.0
 10
583.6877947345
 20
821.9890266753
 30
0.0
 10
566.1407538573
 20
817.0859343816
 30
0.0
 10
539.2183845087
 20
812.4206716439
 30
0.0
 10
520.9932867677
 20
811.2021819192
 30
0.0
 10
511.8916369713
 20
811.0707080811
 30
0.0
  0
SPLINE
  5
380
100
AcDbEntity
  8
_SURFACE
100
AcDbSpline
 62
6
  6
CONTINUOUS
 70
0
 71
3
 72
11
 73
7
 74
0
 42
0.0000001
 43
0.0000001
 44
0.0000000001
 40
0.0
 40
0.0
 40
0.0
 40
0.0
 40
0.1972935564
 40
0.4600942725
 40
0.7293900853
 40
1.0
 40
1.0
 40
1.0
 40
1.0
 10
511.8914523033
 20
811.0707050649
 30
0.0
 10
512.9176819732
 20
807.977774995
 30
0.0
 10
515.2722280163
 20
800.7521240539
 30
0.0
 10
518.9004211482
 20
789.2638256973
 30
0.0
 10
522.8089152982
 20
776.5944415505
 30
0.0
 10
525.3599663938
 20
768.049189345
 30
0.0
 10
526.615550183
 20
763.7594478963
 30
0.0
  0
SPLINE
  5
381
100
AcDbEntity
  8
_SURFACE
100
AcDbSpline
 62
6
  6
CONTINUOUS
 70
0
 71
3
 72
17
 73
13
 74
0
 42
0.0000001
 43
0.0000001
 44
0.0000000001
 40
0.0
 40
0.0
 40
0.0
 40
0.0
 40
0.1380512782
 40
0.2761210211
 40
0.3451769076
 40
0.4141909657
 40
0.4831517866
 40
0.5530727795
 40
0.6239661008
 40
0.6949208778
 40
0.8362287329
 40
1.0
 40
1.0
 40
1.0
 40
1.0
 10
618.0161956034
 20
764.0445803482
 30
0.0
 10
619.1954726311
 20
764.0518949729
 30
0.0
 10
621.5541818654
 20
764.0669438096
 30
0.0
 10
624.5027790345
 20
764.087011601
 30
0.0
 10
626.8616390611
 20
764.1033488884
 30
0.0
 10
628.6301441606
 20
764.1167226103
 30
0.0
 10
630.4060434548
 20
764.1293855015
 30
0.0
 10
632.1979918243
 20
764.1434138697
 30
0.0
 10
634.0068542637
 20
764.1695193794
 30
0.0
 10
636.4251459536
 20
764.2222993455
 30
0.0
 10
639.6359888783
 20
764.3202307095
 30
0.0
 10
642.2396931837
 20
764.4352706043
 30
0.0
 10
643.6368580768
 20
764.5071392894
 30
0.0
  0
SPLINE
  5
382
100
AcDbEntity
  8
_SURFACE
100
AcDbSpline
 62
7
  6
CONTINUOUS
 70
0
 71
3
 72
10
 73
6
 74
0
 42
0.0000001
 43
0.0000001
 44
0.0000000001
 40
0.0
 40
0.0
 40
0.0
 40
0.0
 40
0.3475768731
 40
0.6805488043
 40
1.0
 40
1.0
 40
1.0
 40
1.0
 10
511.891636972
 20
811.0707080389
 30
0.0
 10
508.3378670363
 20
811.0192490907
 30
0.0
 10
501.3787394627
 20
810.9990865702
 30
0.0
 10
491.1534207697
 20
810.9548035016
 30
0.0
 10
484.4820374125
 20
810.9557931994
 30
0.0
 10
481.2154969852
 20
810.9604579051
 30
0.0
  0
SPLINE
  5
383
100
AcDbEntity
  8
_SURFACE
100
AcDbSpline
 62
6
  6
CONTINUOUS
 70
0
 71
3
 72
10
 73
6
 74
0
 42
0.0000001
 43
0.0000001
 44
0.0000000001
 40
0.0
 40
0.0
 40
0.0
 40
0.0
 40
0.3273704832
 40
0.6606965161
 40
1.0
 40
1.0
 40
1.0
 40
1.0
 10
481.2154969852
 20
810.9604579051
 30
0.0
 10
481.289022434
 20
805.8050693734
 30
0.0
 10
481.4980858542
 20
795.400973124
 30
0.0
 10
482.0912620628
 20
779.6623822149
 30
0.0
 10
482.4617167104
 20
769.0753529106
 30
0.0
 10
482.6593693418
 20
763.7351581527
 30
0.0
  0
SPLINE
  5
384
100
AcDbEntity
  8
_SURFACE
100
AcDbSpline
 62
6
  6
CONTINUOUS
 70
0
 71
3
 72
18
 73
14
 74
0
 42
0.0000001
 43
0.0000001
 44
0.0000000001
 40
0.0
 40
0.0
 40
0.0
 40
0.0
 40
0.0555921438
 40
0.11115357
 40
0.1666949462
 40
0.2222627665
 40
0.333370983
 40
0.4444737618
 40
0.5555654541
 40
0.6666970691
 40
0.777798128
 40
0.8889239686
 40
1.0
 40
1.0
 40
1.0
 40
1.0
 10
482.6598994815
 20
763.7352241047
 30
0.0
 10
483.4744522317
 20
763.7352923328
 30
0.0
 10
485.1031076451
 20
763.7354646135
 30
0.0
 10
487.5455719314
 20
763.7358235748
 30
0.0
 10
489.9876798055
 20
763.7362839372
 30
0.0
 10
493.2436758565
 20
763.7370302228
 30
0.0
 10
497.3137741497
 20
763.738211689
 30
0.0
 10
502.1974246935
 20
763.7400192488
 30
0.0
 10
507.0814179219
 20
763.742211557
 30
0.0
 10
511.965385765
 20
763.7447801719
 30
0.0
 10
516.8498537512
 20
763.7477192289
 30
0.0
 10
521.733507067
 20
763.7510332897
 30
0.0
 10
524.989274598
 20
763.7534549597
 30
0.0
 10
526.6167933626
 20
763.7547787115
 30
0.0
  0
SPLINE
  5
385
100
AcDbEntity
  8
_SURFACE
100
AcDbSpline
 62
6
  6
CONTINUOUS
 70
0
 71
3
 72
9
 73
5
 74
0
 42
0.0000001
 43
0.0000001
 44
0.0000000001
 40
0.0
 40
0.0
 40
0.0
 40
0.0
 40
0.5068999053
 40
1.0
 40
1.0
 40
1.0
 40
1.0
 10
-0.2213216521
 20
763.7304931879
 30
0.0
 10
81.3694035123
 20
763.7228606618
 30
0.0
 10
242.3296338816
 20
763.7426644797
 30
0.0
 10
403.2898654793
 20
763.72284638
 30
0.0
 10
482.6593693418
 20
763.7351581527
 30
0.0
  0
SPLINE
  5
386
100
AcDbEntity
  8
_SURFACE
100
AcDbSpline
 62
7
  6
CONTINUOUS
 70
0
 71
3
 72
22
 73
18
 74
0
 42
0.0000001
 43
0.0000001
 44
0.0000000001
 40
0.0
 40
0.0
 40
0.0
 40
0.0
 40
0.0482280647
 40
0.0966292422
 40
0.1450049956
 40
0.1931658433
 40
0.2414934545
 40
0.2915166849
 40
0.3449406049
 40
0.4037804635
 40
0.4686823093
 40
0.5396221263
 40
0.616626105
 40
0.7003337763
 40
0.7915543252
 40
0.8911862661
 40
1.0
 40
1.0
 40
1.0
 40
1.0
 10
3.7101175256
 20
810.9751821146
 30
0.0
 10
2.0007889333
 20
810.9714754615
 30
0.0
 10
-1.4240050669
 20
810.9645606125
 30
0.0
 10
-6.5633696023
 20
810.9580782425
 30
0.0
 10
-11.7003577361
 20
810.9583052313
 30
0.0
 10
-16.8347286853
 20
810.9679439766
 30
0.0
 10
-22.0274727684
 20
810.9854554187
 30
0.0
 10
-27.4066851946
 20
811.0179837449
 30
0.0
 10
-33.1585169926
 20
811.0429830734
 30
0.0
 10
-39.4371692047
 20
811.1620473856
 30
0.0
 10
-46.3304430225
 20
811.4879117336
 30
0.0
 10
-53.8546880699
 20
812.0442571892
 30
0.0
 10
-62.0218389219
 20
812.8988582377
 30
0.0
 10
-70.8692668335
 20
814.1165433247
 30
0.0
 10
-80.4589810215
 20
815.7826784519
 30
0.0
 10
-90.8485411571
 20
818.0004419261
 30
0.0
 10
-98.0058364679
 20
819.8429472711
 30
0.0
 10
-101.7191437798
 20
820.8846351943
 30
0.0
  0
SPLINE
  5
387
100
AcDbEntity
  8
_SURFACE
100
AcDbSpline
 62
6
  6
CONTINUOUS
 70
0
 71
3
 72
12
 73
8
 74
0
 42
0.0000001
 43
0.0000001
 44
0.0000000001
 40
0.0
 40
0.0
 40
0.0
 40
0.0
 40
0.1658458432
 40
0.2853680468
 40
0.4128353555
 40
0.6912384645
 40
1.0
 40
1.0
 40
1.0
 40
1.0
 10
-101.7192590502
 20
820.8846675712
 30
0.0
 10
-104.8411305007
 20
818.3538849118
 30
0.0
 10
-109.8751509515
 20
813.5819925655
 30
0.0
 10
-116.605866197
 20
806.179581685
 30
0.0
 10
-124.7459140979
 20
796.3857367617
 30
0.0
 10
-135.1357090882
 20
782.5141098114
 30
0.0
 10
-142.8103845113
 20
770.515599914
 30
0.0
 10
-146.6355552362
 20
764.085331733
 30
0.0
  0
SPLINE
  5
388
100
AcDbEntity
  8
_SURFACE
100
AcDbSpline
 62
6
  6
CONTINUOUS
 70
0
 71
3
 72
10
 73
6
 74
0
 42
0.0000001
 43
0.0000001
 44
0.0000000001
 40
0.0
 40
0.0
 40
0.0
 40
0.0
 40
0.3289022508
 40
0.6654321703
 40
1.0
 40
1.0
 40
1.0
 40
1.0
 10
-146.6355642348
 20
764.0853317673
 30
0.0
 10
-145.3600978276
 20
764.0724037831
 30
0.0
 10
-142.7795284859
 20
764.0504100729
 30
0.0
 10
-138.901367042
 20
764.0443197976
 30
0.0
 10
-136.2988185836
 20
764.023785636
 30
0.0
 10
-135.0013639163
 20
764.0124846781
 30
0.0
  0
SPLINE
  5
389
100
AcDbEntity
  8
_SURFACE
100
AcDbSpline
 62
6
  6
CONTINUOUS
 70
0
 71
3
 72
12
 73
8
 74
0
 42
0.0000001
 43
0.0000001
 44
0.0000000001
 40
0.0
 40
0.0
 40
0.0
 40
0.0
 40
0.2443188315
 40
0.459563824
 40
0.6508127761
 40
0.8216059123
 40
1.0
 40
1.0
 40
1.0
 40
1.0
 10
-0.2213216521
 20
763.7304931879
 30
0.0
 10
-0.1969674009
 20
767.6878948381
 30
0.0
 10
-0.142799828
 20
775.1257150393
 30
0.0
 10
0.0285604889
 20
785.6900414034
 30
0.0
 10
0.1417314369
 20
794.9672093002
 30
0.0
 10
-2.1997422492
 20
803.9329897054
 30
0.0
 10
1.6225068893
 20
808.9771938826
 30
0.0
 10
3.7101175259
 20
810.9751501352
 30
0.0
  0
SPLINE
  5
38A
100
AcDbEntity
  8
_SURFACE
100
AcDbSpline
 62
7
  6
CONTINUOUS
 70
0
 71
3
 72
15
 73
11
 74
0
 42
0.0000001
 43
0.0000001
 44
0.0000000001
 40
0.0
 40
0.0
 40
0.0
 40
0.0
 40
0.1287969902
 40
0.2568316375
 40
0.3835881541
 40
0.5099072791
 40
0.6353364673
 40
0.7595781551
 40
0.8814815871
 40
1.0
 40
1.0
 40
1.0
 40
1.0
 10
-283.2568890701
 20
1064.3134938735
 30
0.0
 10
-283.256906241
 20
1078.005616077
 30
0.0
 10
-281.0963982687
 20
1105.3592390908
 30
0.0
 10
-271.4431177678
 20
1145.1483163048
 30
0.0
 10
-255.7112665273
 20
1182.6712669277
 30
0.0
 10
-234.3808646848
 20
1216.9912509538
 30
0.0
 10
-208.0475531008
 20
1247.2863632062
 30
0.0
 10
-177.5912041746
 20
1272.7087680763
 30
0.0
 10
-144.1326948336
 20
1292.5937194031
 30
0.0
 10
-120.2743029983
 20
1302.0987021349
 30
0.0
 10
-108.2367240631
 20
1305.819228445
 30
0.0
  0
SPLINE
  5
38B
100
AcDbEntity
  8
_SURFACE
100
AcDbSpline
 62
6
  6
CONTINUOUS
 70
0
 71
3
 72
15
 73
11
 74
0
 42
0.0000001
 43
0.0000001
 44
0.0000000001
 40
0.0
 40
0.0
 40
0.0
 40
0.0
 40
0.0538980978
 40
0.1631076853
 40
0.2815508331
 40
0.408536337
 40
0.5435708357
 40
0.6878567069
 40
0.8431107393
 40
1.0
 40
1.0
 40
1.0
 40
1.0
 10
-108.2363980911
 20
1305.8193292521
 30
0.0
 10
-109.3296817641
 20
1306.6434538679
 30
0.0
 10
-112.5656962986
 20
1309.234285633
 30
0.0
 10
-117.826060091
 20
1314.0914803673
 30
0.0
 10
-124.0355109058
 20
1320.6236487495
 30
0.0
 10
-130.3567724748
 20
1327.9374283045
 30
0.0
 10
-136.8377939171
 20
1335.9721747637
 30
0.0
 10
-143.4453759674
 20
1344.8185859418
 30
0.0
 10
-150.0253738978
 20
1354.3679150639
 30
0.0
 10
-154.2829548361
 20
1361.0590744989
 30
0.0
 10
-156.36672838
 20
1364.4561605268
 30
0.0
  0
SPLINE
  5
38C
100
AcDbEntity
  8
_SURFACE
100
AcDbSpline
 62
6
  6
CONTINUOUS
 70
0
 71
3
 72
33
 73
29
 74
0
 42
0.0000001
 43
0.0000001
 44
0.0000000001
 40
0.0
 40
0.0
 40
0.0
 40
0.0
 40
0.0017140124
 40
0.0181542926
 40
0.0838120511
 40
0.149460432
 40
0.1822883628
 40
0.198701221
 40
0.2151121903
 40
0.2479267785
 40
0.2807348696
 40
0.3135334865
 40
0.3463266518
 40
0.3791092529
 40
0.3954979159
 40
0.4118850354
 40
0.4282704421
 40
0.4446533823
 40
0.4774068658
 40
0.5101509797
 40
0.5428850751
 40
0.6082983566
 40
0.6736709021
 40
0.7390015985
 40
0.8042944967
 40
0.8695536067
 40
0.9347841988
 40
1.0
 40
1.0
 40
1.0
 40
1.0
 10
-156.3621316735
 20
1364.4553196826
 30
0.0
 10
-156.6242362973
 20
1364.4508614689
 30
0.0
 10
-159.4003115991
 20
1364.3999316611
 30
0.0
 10
-172.2120205985
 20
1363.9643459445
 30
0.0
 10
-194.7443077421
 20
1361.740212634
 30
0.0
 10
-219.3755889187
 20
1356.6493231406
 30
0.0
 10
-236.2552712618
 20
1351.7416143456
 30
0.0
 10
-245.7789198447
 20
1348.5570046693
 30
0.0
 10
-255.2128772364
 20
1345.1222699548
 30
0.0
 10
-266.828305815
 20
1340.3627965611
 30
0.0
 10
-280.440371221
 20
1333.9206454918
 30
0.0
 10
-293.6891103719
 20
1326.7673821088
 30
0.0
 10
-306.5364227793
 20
1318.9239349847
 30
0.0
 10
-316.879745559
 20
1311.830284753
 30
0.0
 10
-324.9182757629
 20
1305.8358773089
 30
0.0
 10
-330.8257251749
 20
1301.183208655
 30
0.0
 10
-336.6077144962
 20
1296.3768975429
 30
0.0
 10
-344.1433801795
 20
1289.7698781777
 30
0.0
 10
-353.2319468569
 20
1281.145778106
 30
0.0
 10
-363.5798935598
 20
1270.2444549661
 30
0.0
 10
-376.5936461414
 20
1255.0231854155
 30
0.0
 10
-391.3545636955
 20
1234.7756964817
 30
0.0
 10
-406.493687473
 20
1208.8248828343
 30
0.0
 10
-418.9581219614
 20
1181.5090293516
 30
0.0
 10
-428.6793695007
 20
1153.1219969197
 30
0.0
 10
-435.6237986237
 20
1123.9480073185
 30
0.0
 10
-439.7826263533
 20
1094.2647875708
 30
0.0
 10
-440.703559182
 20
1074.301773485
 30
0.0
 10
-440.7039505802
 20
1064.3276126529
 30
0.0
  0
SPLINE
  5
38D
100
AcDbEntity
  8
_SURFACE
100
AcDbSpline
 62
6
  6
CONTINUOUS
 70
0
 71
3
 72
34
 73
30
 74
0
 42
0.0000001
 43
0.0000001
 44
0.0000000001
 40
0.0
 40
0.0
 40
0.0
 40
0.0
 40
0.063861476
 40
0.1277398444
 40
0.1916442213
 40
0.2555802851
 40
0.319555813
 40
0.3835687929
 40
0.4476257974
 40
0.4796807487
 40
0.5117447499
 40
0.5438186304
 40
0.5598614544
 40
0.5759051192
 40
0.5919526986
 40
0.6080025787
 40
0.6401046764
 40
0.6561610536
 40
0.6722184153
 40
0.7043365107
 40
0.7685750354
 40
0.7846435829
 40
0.8007178922
 40
0.8328636035
 40
0.8971482772
 40
0.9614457179
 40
0.97754188
 40
0.9934265089
 40
1.0
 40
1.0
 40
1.0
 40
1.0
 10
-440.7038602162
 20
1064.327694849
 30
0.0
 10
-440.7043790493
 20
1054.3528510375
 30
0.0
 10
-439.7850684705
 20
1034.3880094079
 30
0.0
 10
-435.6282155561
 20
1004.7019743433
 30
0.0
 10
-428.6852867532
 20
975.525190707
 30
0.0
 10
-418.9651919705
 20
947.1354018179
 30
0.0
 10
-406.5016160266
 20
919.8171212698
 30
0.0
 10
-391.3628086384
 20
893.8634307335
 30
0.0
 10
-376.6017725813
 20
873.6137349924
 30
0.0
 10
-363.5874916085
 20
858.3905635602
 30
0.0
 10
-353.2391188665
 20
847.4879870263
 30
0.0
 10
-344.1501565407
 20
838.8629282529
 30
0.0
 10
-336.6142509844
 20
832.2553232033
 30
0.0
 10
-330.8320495249
 20
827.4486150908
 30
0.0
 10
-324.9242526037
 20
822.7953132697
 30
0.0
 10
-316.885110192
 20
816.8000316464
 30
0.0
 10
-308.6096711427
 20
811.1245374678
 30
0.0
 10
-300.1182606611
 20
805.7842874256
 30
0.0
 10
-291.4856666069
 20
800.6697131758
 30
0.0
 10
-276.0302904212
 20
792.3238348556
 30
0.0
 10
-259.9259457378
 20
785.2199780778
 30
0.0
 10
-245.7794710679
 20
780.0697730942
 30
0.0
 10
-236.255000395
 20
776.884881958
 30
0.0
 10
-219.3740354304
 20
771.9768235508
 30
0.0
 10
-194.7405743441
 20
766.8858213125
 30
0.0
 10
-172.2068541786
 20
764.6614052679
 30
0.0
 10
-157.1761624959
 20
764.1515132981
 30
0.0
 10
-151.1538386957
 20
764.1161002314
 30
0.0
 10
-147.6461092077
 20
764.0935028129
 30
0.0
 10
-146.6193849377
 20
764.086746604
 30
0.0
  0
SPLINE
  5
38E
100
AcDbEntity
  8
_SURFACE
100
AcDbSpline
 62
7
  6
CONTINUOUS
 70
0
 71
3
 72
16
 73
12
 74
0
 42
0.0000001
 43
0.0000001
 44
0.0000000001
 40
0.0
 40
0.0
 40
0.0
 40
0.0
 40
0.0760318892
 40
0.160967629
 40
0.2562276754
 40
0.3637117399
 40
0.4832191552
 40
0.6096239605
 40
0.7394881389
 40
0.870637405
 40
1.0
 40
1.0
 40
1.0
 40
1.0
 10
-101.7191070245
 20
820.8847651346
 30
0.0
 10
-109.6680421422
 20
823.1146216088
 30
0.0
 10
-126.27597792
 20
828.672105762
 30
0.0
 10
-151.5947120925
 20
840.3469683738
 30
0.0
 10
-178.2635601986
 20
856.7711823673
 30
0.0
 10
-205.4290576631
 20
879.0104750409
 30
0.0
 10
-231.3038058894
 20
907.5581173339
 30
0.0
 10
-253.6617420257
 20
941.9066040202
 30
0.0
 10
-270.5978298862
 20
980.6286139025
 30
0.0
 10
-280.9602547224
 20
1021.9253155312
 30
0.0
 10
-283.2568714547
 20
1050.2669069043
 30
0.0
 10
-283.2568890701
 20
1064.3134938735
 30
0.0
  0
SPLINE
  5
38F
100
AcDbEntity
  8
_SURFACE
100
AcDbSpline
 62
6
  6
CONTINUOUS
 70
0
 71
3
 72
13
 73
9
 74
0
 42
0.0000001
 43
0.0000001
 44
0.0000000001
 40
0.0
 40
0.0
 40
0.0
 40
0.0
 40
0.0687196029
 40
0.1972948863
 40
0.4600947755
 40
0.7293898375
 40
0.866929622
 40
1.0
 40
1.0
 40
1.0
 40
1.0
 10
-34.3366365015
 20
1317.5562021602
 30
0.0
 10
-34.6940535998
 20
1318.6335046839
 30
0.0
 10
-35.7144041712
 20
1321.7283798718
 30
0.0
 10
-38.0592359047
 20
1328.9570363395
 30
0.0
 10
-41.3453747346
 20
1339.3629457405
 30
0.0
 10
-44.6058181022
 20
1349.9319653466
 30
0.0
 10
-47.1760124362
 20
1358.4712317812
 30
0.0
 10
-48.442838952
 20
1362.75765359
 30
0.0
 10
-49.0602404425
 20
1364.8670879127
 30
0.0
  0
SPLINE
  5
390
100
AcDbEntity
  8
_SURFACE
100
AcDbSpline
 62
6
  6
CONTINUOUS
 70
0
 71
3
 72
11
 73
7
 74
0
 42
0.0000001
 43
0.0000001
 44
0.0000000001
 40
0.0
 40
0.0
 40
0.0
 40
0.0
 40
0.3443587312
 40
0.5164770687
 40
0.6882812155
 40
1.0
 40
1.0
 40
1.0
 40
1.0
 10
-135.0101012548
 20
1364.6142483166
 30
0.0
 10
-137.4610519876
 20
1364.6003339241
 30
0.0
 10
-141.1370388578
 20
1364.5788961967
 30
0.0
 10
-146.0358022631
 20
1364.5447327934
 30
0.0
 10
-150.7022238845
 20
1364.5124987765
 30
0.0
 10
-154.1437787559
 20
1364.4930508477
 30
0.0
 10
-156.3621316777
 20
1364.4553182036
 30
0.0
  0
SPLINE
  5
391
100
AcDbEntity
  8
_SURFACE
100
AcDbSpline
 62
7
  6
CONTINUOUS
 70
0
 71
3
 72
10
 73
6
 74
0
 42
0.0000001
 43
0.0000001
 44
0.0000000001
 40
0.0
 40
0.0
 40
0.0
 40
0.0
 40
0.3475749242
 40
0.6805469758
 40
1.0
 40
1.0
 40
1.0
 40
1.0
 10
-34.3368698575
 20
1317.5562605742
 30
0.0
 10
-30.7831809408
 20
1317.6077175794
 30
0.0
 10
-23.8241917452
 20
1317.6278815338
 30
0.0
 10
-13.5990488673
 20
1317.6721647099
 30
0.0
 10
-6.9277602936
 20
1317.6711763446
 30
0.0
 10
-3.6612573334
 20
1317.6665123652
 30
0.0
  0
SPLINE
  5
392
100
AcDbEntity
  8
_SURFACE
100
AcDbSpline
 62
6
  6
CONTINUOUS
 70
0
 71
3
 72
10
 73
6
 74
0
 42
0.0000001
 43
0.0000001
 44
0.0000000001
 40
0.0
 40
0.0
 40
0.0
 40
0.0
 40
0.3273635368
 40
0.6606894897
 40
1.0
 40
1.0
 40
1.0
 40
1.0
 10
-3.6612573334
 20
1317.6665123652
 30
0.0
 10
-3.734441716
 20
1322.8217454926
 30
0.0
 10
-3.9429571553
 20
1333.2256420695
 30
0.0
 10
-4.5359440668
 20
1348.9640860409
 30
0.0
 10
-4.9061777636
 20
1359.551127791
 30
0.0
 10
-5.1037408402
 20
1364.8913838703
 30
0.0
  0
SPLINE
  5
393
100
AcDbEntity
  8
_SURFACE
100
AcDbSpline
 62
6
  6
CONTINUOUS
 70
0
 71
3
 72
18
 73
14
 74
0
 42
0.0000001
 43
0.0000001
 44
0.0000000001
 40
0.0
 40
0.0
 40
0.0
 40
0.0
 40
0.1110787059
 40
0.222204448
 40
0.3333050406
 40
0.4444350291
 40
0.5555309962
 40
0.6666304338
 40
0.7777379985
 40
0.8333056152
 40
0.8888468032
 40
0.9444080425
 40
1.0
 40
1.0
 40
1.0
 40
1.0
 10
-49.0614724776
 20
1364.8717383515
 30
0.0
 10
-47.4339031298
 20
1364.8730625569
 30
0.0
 10
-44.1780750592
 20
1364.875485632
 30
0.0
 10
-39.2943566378
 20
1364.8788012774
 30
0.0
 10
-34.4098865591
 20
1364.8817417702
 30
0.0
 10
-29.5258525476
 20
1364.8843117645
 30
0.0
 10
-24.6418352755
 20
1364.8865049626
 30
0.0
 10
-19.758146409
 20
1364.8883135464
 30
0.0
 10
-15.688081108
 20
1364.8894955525
 30
0.0
 10
-12.4320775493
 20
1364.8902422078
 30
0.0
 10
-9.9899610552
 20
1364.8907027957
 30
0.0
 10
-7.5474878935
 20
1364.8910619336
 30
0.0
 10
-5.9188265457
 20
1364.891234299
 30
0.0
 10
-5.1042708229
 20
1364.8913025606
 30
0.0
  0
SPLINE
  5
394
100
AcDbEntity
  8
_SURFACE
100
AcDbSpline
 62
6
  6
CONTINUOUS
 70
0
 71
3
 72
9
 73
5
 74
0
 42
0.0000001
 43
0.0000001
 44
0.0000000001
 40
0.0
 40
0.0
 40
0.0
 40
0.0
 40
0.5011975882
 40
1.0
 40
1.0
 40
1.0
 40
1.0
 10
388.7770767984
 20
1364.8952409069
 30
0.0
 10
403.6459208348
 20
1364.8953668515
 30
0.0
 10
433.3125520548
 20
1364.8951435087
 30
0.0
 10
462.979183412
 20
1364.8972731464
 30
0.0
 10
477.7769705652
 20
1364.8958706776
 30
0.0
  0
SPLINE
  5
395
100
AcDbEntity
  8
_SURFACE
100
AcDbSpline
 62
6
  6
CONTINUOUS
 70
0
 71
3
 72
9
 73
5
 74
0
 42
0.0000001
 43
0.0000001
 44
0.0000000001
 40
0.0
 40
0.0
 40
0.0
 40
0.0
 40
0.5017191488
 40
1.0
 40
1.0
 40
1.0
 40
1.0
 10
-5.1037408402
 20
1364.8913838703
 30
0.0
 10
10.5968602793
 20
1364.8938147646
 30
0.0
 10
41.8904664468
 20
1364.8906282585
 30
0.0
 10
73.1840722306
 20
1364.892604456
 30
0.0
 10
88.7770768078
 20
1364.8928350634
 30
0.0
  0
SPLINE
  5
396
100
AcDbEntity
  8
_SURFACE
100
AcDbSpline
 62
6
  6
CONTINUOUS
 70
0
 71
3
 72
19
 73
15
 74
0
 42
0.0000001
 43
0.0000001
 44
0.0000000001
 40
0.0
 40
0.0
 40
0.0
 40
0.0
 40
0.0545958739
 40
0.1222779008
 40
0.20290702
 40
0.2927888845
 40
0.3852011052
 40
0.4750926753
 40
0.5583583436
 40
0.6336762131
 40
0.7062136454
 40
0.7851718773
 40
0.8789225416
 40
1.0
 40
1.0
 40
1.0
 40
1.0
 10
642.7353174133
 20
1364.1643374268
 30
0.0
 10
642.7406389474
 20
1364.3371628014
 30
0.0
 10
642.8743496017
 20
1364.7168101727
 30
0.0
 10
643.2594785465
 20
1365.2335373327
 30
0.0
 10
643.7924703825
 20
1365.7701415126
 30
0.0
 10
644.4279744252
 20
1366.3088901972
 30
0.0
 10
645.1167380344
 20
1366.8280124903
 30
0.0
 10
645.8138936688
 20
1367.2990104034
 30
0.0
 10
646.47562325
 20
1367.7244417614
 30
0.0
 10
647.06851658
 20
1368.1565102157
 30
0.0
 10
647.5665771079
 20
1368.6823853723
 30
0.0
 10
647.9483751787
 20
1369.3683155424
 30
0.0
 10
648.1985552137
 20
1370.2713314361
 30
0.0
 10
648.2596605326
 20
1370.9520646789
 30
0.0
 10
648.2720651205
 20
1371.3353210678
 30
0.0
  0
SPLINE
  5
397
100
AcDbEntity
  8
_SURFACE
100
AcDbSpline
 62
7
  6
CONTINUOUS
 70
0
 71
3
 72
10
 73
6
 74
0
 42
0.0000001
 43
0.0000001
 44
0.0000000001
 40
0.0
 40
0.0
 40
0.0
 40
0.0
 40
0.3164314706
 40
0.6481994557
 40
1.0
 40
1.0
 40
1.0
 40
1.0
 10
645.3335384054
 20
1371.2965259425
 30
0.0
 10
645.6435400204
 20
1371.2974221073
 30
0.0
 10
646.2781331712
 20
1371.3255048918
 30
0.0
 10
647.2577078866
 20
1371.3485947682
 30
0.0
 10
647.927447752
 20
1371.3303352765
 30
0.0
 10
648.2720651205
 20
1371.3353210678
 30
0.0
  0
SPLINE
  5
398
100
AcDbEntity
  8
_SURFACE
100
AcDbSpline
 62
7
  6
CONTINUOUS
 70
0
 71
3
 72
10
 73
6
 74
0
 42
0.0000001
 43
0.0000001
 44
0.0000000001
 40
0.0
 40
0.0
 40
0.0
 40
0.0
 40
0.3284073695
 40
0.6619144037
 40
1.0
 40
1.0
 40
1.0
 40
1.0
 10
645.3335384054
 20
1371.2965259425
 30
0.0
 10
641.5957840369
 20
1371.3306144388
 30
0.0
 10
634.0621499642
 20
1371.3898501923
 30
0.0
 10
622.6805514709
 20
1371.47655797
 30
0.0
 10
615.0368413745
 20
1371.5463183527
 30
0.0
 10
611.1889874101
 20
1371.5867818499
 30
0.0
  0
SPLINE
  5
399
100
AcDbEntity
  8
_SURFACE
100
AcDbSpline
 62
7
  6
CONTINUOUS
 70
0
 71
3
 72
10
 73
6
 74
0
 42
0.0000001
 43
0.0000001
 44
0.0000000001
 40
0.0
 40
0.0
 40
0.0
 40
0.0
 40
0.2563268272
 40
0.6634952993
 40
1.0
 40
1.0
 40
1.0
 40
1.0
 10
588.7781033679
 20
1371.790325437
 30
0.0
 10
590.6929473192
 20
1371.7738529704
 30
0.0
 10
595.6494590329
 20
1371.7298228342
 30
0.0
 10
603.1197169034
 20
1371.6584350538
 30
0.0
 10
608.6751290132
 20
1371.603505977
 30
0.0
 10
611.1888953654
 20
1371.5784219662
 30
0.0
  0
SPLINE
  5
39A
100
AcDbEntity
  8
_SURFACE
100
AcDbSpline
 62
7
  6
CONTINUOUS
 70
0
 71
3
 72
10
 73
6
 74
0
 42
0.0000001
 43
0.0000001
 44
0.0000000001
 40
0.0
 40
0.0
 40
0.0
 40
0.0
 40
0.3405176207
 40
0.673950323
 40
1.0
 40
1.0
 40
1.0
 40
1.0
 10
388.7771340646
 20
1372.4305136073
 30
0.0
 10
411.4785975084
 20
1372.4090749553
 30
0.0
 10
456.4091481734
 20
1372.3461899549
 30
0.0
 10
523.0767488506
 20
1372.279232475
 30
0.0
 10
567.0422402698
 20
1372.007429045
 30
0.0
 10
588.7783637394
 20
1371.8200301538
 30
0.0
  0
SPLINE
  5
39B
100
AcDbEntity
  8
_SURFACE
100
AcDbSpline
 62
7
  6
CONTINUOUS
 70
0
 71
3
 72
10
 73
6
 74
0
 42
0.0000001
 43
0.0000001
 44
0.0000000001
 40
0.0
 40
0.0
 40
0.0
 40
0.0
 40
0.3268607964
 40
0.6603152654
 40
1.0
 40
1.0
 40
1.0
 40
1.0
 10
-111.2228571619
 20
1371.8224388653
 30
0.0
 10
-89.4327789028
 20
1372.0082074273
 30
0.0
 10
-45.4120427494
 20
1372.28032641
 30
0.0
 10
21.2551460465
 20
1372.3454485281
 30
0.0
 10
66.1313391946
 20
1372.4084904225
 30
0.0
 10
88.7771341398
 20
1372.4300725832
 30
0.0
  0
SPLINE
  5
39C
100
AcDbEntity
  8
_SURFACE
100
AcDbSpline
 62
7
  6
CONTINUOUS
 70
0
 71
3
 72
11
 73
7
 74
0
 42
0.0000001
 43
0.0000001
 44
0.0000000001
 40
0.0
 40
0.0
 40
0.0
 40
0.0
 40
0.5000118313
 40
0.7500490106
 40
0.8750172109
 40
1.0
 40
1.0
 40
1.0
 40
1.0
 10
-137.5597684369
 20
1371.5755369662
 30
0.0
 10
-133.1701996857
 20
1371.6187687729
 30
0.0
 10
-126.5855479451
 20
1371.6811801354
 30
0.0
 10
-118.90377661
 20
1371.7508479775
 30
0.0
 10
-114.5143735371
 20
1371.7895758354
 30
0.0
 10
-112.3200468148
 20
1371.8085341891
 30
0.0
 10
-111.2228183604
 20
1371.8178899637
 30
0.0
  0
SPLINE
  5
39D
100
AcDbEntity
  8
_SURFACE
100
AcDbSpline
 62
6
  6
CONTINUOUS
 70
0
 71
3
 72
11
 73
7
 74
0
 42
0.0000001
 43
0.0000001
 44
0.0000000001
 40
0.0
 40
0.0
 40
0.0
 40
0.0
 40
0.1847124083
 40
0.4304939042
 40
0.6636363841
 40
1.0
 40
1.0
 40
1.0
 40
1.0
 10
-135.0101012234
 20
1364.6142497252
 30
0.0
 10
-135.0043741987
 20
1365.0778659416
 30
0.0
 10
-135.4976901104
 20
1366.1067985343
 30
0.0
 10
-136.3520772624
 20
1367.497170941
 30
0.0
 10
-137.4672130908
 20
1369.2596602161
 30
0.0
 10
-137.5487564635
 20
1370.7429718701
 30
0.0
 10
-137.5607276054
 20
1371.5872023651
 30
0.0
  0
SPLINE
  5
39E
100
AcDbEntity
  8
_SURFACE
100
AcDbSpline
 62
7
  6
CONTINUOUS
 70
0
 71
3
 72
22
 73
18
 74
0
 42
0.0000001
 43
0.0000001
 44
0.0000000001
 40
0.0
 40
0.0
 40
0.0
 40
0.0
 40
0.0383567447
 40
0.0799356914
 40
0.1251159968
 40
0.1742256332
 40
0.2284500939
 40
0.2881387512
 40
0.3543907457
 40
0.4278101833
 40
0.5057880476
 40
0.5864982657
 40
0.6683113985
 40
0.7507737394
 40
0.8335678552
 40
0.9170381806
 40
1.0
 40
1.0
 40
1.0
 40
1.0
 10
-137.5607276054
 20
1371.5872023651
 30
0.0
 10
-144.2193904456
 20
1371.5802952545
 30
0.0
 10
-158.0973324427
 20
1371.8197411448
 30
0.0
 10
-179.8108378456
 20
1370.9627029376
 30
0.0
 10
-203.3257790029
 20
1369.0140655775
 30
0.0
 10
-228.8632914511
 20
1365.3435500526
 30
0.0
 10
-256.5582296669
 20
1359.3851564235
 30
0.0
 10
-286.4838028843
 20
1350.1263918869
 30
0.0
 10
-318.3723367838
 20
1336.5010731961
 30
0.0
 10
-351.2405861279
 20
1317.6626403648
 30
0.0
 10
-383.309396539
 20
1293.0464699828
 30
0.0
 10
-412.5788477491
 20
1263.0769565445
 30
0.0
 10
-437.8547214689
 20
1228.7024356001
 30
0.0
 10
-458.2196853633
 20
1190.7883968445
 30
0.0
 10
-473.0755441421
 20
1150.0932505415
 30
0.0
 10
-482.1930352455
 20
1107.6627153269
 30
0.0
 10
-484.2528573879
 20
1078.7319253898
 30
0.0
 10
-484.2758341205
 20
1064.329911291
 30
0.0
  0
SPLINE
  5
39F
100
AcDbEntity
  8
_SURFACE
100
AcDbSpline
 62
6
  6
CONTINUOUS
 70
0
 71
3
 72
20
 73
16
 74
0
 42
0.0000001
 43
0.0000001
 44
0.0000000001
 40
0.0
 40
0.0
 40
0.0
 40
0.0
 40
0.0467160871
 40
0.1040562399
 40
0.1713333428
 40
0.2466545352
 40
0.3254122005
 40
0.4030777502
 40
0.4770393926
 40
0.5478685576
 40
0.6181678061
 40
0.6927050006
 40
0.7778336801
 40
0.8791464413
 40
1.0
 40
1.0
 40
1.0
 40
1.0
 10
618.0161958914
 20
764.0445981715
 30
0.0
 10
618.0143021315
 20
763.9230837704
 30
0.0
 10
618.0668141715
 20
763.6526241995
 30
0.0
 10
618.2377927774
 20
763.2402842224
 30
0.0
 10
618.4894231076
 20
762.7841038655
 30
0.0
 10
618.8004392119
 20
762.2992341742
 30
0.0
 10
619.1502151059
 20
761.8079744685
 30
0.0
 10
619.5164151871
 20
761.3332850683
 30
0.0
 10
619.8882689961
 20
760.8898746656
 30
0.0
 10
620.2366082129
 20
760.45159007
 30
0.0
 10
620.5425498147
 20
759.9797081784
 30
0.0
 10
620.7970814839
 20
759.4359261678
 30
0.0
 10
620.9899486916
 20
758.7824741551
 30
0.0
 10
621.1126912788
 20
757.9907230807
 30
0.0
 10
621.1428116077
 20
757.4127228233
 30
0.0
 10
621.1484987104
 20
757.0983808295
 30
0.0
  0
SPLINE
  5
3A0
100
AcDbEntity
  8
_SURFACE
100
AcDbSpline
 62
7
  6
CONTINUOUS
 70
0
 71
3
 72
10
 73
6
 74
0
 42
0.0000001
 43
0.0000001
 44
0.0000000001
 40
0.0
 40
0.0
 40
0.0
 40
0.0
 40
0.3344990488
 40
0.6670857381
 40
1.0
 40
1.0
 40
1.0
 40
1.0
 10
635.2623650603
 20
757.0763996508
 30
0.0
 10
635.5135197817
 20
757.0844754185
 30
0.0
 10
636.0145060362
 20
757.0971849945
 30
0.0
 10
636.7656934798
 20
757.1069517189
 30
0.0
 10
637.2656600561
 20
757.1049938605
 30
0.0
 10
637.515736912
 20
757.1020663759
 30
0.0
  0
SPLINE
  5
3A1
100
AcDbEntity
  8
_SURFACE
100
AcDbSpline
 62
7
  6
CONTINUOUS
 70
0
 71
3
 72
11
 73
7
 74
0
 42
0.0000001
 43
0.0000001
 44
0.0000000001
 40
0.0
 40
0.0
 40
0.0
 40
0.0
 40
0.2807352534
 40
0.5300970963
 40
0.7674467038
 40
1.0
 40
1.0
 40
1.0
 40
1.0
 10
672.3118617771
 20
758.9463417738
 30
0.0
 10
692.7677083739
 20
760.8221976703
 30
0.0
 10
731.2378756319
 20
767.1817390647
 30
0.0
 10
784.5336385295
 20
785.7126560741
 30
0.0
 10
830.7093576797
 20
811.4931976994
 30
0.0
 10
857.5478637238
 20
833.304439557
 30
0.0
 10
869.7766145925
 20
845.1369032702
 30
0.0
  0
SPLINE
  5
3A2
100
AcDbEntity
  8
_SURFACE
100
AcDbSpline
 62
7
  6
CONTINUOUS
 70
0
 71
3
 72
17
 73
13
 74
0
 42
0.0000001
 43
0.0000001
 44
0.0000000001
 40
0.0
 40
0.0
 40
0.0
 40
0.0
 40
0.0997171168
 40
0.1988537332
 40
0.2988510354
 40
0.3997911179
 40
0.5006341228
 40
0.6011872147
 40
0.7022915666
 40
0.8022273847
 40
0.9015536878
 40
1.0
 40
1.0
 40
1.0
 40
1.0
 10
869.7766145925
 20
845.1369032702
 30
0.0
 10
881.5223496798
 20
856.592869657
 30
0.0
 10
903.0921247722
 20
881.4212612936
 30
0.0
 10
929.1280121384
 20
923.370754145
 30
0.0
 10
948.1217072875
 20
969.1860945404
 30
0.0
 10
959.5520472767
 20
1017.723103313
 30
0.0
 10
963.1567701024
 20
1067.5590168645
 30
0.0
 10
958.5118458366
 20
1117.3374719875
 30
0.0
 10
946.0421243521
 20
1165.5845464921
 30
0.0
 10
926.1074913771
 20
1211.0522138253
 30
0.0
 10
899.2413359585
 20
1252.2522073452
 30
0.0
 10
877.303148512
 20
1276.5097866899
 30
0.0
 10
865.4725617646
 20
1287.574186288
 30
0.0
  0
SPLINE
  5
3A3
100
AcDbEntity
  8
_SURFACE
100
AcDbSpline
 62
7
  6
CONTINUOUS
 70
0
 71
3
 72
11
 73
7
 74
0
 42
0.0000001
 43
0.0000001
 44
0.0000000001
 40
0.0
 40
0.0
 40
0.0
 40
0.0
 40
0.2345444162
 40
0.4720953397
 40
0.7221543887
 40
1.0
 40
1.0
 40
1.0
 40
1.0
 10
865.4725617646
 20
1287.574186288
 30
0.0
 10
853.8109428276
 20
1298.3471973054
 30
0.0
 10
828.559596493
 20
1318.1872856093
 30
0.0
 10
785.6662367564
 20
1342.0432418607
 30
0.0
 10
736.7197607319
 20
1359.6888342525
 30
0.0
 10
701.4457228783
 20
1366.3571429329
 30
0.0
 10
682.7689915256
 20
1368.5680764869
 30
0.0
  0
SPLINE
  5
3A4
100
AcDbEntity
  8
_SURFACE
100
AcDbSpline
 62
7
  6
CONTINUOUS
 70
0
 71
3
 72
10
 73
6
 74
0
 42
0.0000001
 43
0.0000001
 44
0.0000000001
 40
0.0
 40
0.0
 40
0.0
 40
0.0
 40
0.3241539507
 40
0.658595608
 40
1.0
 40
1.0
 40
1.0
 40
1.0
 10
682.7689915256
 20
1368.5680764869
 30
0.0
 10
679.0515061594
 20
1368.9752661807
 30
0.0
 10
671.4900750846
 20
1369.725475138
 30
0.0
 10
659.9902406064
 20
1370.6616374359
 30
0.0
 10
652.202599408
 20
1371.0699897576
 30
0.0
 10
648.2671641643
 20
1371.2311895227
 30
0.0
  0
SPLINE
  5
3A5
100
AcDbEntity
  8
_SURFACE
100
AcDbSpline
 62
6
  6
CONTINUOUS
 70
0
 71
3
 72
12
 73
8
 74
0
 42
0.0000001
 43
0.0000001
 44
0.0000000001
 40
0.0
 40
0.0
 40
0.0
 40
0.0
 40
0.1410069431
 40
0.3370292685
 40
0.5285638644
 40
0.7214692153
 40
1.0
 40
1.0
 40
1.0
 40
1.0
 10
-135.002536386
 20
764.012234321
 30
0.0
 10
-134.9938759275
 20
763.6556360114
 30
0.0
 10
-135.3690037663
 20
762.8407539503
 30
0.0
 10
-136.0288308006
 20
761.6990995166
 30
0.0
 10
-136.9292424553
 20
760.5278965934
 30
0.0
 10
-137.6052826192
 20
758.9622265088
 30
0.0
 10
-137.6193356367
 20
757.7425893369
 30
0.0
 10
-137.5936788478
 20
757.0384608568
 30
0.0
  0
SPLINE
  5
3A6
100
AcDbEntity
  8
_SURFACE
100
AcDbSpline
 62
7
  6
CONTINUOUS
 70
0
 71
3
 72
10
 73
6
 74
0
 42
0.0000001
 43
0.0000001
 44
0.0000000001
 40
0.0
 40
0.0
 40
0.0
 40
0.0
 40
0.2499081843
 40
0.6249672641
 40
1.0
 40
1.0
 40
1.0
 40
1.0
 10
-111.2234219313
 20
756.8076297961
 30
0.0
 10
-113.4201354719
 20
756.8270188238
 30
0.0
 10
-118.9136581673
 20
756.8761965648
 30
0.0
 10
-127.7037165049
 20
756.9456067329
 30
0.0
 10
-134.2969885617
 20
757.0429926001
 30
0.0
 10
-137.5936826719
 20
757.0385743405
 30
0.0
  0
SPLINE
  5
3A7
100
AcDbEntity
  8
_SURFACE
100
AcDbSpline
 62
7
  6
CONTINUOUS
 70
0
 71
3
 72
10
 73
6
 74
0
 42
0.0000001
 43
0.0000001
 44
0.0000000001
 40
0.0
 40
0.0
 40
0.0
 40
0.0
 40
0.3255329429
 40
0.6577561222
 40
1.0
 40
1.0
 40
1.0
 40
1.0
 10
621.1485173314
 20
757.0668241373
 30
0.0
 10
617.6321505032
 20
757.0898652363
 30
0.0
 10
610.5267324266
 20
757.0957485935
 30
0.0
 10
599.7253871907
 20
756.9579948904
 30
0.0
 10
592.4403582512
 20
756.8629055709
 30
0.0
 10
588.7438374399
 20
756.8062045039
 30
0.0
  0
SPLINE
  5
3A8
100
AcDbEntity
  8
_SURFACE
100
AcDbSpline
 62
6
  6
CONTINUOUS
 70
0
 71
3
 72
13
 73
9
 74
0
 42
0.0000001
 43
0.0000001
 44
0.0000000001
 40
0.0
 40
0.0
 40
0.0
 40
0.0
 40
0.2142322189
 40
0.3386346311
 40
0.4702678705
 40
0.6057796382
 40
0.7416753657
 40
1.0
 40
1.0
 40
1.0
 40
1.0
 10
-440.7039811543
 20
1064.3276691092
 30
0.0
 10
-443.815479434
 20
1064.3278040176
 30
0.0
 10
-448.7337922676
 20
1064.3280842994
 30
0.0
 10
-455.563939836
 20
1064.3284842142
 30
0.0
 10
-461.250755418
 20
1064.3288142943
 30
0.0
 10
-467.1044993512
 20
1064.3291371553
 30
0.0
 10
-474.7983029139
 20
1064.3295288394
 30
0.0
 10
-480.5239401877
 20
1064.3297745673
 30
0.0
 10
-484.2758345555
 20
1064.3298832679
 30
0.0
  0
SPLINE
  5
3A9
100
AcDbEntity
  8
_SURFACE
100
AcDbSpline
 62
7
  6
CONTINUOUS
 70
0
 71
3
 72
18
 73
14
 74
0
 42
0.0000001
 43
0.0000001
 44
0.0000000001
 40
0.0
 40
0.0
 40
0.0
 40
0.0
 40
0.0661868904
 40
0.139992777
 40
0.2227995773
 40
0.3154508427
 40
0.4132043267
 40
0.5092991197
 40
0.6058817806
 40
0.7036696742
 40
0.802059816
 40
0.901531974
 40
1.0
 40
1.0
 40
1.0
 40
1.0
 10
-137.5936801808
 20
757.0384494511
 30
0.0
 10
-149.0794402348
 20
757.0641813144
 30
0.0
 10
-173.3867022096
 20
756.917204553
 30
0.0
 10
-211.9652603487
 20
760.2776754905
 30
0.0
 10
-254.5925667228
 20
768.1242818685
 30
0.0
 10
-299.8161507968
 20
782.9517840568
 30
0.0
 10
-344.2394934894
 20
805.7886674795
 30
0.0
 10
-384.7297596373
 20
836.2188746339
 30
0.0
 10
-419.366375966
 20
873.1703651936
 30
0.0
 10
-447.6515239976
 20
915.6587071416
 30
0.0
 10
-468.5403556538
 20
962.7902563478
 30
0.0
 10
-481.3458195339
 20
1012.8294981158
 30
0.0
 10
-484.2495515801
 20
1047.2422129034
 30
0.0
 10
-484.2758345547
 20
1064.329911291
 30
0.0
  0
SPLINE
  5
3AA
100
AcDbEntity
  8
_SURFACE
100
AcDbSpline
 62
7
  6
CONTINUOUS
 70
0
 71
3
 72
15
 73
11
 74
0
 42
0.0000001
 43
0.0000001
 44
0.0000000001
 40
0.0
 40
0.0
 40
0.0
 40
0.0
 40
0.1217846792
 40
0.2452536091
 40
0.36872528
 40
0.4935309457
 40
0.6193091198
 40
0.7450862049
 40
0.872359303
 40
1.0
 40
1.0
 40
1.0
 40
1.0
 10
589.7497460268
 20
832.0421924496
 30
0.0
 10
601.3873581397
 20
836.0070146376
 30
0.0
 10
624.2319732111
 20
845.8599973977
 30
0.0
 10
655.8117433045
 20
865.8407957134
 30
0.0
 10
684.1371774269
 20
890.6911695492
 30
0.0
 10
708.4289960502
 20
919.800452439
 30
0.0
 10
728.0481906705
 20
952.5159935658
 30
0.0
 10
742.486126904
 20
988.0949801764
 30
0.0
 10
751.3188388644
 20
1025.6491010885
 30
0.0
 10
753.2929606497
 20
1051.4278511645
 30
0.0
 10
753.2929437954
 20
1064.3134939993
 30
0.0
  0
SPLINE
  5
3AB
100
AcDbEntity
  8
_SURFACE
100
AcDbSpline
 62
7
  6
CONTINUOUS
 70
0
 71
3
 72
21
 73
17
 74
0
 42
0.0000001
 43
0.0000001
 44
0.0000000001
 40
0.0
 40
0.0
 40
0.0
 40
0.0
 40
0.1254335341
 40
0.2401113048
 40
0.3432314327
 40
0.4359106154
 40
0.5197249228
 40
0.5952871806
 40
0.6635074328
 40
0.7257049219
 40
0.7827141694
 40
0.8347744476
 40
0.8816139839
 40
0.9240501076
 40
0.9633641049
 40
1.0
 40
1.0
 40
1.0
 40
1.0
 10
-275.7381476245
 20
1064.3134939988
 30
0.0
 10
-275.7381305496
 20
1051.0722182114
 30
0.0
 10
-273.7390898193
 20
1025.6767490599
 30
0.0
 10
-265.4207525488
 20
990.286679022
 30
0.0
 10
-253.5389590397
 20
959.6370194993
 30
0.0
 10
-239.4698968897
 20
933.609307026
 30
0.0
 10
-224.2086901331
 20
911.7490481677
 30
0.0
 10
-208.4691927296
 20
893.5451325665
 30
0.0
 10
-192.7474565164
 20
878.4822596091
 30
0.0
 10
-177.325000682
 20
866.0527464989
 30
0.0
 10
-162.3847323272
 20
855.8407809463
 30
0.0
 10
-148.1490857191
 20
847.5546300327
 30
0.0
 10
-134.7783931058
 20
840.9121241933
 30
0.0
 10
-122.2747513387
 20
835.6089048599
 30
0.0
 10
-110.5133771276
 20
831.3664948206
 30
0.0
 10
-102.8370776834
 20
829.0397330243
 30
0.0
 10
-99.1114047043
 20
828.002230594
 30
0.0
  0
SPLINE
  5
3AC
100
AcDbEntity
  8
_SURFACE
100
AcDbSpline
 62
7
  6
CONTINUOUS
 70
0
 71
3
 72
20
 73
16
 74
0
 42
0.0000001
 43
0.0000001
 44
0.0000000001
 40
0.0
 40
0.0
 40
0.0
 40
0.0
 40
0.101324348
 40
0.192364344
 40
0.2755368431
 40
0.3529251164
 40
0.4266458579
 40
0.4988020977
 40
0.5712478403
 40
0.6436119241
 40
0.7152528868
 40
0.7861649884
 40
0.8568458054
 40
0.9274833323
 40
1.0
 40
1.0
 40
1.0
 40
1.0
 10
-99.1114047043
 20
828.002230594
 30
0.0
 10
-95.7358974139
 20
827.0628075748
 30
0.0
 10
-89.2906923246
 20
825.4083943174
 30
0.0
 10
-79.9752350344
 20
823.3974349649
 30
0.0
 10
-71.4100381078
 20
821.8603886405
 30
0.0
 10
-63.3922796466
 20
820.6898008548
 30
0.0
 10
-55.7208717181
 20
819.809750763
 30
0.0
 10
-48.1968890989
 20
819.1764210763
 30
0.0
 10
-40.7045393719
 20
818.7594342428
 30
0.0
 10
-33.2205717732
 20
818.5896512641
 30
0.0
 10
-25.7887372808
 20
818.5681015595
 30
0.0
 10
-18.4152178533
 20
818.5294498904
 30
0.0
 10
-11.0762887738
 20
818.51847229
 30
0.0
 10
-3.6818773903
 20
818.521193265
 30
0.0
 10
1.2683747615
 20
818.5346717857
 30
0.0
 10
3.7759927543
 20
818.5402610581
 30
0.0
  0
SPLINE
  5
3AD
100
AcDbEntity
  8
_SURFACE
100
AcDbSpline
 62
7
  6
CONTINUOUS
 70
0
 71
3
 72
14
 73
10
 74
0
 42
0.0000001
 43
0.0000001
 44
0.0000000001
 40
0.0
 40
0.0
 40
0.0
 40
0.0
 40
0.1323802643
 40
0.2696489731
 40
0.4082402266
 40
0.5486424651
 40
0.691950202
 40
0.8417531286
 40
1.0
 40
1.0
 40
1.0
 40
1.0
 10
480.1589503155
 20
818.523691312
 30
0.0
 10
481.5524817215
 20
818.5211284068
 30
0.0
 10
484.3910089552
 20
818.5189113413
 30
0.0
 10
488.6884516598
 20
818.5191697561
 30
0.0
 10
493.0703365054
 20
818.5258771533
 30
0.0
 10
497.5157750934
 20
818.5388751128
 30
0.0
 10
502.079229854
 20
818.5570998075
 30
0.0
 10
506.830432955
 20
818.5880530382
 30
0.0
 10
510.0732385327
 20
818.6016752246
 30
0.0
 10
511.7388967713
 20
818.6252479079
 30
0.0
  0
SPLINE
  5
3AE
100
AcDbEntity
  8
_SURFACE
100
AcDbSpline
 62
7
  6
CONTINUOUS
 70
0
 71
3
 72
10
 73
6
 74
0
 42
0.0000001
 43
0.0000001
 44
0.0000000001
 40
0.0
 40
0.0
 40
0.0
 40
0.0
 40
0.3339472428
 40
0.6618046277
 40
1.0
 40
1.0
 40
1.0
 40
1.0
 10
511.7388967713
 20
818.6252479079
 30
0.0
 10
520.5810773569
 20
818.7500382869
 30
0.0
 10
538.1065311527
 20
819.9174127646
 30
0.0
 10
564.2412292713
 20
824.4156409291
 30
0.0
 10
581.2726423325
 20
829.154174291
 30
0.0
 10
589.7497460268
 20
832.0421924496
 30
0.0
  0
SPLINE
  5
3AF
100
AcDbEntity
  8
_SURFACE
100
AcDbSpline
 62
7
  6
CONTINUOUS
 70
0
 71
3
 72
20
 73
16
 74
0
 42
0.0000001
 43
0.0000001
 44
0.0000000001
 40
0.0
 40
0.0
 40
0.0
 40
0.0
 40
0.1013460393
 40
0.1924083967
 40
0.2755941752
 40
0.3529884079
 40
0.4267094534
 40
0.4988622723
 40
0.571303468
 40
0.6436631548
 40
0.7152991797
 40
0.7862052119
 40
0.856880522
 40
0.9275100163
 40
1.0
 40
1.0
 40
1.0
 40
1.0
 10
576.6906651012
 20
1300.6179371099
 30
0.0
 10
573.3141000327
 20
1301.5579931434
 30
0.0
 10
566.8667660219
 20
1303.2135965593
 30
0.0
 10
557.5483561057
 20
1305.225939604
 30
0.0
 10
548.9807714538
 20
1306.7639981674
 30
0.0
 10
540.9614091136
 20
1307.9353043886
 30
0.0
 10
533.2889913777
 20
1308.815895603
 30
0.0
 10
525.7643637682
 20
1309.4496816985
 30
0.0
 10
518.2715228989
 20
1309.8670269466
 30
0.0
 10
510.787107583
 20
1310.0372957524
 30
0.0
 10
503.3548735894
 20
1310.0587921235
 30
0.0
 10
495.98100293
 20
1310.0974932003
 30
0.0
 10
488.6418332101
 20
1310.1084963024
 30
0.0
 10
481.2478873361
 20
1310.1057868947
 30
0.0
 10
476.2982160566
 20
1310.0923472633
 30
0.0
 10
473.7912069979
 20
1310.0867610711
 30
0.0
  0
SPLINE
  5
3B0
100
AcDbEntity
  8
_SURFACE
100
AcDbSpline
 62
7
  6
CONTINUOUS
 70
0
 71
3
 72
14
 73
10
 74
0
 42
0.0000001
 43
0.0000001
 44
0.0000000001
 40
0.0
 40
0.0
 40
0.0
 40
0.0
 40
0.1323858936
 40
0.2696629886
 40
0.4082614058
 40
0.5486697986
 40
0.6919803616
 40
0.8417725511
 40
1.0
 40
1.0
 40
1.0
 40
1.0
 10
-2.6044613892
 20
1310.1032786876
 30
0.0
 10
-3.9972822211
 20
1310.1058401112
 30
0.0
 10
-6.8343888797
 20
1310.1080564496
 30
0.0
 10
-11.1296804639
 20
1310.1078021713
 30
0.0
 10
-15.5093730618
 20
1310.1011043721
 30
0.0
 10
-19.9525258692
 20
1310.0881245071
 30
0.0
 10
-24.5134411416
 20
1310.0699173444
 30
0.0
 10
-29.2617328055
 20
1310.0390186318
 30
0.0
 10
-32.5024282001
 20
1310.0253834176
 30
0.0
 10
-34.1669641334
 20
1310.0019784638
 30
0.0
  0
SPLINE
  5
3B1
100
AcDbEntity
  8
_SURFACE
100
AcDbSpline
 62
7
  6
CONTINUOUS
 70
0
 71
3
 72
15
 73
11
 74
0
 42
0.0000001
 43
0.0000001
 44
0.0000000001
 40
0.0
 40
0.0
 40
0.0
 40
0.0
 40
0.1174777996
 40
0.2392195006
 40
0.3625669023
 40
0.4882205448
 40
0.6154076521
 40
0.7425877921
 40
0.8711552846
 40
1.0
 40
1.0
 40
1.0
 40
1.0
 10
-105.9826417536
 20
1298.6047684849
 30
0.0
 10
-117.5563349159
 20
1295.0249962239
 30
0.0
 10
-140.5868584365
 20
1285.8638707725
 30
0.0
 10
-172.8818574335
 20
1266.7281944665
 30
0.0
 10
-202.4072464616
 20
1242.1841180308
 30
0.0
 10
-228.0372977235
 20
1212.8429034849
 30
0.0
 10
-248.8702916587
 20
1179.4513203089
 30
0.0
 10
-264.2369791888
 20
1142.8910913378
 30
0.0
 10
-273.6378723997
 20
1104.1943899044
 30
0.0
 10
-275.7381647582
 20
1077.6003512136
 30
0.0
 10
-275.7381476245
 20
1064.3134939988
 30
0.0
  0
SPLINE
  5
3B2
100
AcDbEntity
  8
_SURFACE
100
AcDbSpline
 62
7
  6
CONTINUOUS
 70
0
 71
3
 72
21
 73
17
 74
0
 42
0.0000001
 43
0.0000001
 44
0.0000000001
 40
0.0
 40
0.0
 40
0.0
 40
0.0
 40
0.1243241314
 40
0.2385243075
 40
0.34159796
 40
0.4342083986
 40
0.518030793
 40
0.5936621108
 40
0.661992672
 40
0.7242885932
 40
0.7814551696
 40
0.8337288219
 40
0.8808672161
 40
0.9235840615
 40
0.9631409324
 40
1.0
 40
1.0
 40
1.0
 40
1.0
 10
753.2929437954
 20
1064.3134939993
 30
0.0
 10
753.2929266304
 20
1077.4366589132
 30
0.0
 10
751.3251572574
 20
1102.6613959742
 30
0.0
 10
743.1084921221
 20
1137.8937654662
 30
0.0
 10
731.3144152569
 20
1168.5072655169
 30
0.0
 10
717.3088809299
 20
1194.5536295491
 30
0.0
 10
702.0975534656
 20
1216.4472330588
 30
0.0
 10
686.3867652148
 20
1234.6997436065
 30
0.0
 10
670.6770439022
 20
1249.815261102
 30
0.0
 10
655.2505852322
 20
1262.2990808221
 30
0.0
 10
640.2894765807
 20
1272.5660582979
 30
0.0
 10
626.0072283568
 20
1280.9104253449
 30
0.0
 10
612.571067352
 20
1287.6071017528
 30
0.0
 10
599.9932119772
 20
1292.9553943308
 30
0.0
 10
588.1608995849
 20
1297.2309453193
 30
0.0
 10
580.438676307
 20
1299.5739345784
 30
0.0
 10
576.6906651012
 20
1300.6179371099
 30
0.0
  0
ENDSEC
  0
SECTION
  2
OBJECTS
  0
DICTIONARY
  5
C
100
AcDbDictionary
280
0
281
1
  3
ACAD_GROUP
350
D
  3
ACAD_MLINESTYLE
350
17
  3
ACAD_LAYOUT
350
1A
  3
ACAD_PLOTSETTINGS
350
19
  3
ACAD_PLOTSTYLENAME
350
E
  0
DICTIONARY
  5
D
102
{ACAD_REACTORS
330
C
102
}
100
AcDbDictionary
280
0
281
1
  0
ACDBDICTIONARYWDFLT
  5
E
102
{ACAD_REACTORS
330
C
102
}
100
AcDbDictionary
281
1
  3
Normal
350
F
100
AcDbDictionaryWithDefault
340
F
  0
DICTIONARY
  5
17
102
{ACAD_REACTORS
330
C
102
}
100
AcDbDictionary
280
0
281
1
  3
Standard
350
18
  0
DICTIONARY
  5
19
102
{ACAD_REACTORS
330
C
102
}
100
AcDbDictionary
281
1
  0
DICTIONARY
  5
1A
102
{ACAD_REACTORS
330
C
102
}
100
AcDbDictionary
281
1
  3
Model
350
3B3
  3
Layout1
350
3B4
  0
ACDBPLACEHOLDER
  5
F
102
{ACAD_REACTORS
330
E
102
}
  0
MLINESTYLE
  5
18
102
{ACAD_REACTORS
330
17
102
}
100
AcDbMlineStyle
  2
STANDARD
 70
0
  3

 62
256
 51
90.0
 52
90.0
 71
2
 49
0.5
 62
256
  6
BYLAYER
 49
-0.5
 62
256
  6
BYLAYER
  0
LAYOUT
  5
3B3
102
{ACAD_REACTORS
330
1A
102
}
100
AcDbPlotSettings
  1

  2
none_device
  4
ANSI_C_(22.00_x_17.00_Inches)
  6

 40
0.0
 41
0.0
 42
0.0
 43
0.0
 44
558.8
 45
431.8
 46
0.0
 47
0.0
 48
0.0
 49
0.0
140
0.0
141
0.0
142
1.0
143
1.0
 70
1024
 72
1
 73
0
 74
0
  7

 75
0
147
1.0
148
0.0
149
0.0
100
AcDbLayout
  1
Model
 70
0
 71
0
 10
0.0
 20
0.0
 11
558.8
 21
431.8
 12
0.0
 22
0.0
 32
0.0
 14
0.0
 24
0.0
 34
0.0
 15
0.0
 25
0.0
 35
0.0
146
0.0
 13
0.0
 23
0.0
 33
0.0
 16
1.0
 26
0.0
 36
0.0
 17
0.0
 27
1.0
 37
0.0
 76
0
330
207
345
0
346
0
  0
LAYOUT
  5
3B4
102
{ACAD_REACTORS
330
1A
102
}
100
AcDbPlotSettings
  1

  2
none_device
  4
ANSI_C_(22.00_x_17.00_Inches)
  6

 40
0.0
 41
0.0
 42
0.0
 43
0.0
 44
558.8
 45
431.8
 46
0.0
 47
0.0
 48
0.0
 49
0.0
140
0.0
141
0.0
142
1.0
143
1.0
 70
0
 72
1
 73
0
 74
0
  7

 75
0
147
1.0
148
0.0
149
0.0
100
AcDbLayout
  1
Layout1
 70
0
 71
1
 10
0.0
 20
0.0
 11
558.8
 21
431.8
 12
0.0
 22
0.0
 32
0.0
 14
0.0
 24
0.0
 34
0.0
 15
0.0
 25
0.0
 35
0.0
146
0.0
 13
0.0
 23
0.0
 33
0.0
 16
1.0
 26
0.0
 36
0.0
 17
0.0
 27
1.0
 37
0.0
 76
0
330
208
345
0
346
0
  0
ENDSEC
  0
EOF
