  0
SECTION
  2
HEADER
  9
$ACADVER
  1
AC1018
  9
$ACADMAINTVER
 70
    76
  9
$DWGCODEPAGE
  3
ANSI_936
  9
$INSBASE
 10
0.0
 20
0.0
 30
0.0
  9
$EXTMIN
 10
-1.59899119531758
 20
3.36337691317766
 30
-0.0015258207003583
  9
$EXTMAX
 10
22.57655969080486
 20
22.24928733871903
 30
0.0000000349246037
  9
$LIMMIN
 10
0.0
 20
0.0
  9
$LIMMAX
 10
34.0
 20
22.0
  9
$ORTHOMODE
 70
     0
  9
$REGENMODE
 70
     1
  9
$FILLMODE
 70
     1
  9
$QTEXTMODE
 70
     0
  9
$MIRRTEXT
 70
     1
  9
$LTSCALE
 40
1.87
  9
$ATTMODE
 70
     1
  9
$TEXTSIZE
 40
0.2
  9
$TRACEWID
 40
0.05
  9
$TEXTSTYLE
  7
STANDARD
  9
$CLAYER
  8
0
  9
$CELTYPE
  6
ByLayer
  9
$CECOLOR
 62
   256
  9
$CELTSCALE
 40
1.0
  9
$DISPSILH
 70
     0
  9
$DIMSCALE
 40
1.0
  9
$DIMASZ
 40
0.1875
  9
$DIMEXO
 40
0.2125
  9
$DIMDLI
 40
1.292
  9
$DIMRND
 40
0.0
  9
$DIMDLE
 40
0.0
  9
$DIMEXE
 40
0.612
  9
$DIMTP
 40
0.01
  9
$DIMTM
 40
0.01
  9
$DIMTXT
 40
0.15625
  9
$DIMCEN
 40
0.306
  9
$DIMTSZ
 40
0.0
  9
$DIMTOL
 70
     1
  9
$DIMLIM
 70
     0
  9
$DIMTIH
 70
     1
  9
$DIMTOH
 70
     1
  9
$DIMSE1
 70
     0
  9
$DIMSE2
 70
     0
  9
$DIMTAD
 70
     0
  9
$DIMZIN
 70
     0
  9
$DIMBLK
  1
_FILLED
  9
$DIMASO
 70
     1
  9
$DIMSHO
 70
     1
  9
$DIMPOST
  1

  9
$DIMAPOST
  1

  9
$DIMALT
 70
     0
  9
$DIMALTD
 70
     2
  9
$DIMALTF
 40
25.4
  9
$DIMLFAC
 40
1.0
  9
$DIMTOFL
 70
     0
  9
$DIMTVP
 40
0.0
  9
$DIMTIX
 70
     0
  9
$DIMSOXD
 70
     0
  9
$DIMSAH
 70
     0
  9
$DIMBLK1
  1

  9
$DIMBLK2
  1

  9
$DIMSTYLE
  2
STANDARD
  9
$DIMCLRD
 70
     0
  9
$DIMCLRE
 70
     0
  9
$DIMCLRT
 70
     0
  9
$DIMTFAC
 40
1.0
  9
$DIMGAP
 40
0.09
  9
$DIMJUST
 70
     0
  9
$DIMSD1
 70
     0
  9
$DIMSD2
 70
     0
  9
$DIMTOLJ
 70
     1
  9
$DIMTZIN
 70
     0
  9
$DIMALTZ
 70
     0
  9
$DIMALTTZ
 70
     0
  9
$DIMUPT
 70
     0
  9
$DIMDEC
 70
     4
  9
$DIMTDEC
 70
     4
  9
$DIMALTU
 70
     2
  9
$DIMALTTD
 70
     2
  9
$DIMTXSTY
  7
STANDARD
  9
$DIMAUNIT
 70
     0
  9
$DIMADEC
 70
     0
  9
$DIMALTRND
 40
0.0
  9
$DIMAZIN
 70
     0
  9
$DIMDSEP
 70
     0
  9
$DIMATFIT
 70
     3
  9
$DIMFRAC
 70
     0
  9
$DIMLDRBLK
  1

  9
$DIMLUNIT
 70
     2
  9
$DIMLWD
 70
     0
  9
$DIMLWE
 70
     0
  9
$DIMTMOVE
 70
     0
  9
$LUNITS
 70
     2
  9
$LUPREC
 70
     4
  9
$SKETCHINC
 40
0.1
  9
$FILLETRAD
 40
0.0
  9
$AUNITS
 70
     0
  9
$AUPREC
 70
     0
  9
$MENU
  1
acad
  9
$ELEVATION
 40
0.0
  9
$PELEVATION
 40
0.0
  9
$THICKNESS
 40
0.0
  9
$LIMCHECK
 70
     0
  9
$CHAMFERA
 40
0.0
  9
$CHAMFERB
 40
0.0
  9
$CHAMFERC
 40
0.0
  9
$CHAMFERD
 40
0.0
  9
$SKPOLY
 70
     0
  9
$TDCREATE
 40
2454657.636878924
  9
$TDUCREATE
 40
2454657.303545591
  9
$TDUPDATE
 40
2454659.411708669
  9
$TDUUPDATE
 40
2454659.078375336
  9
$TDINDWG
 40
0.3154701273
  9
$TDUSRTIMER
 40
0.3154701273
  9
$USRTIMER
 70
     1
  9
$ANGBASE
 50
0.0
  9
$ANGDIR
 70
     0
  9
$PDMODE
 70
     3
  9
$PDSIZE
 40
0.3125
  9
$PLINEWID
 40
0.0
  9
$SPLFRAME
 70
     0
  9
$SPLINETYPE
 70
     6
  9
$SPLINESEGS
 70
     8
  9
$HANDSEED
  5
17BC
  9
$SURFTAB1
 70
     6
  9
$SURFTAB2
 70
     6
  9
$SURFTYPE
 70
     6
  9
$SURFU
 70
     6
  9
$SURFV
 70
     6
  9
$UCSBASE
  2

  9
$UCSNAME
  2

  9
$UCSORG
 10
0.0
 20
0.0
 30
0.0
  9
$UCSXDIR
 10
1.0
 20
0.0
 30
0.0
  9
$UCSYDIR
 10
0.0
 20
1.0
 30
0.0
  9
$UCSORTHOREF
  2

  9
$UCSORTHOVIEW
 70
     0
  9
$UCSORGTOP
 10
0.0
 20
0.0
 30
0.0
  9
$UCSORGBOTTOM
 10
0.0
 20
0.0
 30
0.0
  9
$UCSORGLEFT
 10
0.0
 20
0.0
 30
0.0
  9
$UCSORGRIGHT
 10
0.0
 20
0.0
 30
0.0
  9
$UCSORGFRONT
 10
0.0
 20
0.0
 30
0.0
  9
$UCSORGBACK
 10
0.0
 20
0.0
 30
0.0
  9
$PUCSBASE
  2

  9
$PUCSNAME
  2

  9
$PUCSORG
 10
0.0
 20
0.0
 30
0.0
  9
$PUCSXDIR
 10
1.0
 20
0.0
 30
0.0
  9
$PUCSYDIR
 10
0.0
 20
1.0
 30
0.0
  9
$PUCSORTHOREF
  2

  9
$PUCSORTHOVIEW
 70
     0
  9
$PUCSORGTOP
 10
0.0
 20
0.0
 30
0.0
  9
$PUCSORGBOTTOM
 10
0.0
 20
0.0
 30
0.0
  9
$PUCSORGLEFT
 10
0.0
 20
0.0
 30
0.0
  9
$PUCSORGRIGHT
 10
0.0
 20
0.0
 30
0.0
  9
$PUCSORGFRONT
 10
0.0
 20
0.0
 30
0.0
  9
$PUCSORGBACK
 10
0.0
 20
0.0
 30
0.0
  9
$USERI1
 70
     0
  9
$USERI2
 70
     0
  9
$USERI3
 70
     0
  9
$USERI4
 70
     0
  9
$USERI5
 70
     0
  9
$USERR1
 40
0.0
  9
$USERR2
 40
0.0
  9
$USERR3
 40
0.0
  9
$USERR4
 40
0.0
  9
$USERR5
 40
0.0
  9
$WORLDVIEW
 70
     1
  9
$SHADEDGE
 70
     3
  9
$SHADEDIF
 70
    70
  9
$TILEMODE
 70
     1
  9
$MAXACTVP
 70
    16
  9
$PINSBASE
 10
0.0
 20
0.0
 30
0.0
  9
$PLIMCHECK
 70
     0
  9
$PEXTMIN
 10
1.000000000000000E+20
 20
1.000000000000000E+20
 30
1.000000000000000E+20
  9
$PEXTMAX
 10
-1.000000000000000E+20
 20
-1.000000000000000E+20
 30
-1.000000000000000E+20
  9
$PLIMMIN
 10
0.0
 20
0.0
  9
$PLIMMAX
 10
12.0
 20
9.0
  9
$UNITMODE
 70
     0
  9
$VISRETAIN
 70
     0
  9
$PLINEGEN
 70
     1
  9
$PSLTSCALE
 70
     0
  9
$TREEDEPTH
 70
  3020
  9
$CMLSTYLE
  2
Standard
  9
$CMLJUST
 70
     0
  9
$CMLSCALE
 40
1.0
  9
$PROXYGRAPHICS
 70
     0
  9
$MEASUREMENT
 70
     0
  9
$CELWEIGHT
370
     0
  9
$ENDCAPS
280
     0
  9
$JOINSTYLE
280
     0
  9
$LWDISPLAY
290
     0
  9
$INSUNITS
 70
     1
  9
$HYPERLINKBASE
  1

  9
$STYLESHEET
  1

  9
$XEDIT
290
     1
  9
$CEPSNTYPE
380
     0
  9
$PSTYLEMODE
290
     1
  9
$FINGERPRINTGUID
  2

  9
$VERSIONGUID
  2
{1BBCA4EA-1277-4F86-AAD0-DCC8F56CCC80}
  9
$EXTNAMES
290
     1
  9
$PSVPSCALE
 40
0.0
  9
$OLESTARTUP
290
     0
  9
$SORTENTS
280
   127
  9
$INDEXCTL
280
     0
  9
$HIDETEXT
280
     0
  9
$XCLIPFRAME
290
     0
  9
$HALOGAP
280
     0
  9
$OBSCOLOR
 70
   257
  9
$OBSLTYPE
280
     0
  9
$INTERSECTIONDISPLAY
280
     0
  9
$INTERSECTIONCOLOR
 70
   257
  9
$DIMASSOC
280
     1
  9
$PROJECTNAME
  1

  0
ENDSEC
  0
SECTION
  2
CLASSES
  0
CLASS
  1
ACDBDICTIONARYWDFLT
  2
AcDbDictionaryWithDefault
  3
ObjectDBX Classes
 90
        0
 91
        1
280
     0
281
     0
  0
CLASS
  1
IMAGE
  2
AcDbRasterImage
  3
ISM
 90
      127
 91
        0
280
     0
281
     1
  0
CLASS
  1
DICTIONARYVAR
  2
AcDbDictionaryVar
  3
ObjectDBX Classes
 90
        0
 91
        1
280
     0
281
     0
  0
CLASS
  1
RASTERVARIABLES
  2
AcDbRasterVariables
  3
ISM
 90
        0
 91
        0
280
     0
281
     0
  0
CLASS
  1
IMAGEDEF
  2
AcDbRasterImageDef
  3
ISM
 90
        0
 91
        0
280
     0
281
     0
  0
CLASS
  1
IMAGEDEF_REACTOR
  2
AcDbRasterImageDefReactor
  3
ISM
 90
        1
 91
        0
280
     0
281
     0
  0
CLASS
  1
IDBUFFER
  2
AcDbIdBuffer
  3
ObjectDBX Classes
 90
        0
 91
        0
280
     0
281
     0
  0
CLASS
  1
SPATIAL_FILTER
  2
AcDbSpatialFilter
  3
ObjectDBX Classes
 90
        0
 91
        0
280
     0
281
     0
  0
CLASS
  1
SORTENTSTABLE
  2
AcDbSortentsTable
  3
ObjectDBX Classes
 90
        0
 91
        1
280
     0
281
     0
  0
CLASS
  1
LAYER_INDEX
  2
AcDbLayerIndex
  3
ObjectDBX Classes
 90
        0
 91
        0
280
     0
281
     0
  0
CLASS
  1
SPATIAL_INDEX
  2
AcDbSpatialIndex
  3
ObjectDBX Classes
 90
        0
 91
        0
280
     0
281
     0
  0
CLASS
  1
OBJECT_PTR
  2
CAseDLPNTableRecord
  3
ASE-LPNTableRecord
 90
        1
 91
        0
280
     0
281
     0
  0
CLASS
  1
PLOTSETTINGS
  2
AcDbPlotSettings
  3
ObjectDBX Classes
 90
        0
 91
        0
280
     0
281
     0
  0
CLASS
  1
WIPEOUT
  2
AcDbWipeout
  3
"WipeOut|Product Desc: Object Enabler for WipeOut entity^I^I^I^I^I^I|Company: Autodesk, Inc.^I^I^I^I^I^I|WEB Address: www.autodesk.com"
 90
      127
 91
        0
280
     0
281
     1
  0
CLASS
  1
WIPEOUTVARIABLES
  2
AcDbWipeoutVariables
  3
"WipeOut|Product Desc:     WipeOut Dbx Application|Company:          Autodesk, Inc.|WEB Address:      www.autodesk.com"
 90
        0
 91
        0
280
     0
281
     0
  0
CLASS
  1
RTEXT
  2
RText
  3
RText|AutoCAD Express Tool|expresstools@autodesk.com
 90
     1023
 91
        0
280
     0
281
     1
  0
CLASS
  1
ARCALIGNEDTEXT
  2
AcDbArcAlignedText
  3
ATEXT|AutoCAD Express Tool|expresstools@autodesk.com
 90
        0
 91
        0
280
     0
281
     1
  0
CLASS
  1
TABLESTYLE
  2
AcDbTableStyle
  3
ObjectDBX Classes
 90
     2047
 91
        1
280
     0
281
     0
  0
CLASS
  1
ACME_DOCUMENT
  2
AcMeDbDoc
  3
AcMeServices
 90
        0
 91
        2
280
     0
281
     0
  0
CLASS
  1
AMGSETTINGSOBJ
  2
AmgSettingsObj
  3
"AcadM|Product Description: AutoCAD Mechanical 2000|Company: Autodesk"
 90
        0
 91
        2
280
     0
281
     0
  0
CLASS
  1
ACMESCOPE
  2
AcMeScope
  3
AcMeServices
 90
        0
 91
        1
280
     0
281
     0
  0
CLASS
  1
ACMECOMMANDHISTORY
  2
AcMeCommandHistory
  3
AcMeServices
 90
        0
 91
        1
280
     0
281
     0
  0
CLASS
  1
ACIMSYSVARMAN
  2
AcImSysVarManager
  3
AcMeServices
 90
        0
 91
        5
280
     0
281
     0
  0
CLASS
  1
ACIMINTSYSVAR
  2
AcImIntSysVar
  3
AcMeServices
 90
        0
 91
       26
280
     0
281
     0
  0
CLASS
  1
ACMEDRAWINGMAN
  2
AcMeDrawingMan
  3
AcMeServices
 90
        0
 91
        1
280
     0
281
     0
  0
CLASS
  1
ACMEVIEW
  2
AcMeView
  3
AcMeServices
 90
        0
 91
        1
280
     0
281
     0
  0
CLASS
  1
ACDBENTITYCACHE
  2
AcMeEntityCache
  3
AcMeServices
 90
        0
 91
        1
280
     0
281
     0
  0
CLASS
  1
GSMANAGER
  2
AcMeGSManager
  3
AcMeServices
 90
        0
 91
        1
280
     0
281
     0
  0
CLASS
  1
AMDTINTERNALREACTOR
  2
AmdtInternalReactor
  3
AcMeServices
 90
        0
 91
        2
280
     0
281
     0
  0
CLASS
  1
ACMESTATEMGR
  2
AcMeStateMgr
  3
AcMeServices
 90
        0
 91
        1
280
     0
281
     0
  0
CLASS
  1
ACGREFMASTER
  2
AcGrefMaster
  3
AcAttribServices
 90
        0
 91
        1
280
     0
281
     0
  0
CLASS
  1
AM_DRAWING_MGR
  2
AcDmDwgMgr
  3
AcMechDwgViewMgmt
 90
        0
 91
        1
280
     0
281
     0
  0
CLASS
  1
AM_DWG_DOCUMENT
  2
AcDmDwgDocument
  3
AcMechDwgViewMgmt
 90
        0
 91
        1
280
     0
281
     0
  0
CLASS
  1
AM_DWG_SHEET
  2
AcDmSheet
  3
AcMechDwgViewMgmt
 90
        0
 91
        2
280
     0
281
     0
  0
CLASS
  1
AM_VIEWDIMPARMAP
  2
AcDmViewDimParMap
  3
AcMechDwgViewMgmt
 90
        0
 91
        2
280
     0
281
     0
  0
CLASS
  1
ACIMREALSYSVAR
  2
AcImRealSysVar
  3
AcMeServices
 90
        0
 91
        1
280
     0
281
     0
  0
CLASS
  1
AM_DWGMGR_NAME
  2
AcDmDwgMgrName
  3
AcMechDwgViewMgmt
 90
        0
 91
        1
280
     0
281
     0
  0
CLASS
  1
ACME_DATABASE
  2
AcMeDbDatabase
  3
AcMeServices
 90
        0
 91
        1
280
     0
281
     0
  0
CLASS
  1
ACRFINSADJUSTERMGR
  2
AcRfInsAdjusterMgr
  3
AcMeServices
 90
        0
 91
        1
280
     0
281
     0
  0
CLASS
  1
ACGREFACADMASTER
  2
AcGrefacadMaster
  3
AcGrefServices
 90
        0
 91
        1
280
     0
281
     0
  0
CLASS
  1
AMDTMENUSTATEMGR
  2
AmdtMenuStateMgr
  3
McadcomServices
 90
        0
 91
        1
280
     0
281
     0
  0
CLASS
  1
AMDTMCOMMENUSTATE
  2
AmdtMcomMenuState
  3
McadcomServices
 90
        0
 91
        1
280
     0
281
     0
  0
CLASS
  1
AMIMASTER
  2
AmiMaster
  3
AmiServices
 90
        0
 91
        1
280
     0
281
     0
  0
CLASS
  1
MAPIAMMOUDLE
  2
MApiAmModule
  3
MApiAmServices
 90
        0
 91
        1
280
     0
281
     0
  0
CLASS
  1
ACIMSTRSYSVAR
  2
AcImStrSysVar
  3
AcMeServices
 90
        0
 91
        5
280
     0
281
     0
  0
CLASS
  1
AMDTADMENUSTATE
  2
AmdtAdMenuState
  3
DesignerServices
 90
        0
 91
        1
280
     0
281
     0
  0
CLASS
  1
ADAPPL
  2
AcAdAppl
  3
DesignerServices
 90
        0
 91
        1
280
     0
281
     0
  0
CLASS
  1
DEPMGR
  2
AcAdDepMgr
  3
DesignerServices
 90
        0
 91
        1
280
     0
281
     0
  0
CLASS
  1
PARAMMGR
  2
AcAdParamMgr
  3
DesignerServices
 90
        0
 91
        1
280
     0
281
     0
  0
CLASS
  1
PARAMSCOPE
  2
AcAdParamScope
  3
DesignerServices
 90
        0
 91
        1
280
     0
281
     0
  0
CLASS
  1
NAMEDAPPL
  2
AcAdNamedAppl
  3
DesignerServices
 90
        0
 91
        1
280
     0
281
     0
  0
CLASS
  1
AMDTDMMENUSTATE
  2
AmdtDmMenuState
  3
AcMechDwgViewMgmt
 90
        0
 91
        1
280
     0
281
     0
  0
CLASS
  1
AMDTAMMENUSTATE
  2
AmdtAmMenuState
  3
DesignerAssemblies
 90
        0
 91
        1
280
     0
281
     0
  0
CLASS
  1
ACAMPROJECT
  2
AcAmProject
  3
DesignerAssemblies
 90
        0
 91
        1
280
     0
281
     0
  0
CLASS
  1
ACAMGRCOMPDEF
  2
AcAmGrCompDef
  3
DesignerAssemblies
 90
        0
 91
        1
280
     0
281
     0
  0
CLASS
  1
ACCMCONTEXT
  2
AcCmContext
  3
DesignerAssemblies
 90
        0
 91
        1
280
     0
281
     0
  0
CLASS
  1
ACAMCOMPDEF
  2
AcAmCompDef
  3
DesignerAssemblies
 90
        0
 91
        1
280
     0
281
     0
  0
CLASS
  1
ACAMCOMPDEFMGR
  2
AcAmCompDefMgr
  3
DesignerAssemblies
 90
        0
 91
        1
280
     0
281
     0
  0
CLASS
  1
AMCONTEXTMGR
  2
AcAmContextMgr
  3
DesignerAssemblies
 90
        0
 91
        1
280
     0
281
     0
  0
CLASS
  1
ACAMCONTEXTMODELER
  2
AcAmContextModeler
  3
DesignerAssemblies
 90
        0
 91
        1
280
     0
281
     0
  0
CLASS
  1
ACMDATADICTIONARY
  2
AcmDataDictionary
  3
"AcmSymBB|Product Description: AutoCAD Mechanical 2004 DX|Company: Autodesk"
 90
        0
 91
        1
280
     0
281
     0
  0
CLASS
  1
CATALOGSTATE
  2
AcAmCatalogState
  3
DesignerAssemblies
 90
        0
 91
        1
280
     0
281
     0
  0
CLASS
  1
ACAMGRCOMPDEFSET
  2
AcAmGrCompDefSet
  3
DesignerAssemblies
 90
        0
 91
        1
280
     0
281
     0
  0
CLASS
  1
AMDTBROWSERDBTAB
  2
AmdtBrowserDbTab
  3
McadcomServices
 90
        0
 91
        1
280
     0
281
     0
  0
CLASS
  1
CBROWSERAPPOBJECT
  2
CBrowserAppObject
  3
McadcomServices
 90
        0
 91
        3
280
     0
281
     0
  0
CLASS
  1
DM_PLACEHOLDER
  2
AcDmSelsetPlaceholder
  3
AcMechDwgViewMgmt
 90
        0
 91
        1
280
     0
281
     0
  0
CLASS
  1
ACMSTANDARDANSI
  2
AcmStandardANSI
  3
"Amdt_StdImp|Product Description: AutoCAD Mechanical 2004 DX|Company: Autodesk"
 90
        0
 91
        1
280
     0
281
     0
  0
CLASS
  1
AMGOBJPROPCFG
  2
AmgObjPropCfg
  3
"AmgLay|Product Description: AutoCAD Mechanical 2000|Company: Autodesk"
 90
        1
 91
        1
280
     0
281
     0
  0
CLASS
  1
ACMSURFSTANDARDANSI
  2
AcmSurfTextStdANSI
  3
"Amdt_StdImp|Product Description: AutoCAD Mechanical 2004 DX|Company: Autodesk"
 90
        0
 91
        1
280
     0
281
     0
  0
CLASS
  1
ACMFCFSTANDARDANSI
  2
AcmFCFStdANSI
  3
"Amdt_StdImp|Product Description: AutoCAD Mechanical 2004 DX|Company: Autodesk"
 90
        0
 91
        1
280
     0
281
     0
  0
CLASS
  1
ACMWELDSTANDARDANSI
  2
AcmWeldingStdANSI
  3
"Amdt_StdImp|Product Description: AutoCAD Mechanical 2004 DX|Company: Autodesk"
 90
        0
 91
        1
280
     0
281
     0
  0
CLASS
  1
ACMIDSTANDARDANSI
  2
AcmIdStdANSI
  3
"Amdt_StdImp|Product Description: AutoCAD Mechanical 2004 DX|Company: Autodesk"
 90
        0
 91
        1
280
     0
281
     0
  0
CLASS
  1
ACMDATUMSTANDARDANSI
  2
AcmDatumStdANSI
  3
"Amdt_StdImp|Product Description: AutoCAD Mechanical 2004 DX|Company: Autodesk"
 90
        0
 91
        1
280
     0
281
     0
  0
CLASS
  1
ACMBOMSTANDARDANSI
  2
AcmBOMStdANSI
  3
"Amdt_StdImp|Product Description: AutoCAD Mechanical 2004 DX|Company: Autodesk"
 90
        0
 91
        1
280
     0
281
     0
  0
CLASS
  1
ACMDETAILSTANDARDANSI
  2
AmdtDetailSymStdANSI
  3
"Amdt_StdImp|Product Description: AutoCAD Mechanical 2004 DX|Company: Autodesk"
 90
        0
 91
        1
280
     0
281
     0
  0
CLASS
  1
ACMSECTIONSTANDARDANSI
  2
AmdtSectionSymStdANSI
  3
"Amdt_StdImp|Product Description: AutoCAD Mechanical 2004 DX|Company: Autodesk"
 90
        0
 91
        1
280
     0
281
     0
  0
CLASS
  1
ACMCENTERLINESTANDARDANSI
  2
AmdtCenterLineStdANSI
  3
"Amdt_StdImp|Product Description: AutoCAD Mechanical 2004 DX|Company: Autodesk"
 90
        0
 91
        1
280
     0
281
     0
  0
CLASS
  1
ACMTHREADLINESTANDARDANSI
  2
AmdtThreadLineStdANSI
  3
"Amdt_StdImp|Product Description: AutoCAD Mechanical 2004 DX|Company: Autodesk"
 90
        0
 91
        1
280
     0
281
     0
  0
CLASS
  1
ACMNOTESTANDARDANSI
  2
AmdtNoteStdANSI
  3
"Amdt_StdImp|Product Description: AutoCAD Mechanical 2004 DX|Company: Autodesk"
 90
        0
 91
        1
280
     0
281
     0
  0
CLASS
  1
AMDTNOTETEMPLATEDB
  2
AmdtNoteTemplateDB
  3
AMDT_STDIMP_MODULE_NAME
 90
        0
 91
        6
280
     0
281
     0
  0
CLASS
  1
ACAMGLAYSTD
  2
AcAmgLayStd
  3
"AcAmgLayStd|Product Description: AutoCAD Mechanical 2000|Company: Autodesk"
 90
        0
 91
        1
280
     0
281
     0
  0
CLASS
  1
ACAMGDIMSTD
  2
AcAmgDimStd
  3
"AcAmgDimStd|Product Description: AutoCAD Mechanical 2000|Company: Autodesk"
 90
        0
 91
        1
280
     0
281
     0
  0
CLASS
  1
ACAMGHOLECHARTSTDANSI
  2
AcAmgHoleChartStdANSI
  3
ACMSYMBB_MODULE_NAME
 90
        0
 91
        1
280
     0
281
     0
  0
CLASS
  1
ACAMGTITLESTD
  2
AcAmgTitleStd
  3
"TITLEAPP"
 90
        0
 91
        1
280
     0
281
     0
  0
CLASS
  1
ACMDATAENTRYBLOCK
  2
AcmDataEntryBlock
  3
"AcmSymBB|Product Description: AutoCAD Mechanical 2004 DX|Company: Autodesk"
 90
        0
 91
        0
280
     0
281
     0
  0
CLASS
  1
ACAMGFILTERDAT
  2
AcAmgFilterDat
  3
"AcadM|Product Description: AutoCAD Mechanical 2000|Company: Autodesk"
 90
        0
 91
        6
280
     0
281
     0
  0
ENDSEC
  0
SECTION
  2
TABLES
  0
TABLE
  2
VPORT
  5
8
330
0
100
AcDbSymbolTable
 70
     5
  0
VPORT
  5
17BB
330
8
100
AcDbSymbolTableRecord
100
AcDbViewportTableRecord
  2
*Active
 70
     0
 10
0.0
 20
0.0
 11
1.0
 21
1.0
 12
12.64966885860028
 22
12.2826724226448
 13
0.0
 23
0.0
 14
1.0
 24
1.0
 15
0.0
 25
0.0
 16
0.0
 26
0.0
 36
1.0
 17
0.0
 27
0.0
 37
0.0
 40
28.76458597559731
 41
1.502564102564102
 42
50.0
 43
0.0
 44
0.0
 50
0.0
 51
0.0
 71
     0
 72
   100
 73
     1
 74
     1
 75
     0
 76
     0
 77
     0
 78
     0
281
     0
 65
     0
110
0.0
120
0.0
130
0.0
111
1.0
121
0.0
131
0.0
112
0.0
122
1.0
132
0.0
 79
     0
146
0.0
  0
ENDTAB
  0
TABLE
  2
LTYPE
  5
5
330
0
100
AcDbSymbolTable
 70
    19
  0
LTYPE
  5
14
330
5
100
AcDbSymbolTableRecord
100
AcDbLinetypeTableRecord
  2
ByBlock
 70
     0
  3

 72
    65
 73
     0
 40
0.0
  0
LTYPE
  5
15
330
5
100
AcDbSymbolTableRecord
100
AcDbLinetypeTableRecord
  2
ByLayer
 70
     0
  3

 72
    65
 73
     0
 40
0.0
  0
LTYPE
  5
16
330
5
100
AcDbSymbolTableRecord
100
AcDbLinetypeTableRecord
  2
CONTINUOUS
 70
     0
  3
Solid line
 72
    65
 73
     0
 40
0.0
  0
LTYPE
  5
1F5
330
5
100
AcDbSymbolTableRecord
100
AcDbLinetypeTableRecord
  2
CENTER
 70
     0
  3
____ _ ____ _ ____ _ ____ _ ____ _ ____ _ ____
 72
    65
 73
     4
 40
0.6
 49
0.375
 74
     0
 49
-0.075
 74
     0
 49
0.075
 74
     0
 49
-0.075
 74
     0
  0
LTYPE
  5
1F6
330
5
100
AcDbSymbolTableRecord
100
AcDbLinetypeTableRecord
  2
HIDDEN
 70
     0
  3
- - - - - - - - - - - - - - - - - - - -
 72
    65
 73
     2
 40
0.2
 49
0.1
 74
     0
 49
-0.1
 74
     0
  0
LTYPE
  5
1F7
330
5
100
AcDbSymbolTableRecord
100
AcDbLinetypeTableRecord
  2
PHANTOM
 70
     0
  3
_____ _ _ _____ _ _ _____ _ _ _____
 72
    65
 73
     6
 40
0.8
 49
0.45
 74
     0
 49
-0.05
 74
     0
 49
0.1
 74
     0
 49
-0.05
 74
     0
 49
0.1
 74
     0
 49
-0.05
 74
     0
  0
LTYPE
  5
1F8
330
5
100
AcDbSymbolTableRecord
100
AcDbLinetypeTableRecord
  2
DOT
 70
     0
  3
. . . . . . . . . . . . . . . . . . . .
 72
    65
 73
     2
 40
0.2
 49
0.1
 74
     0
 49
-0.1
 74
     0
  0
LTYPE
  5
1F9
330
5
100
AcDbSymbolTableRecord
100
AcDbLinetypeTableRecord
  2
DASHED
 70
     0
  3
- - - - - - - - - - - - - - - - - - - -
 72
    65
 73
     2
 40
0.2
 49
0.1
 74
     0
 49
-0.1
 74
     0
  0
LTYPE
  5
57E
330
5
100
AcDbSymbolTableRecord
100
AcDbLinetypeTableRecord
  2
PHANTOM2
 70
     0
  3
Phantom (.5x) ___ _ _ ___ _ _ ___ _ _ ___ _ _
 72
    65
 73
     6
 40
1.25
 49
0.625
 74
     0
 49
-0.125
 74
     0
 49
0.125
 74
     0
 49
-0.125
 74
     0
 49
0.125
 74
     0
 49
-0.125
 74
     0
  0
LTYPE
  5
5B2
330
5
100
AcDbSymbolTableRecord
100
AcDbLinetypeTableRecord
  2
AM_ISO02W050
 70
     0
  3
__ __ __ __ __ __ __ __ __ __ __ __ __ __ __
 72
    65
 73
     2
 40
7.5
 49
6.0
 74
     0
 49
-1.5
 74
     0
  0
LTYPE
  5
5B3
330
5
100
AcDbSymbolTableRecord
100
AcDbLinetypeTableRecord
  2
AM_ISO08W050
 70
     0
  3
____ . ____ . ____ . ____ . ____ . ____ . ____
 72
    65
 73
     4
 40
18.0
 49
12.0
 74
     0
 49
-1.5
 74
     0
 49
3.0
 74
     0
 49
-1.5
 74
     0
  0
LTYPE
  5
5B4
330
5
100
AcDbSymbolTableRecord
100
AcDbLinetypeTableRecord
  2
AM_ISO09W050
 70
     0
  3
_____ . . _____ . . _____ . . ____ .. ____
 72
    65
 73
     6
 40
22.5
 49
12.0
 74
     0
 49
-1.5
 74
     0
 49
3.0
 74
     0
 49
-1.5
 74
     0
 49
3.0
 74
     0
 49
-1.5
 74
     0
  0
LTYPE
  5
5B5
330
5
100
AcDbSymbolTableRecord
100
AcDbLinetypeTableRecord
  2
Amconstr
 70
     0
  3
_______________________
 72
    65
 73
     2
 40
9999.0
 49
9999.0
 74
     0
 49
0.0
 74
     0
  0
LTYPE
  5
5B6
330
5
100
AcDbSymbolTableRecord
100
AcDbLinetypeTableRecord
  2
AM_ISO08W050x2
 70
     0
  3
__ . __ . __ . __ . __ . __
 72
    65
 73
     4
 40
9.0
 49
6.0
 74
     0
 49
-0.75
 74
     0
 49
1.5
 74
     0
 49
-0.75
 74
     0
  0
LTYPE
  5
5B7
330
5
100
AcDbSymbolTableRecord
100
AcDbLinetypeTableRecord
  2
AM_ISO02W050x2
 70
     0
  3
 _ _ _ _ _ _ _ _ _ _ _ _
 72
    65
 73
     2
 40
3.75
 49
3.0
 74
     0
 49
-0.75
 74
     0
  0
LTYPE
  5
5BA
330
5
100
AcDbSymbolTableRecord
100
AcDbLinetypeTableRecord
  2
Amzigzag
 70
     0
  3
/\/-/\/-/\/-/\/-/\/-/\/
 72
    65
 73
     2
 40
11.0001
 49
0.0001
 74
     4
 75
   136
340
5B9
 46
0.04
 50
0.0
 44
0.0
 45
0.0
 49
-11.0
 74
     0
  0
LTYPE
  5
5BB
330
5
100
AcDbSymbolTableRecord
100
AcDbLinetypeTableRecord
  2
CENTER2
 70
     0
  3
Center (.5x) ___ _ ___ _ ___ _ ___ _ ___ _ ___
 72
    65
 73
     4
 40
1.125
 49
0.75
 74
     0
 49
-0.125
 74
     0
 49
0.125
 74
     0
 49
-0.125
 74
     0
  0
LTYPE
  5
5BC
330
5
100
AcDbSymbolTableRecord
100
AcDbLinetypeTableRecord
  2
HIDDEN2
 70
     0
  3
Hidden (.5x) _ _ _ _ _ _ _ _ _ _ _ _ _ _ _ _ _
 72
    65
 73
     2
 40
0.1875
 49
0.125
 74
     0
 49
-0.0625
 74
     0
  0
LTYPE
  5
5BD
330
5
100
AcDbSymbolTableRecord
100
AcDbLinetypeTableRecord
  2
Amzigzag2
 70
     0
  3
/\/-/\/-/\/-/\/-/\/-/\/
 72
    65
 73
     2
 40
0.4401
 49
0.0001
 74
     4
 75
   136
340
5B9
 46
0.0016
 50
0.0
 44
0.0
 45
0.0
 49
-0.4400000000000001
 74
     0
  0
LTYPE
  5
5CB
330
5
100
AcDbSymbolTableRecord
100
AcDbLinetypeTableRecord
  2
ACANSTGB
 70
     0
  3
__ . . __ . .
 72
    65
 73
     6
 40
0.35433070866
 49
0.15748031496
 74
     0
 49
-0.03937007874
 74
     0
 49
0.03937007874
 74
     0
 49
-0.03937007874
 74
     0
 49
0.03937007874
 74
     0
 49
-0.03937007874
 74
     0
  0
LTYPE
  5
5CC
330
5
100
AcDbSymbolTableRecord
100
AcDbLinetypeTableRecord
  2
ACANSTGL
 70
     0
  3
_ _ _ _ _
 72
    65
 73
     2
 40
0.11811023622
 49
0.07874015748
 74
     0
 49
-0.03937007874
 74
     0
  0
ENDTAB
  0
TABLE
  2
LAYER
  5
2
330
0
100
AcDbSymbolTable
 70
    40
  0
LAYER
  5
10
330
2
100
AcDbSymbolTableRecord
100
AcDbLayerTableRecord
  2
0
 70
     0
 62
     7
  6
CONTINUOUS
370
    -3
390
F
  0
LAYER
  5
1FA
330
2
100
AcDbSymbolTableRecord
100
AcDbLayerTableRecord
  2
DEFAULT_1
 70
     0
 62
     7
  6
CONTINUOUS
370
    -3
390
F
  0
LAYER
  5
1FB
330
2
100
AcDbSymbolTableRecord
100
AcDbLayerTableRecord
  2
DEFAULT_2
 70
     0
 62
     7
  6
CONTINUOUS
370
    -3
390
F
  0
LAYER
  5
1FC
330
2
100
AcDbSymbolTableRecord
100
AcDbLayerTableRecord
  2
DEFAULT_3
 70
     0
 62
     7
  6
CONTINUOUS
370
    -3
390
F
  0
LAYER
  5
1FE
330
2
100
AcDbSymbolTableRecord
100
AcDbLayerTableRecord
  2
2018-1
 70
     0
 62
     7
  6
CONTINUOUS
370
    -3
390
F
  0
LAYER
  5
1FF
330
2
100
AcDbSymbolTableRecord
100
AcDbLayerTableRecord
  2
2018-4
 70
     0
 62
     7
  6
CONTINUOUS
370
    -3
390
F
  0
LAYER
  5
200
330
2
100
AcDbSymbolTableRecord
100
AcDbLayerTableRecord
  2
2018-8
 70
     0
 62
     7
  6
CONTINUOUS
370
    -3
390
F
  0
LAYER
  5
201
330
2
100
AcDbSymbolTableRecord
100
AcDbLayerTableRecord
  2
ADM
 70
     0
 62
     7
  6
CONTINUOUS
370
    -3
390
F
  0
LAYER
  5
202
330
2
100
AcDbSymbolTableRecord
100
AcDbLayerTableRecord
  2
AME_FRZ
 70
     0
 62
     7
  6
CONTINUOUS
370
    -3
390
F
  0
LAYER
  5
203
330
2
100
AcDbSymbolTableRecord
100
AcDbLayerTableRecord
  2
BOT
 70
     0
 62
     7
  6
CONTINUOUS
370
    -3
390
F
  0
LAYER
  5
204
330
2
100
AcDbSymbolTableRecord
100
AcDbLayerTableRecord
  2
BOTCEN
 70
     0
 62
     7
  6
CONTINUOUS
370
    -3
390
F
  0
LAYER
  5
205
330
2
100
AcDbSymbolTableRecord
100
AcDbLayerTableRecord
  2
BOTDIM
 70
     0
 62
     7
  6
CONTINUOUS
370
    -3
390
F
  0
LAYER
  5
209
330
2
100
AcDbSymbolTableRecord
100
AcDbLayerTableRecord
  2
DEFPOINTS_
 70
     0
 62
     7
  6
CONTINUOUS
370
    -3
390
F
  0
LAYER
  5
20A
330
2
100
AcDbSymbolTableRecord
100
AcDbLayerTableRecord
  2
IGES
 70
     0
 62
     7
  6
CONTINUOUS
370
    -3
390
F
  0
LAYER
  5
20B
330
2
100
AcDbSymbolTableRecord
100
AcDbLayerTableRecord
  2
LSDDIM
 70
     0
 62
     7
  6
CONTINUOUS
370
    -3
390
F
  0
LAYER
  5
20C
330
2
100
AcDbSymbolTableRecord
100
AcDbLayerTableRecord
  2
MDL
 70
     0
 62
     7
  6
CONTINUOUS
370
    -3
390
F
  0
LAYER
  5
20D
330
2
100
AcDbSymbolTableRecord
100
AcDbLayerTableRecord
  2
PSPTBK
 70
     0
 62
     7
  6
CONTINUOUS
370
    -3
390
F
  0
LAYER
  5
20E
330
2
100
AcDbSymbolTableRecord
100
AcDbLayerTableRecord
  2
PSPTXT
 70
     0
 62
     7
  6
CONTINUOUS
370
    -3
390
F
  0
LAYER
  5
20F
330
2
100
AcDbSymbolTableRecord
100
AcDbLayerTableRecord
  2
PSPWIN
 70
     0
 62
     7
  6
CONTINUOUS
370
    -3
390
F
  0
LAYER
  5
210
330
2
100
AcDbSymbolTableRecord
100
AcDbLayerTableRecord
  2
RSD
 70
     0
 62
     7
  6
CONTINUOUS
370
    -3
390
F
  0
LAYER
  5
211
330
2
100
AcDbSymbolTableRecord
100
AcDbLayerTableRecord
  2
RSDDIM
 70
     0
 62
     7
  6
CONTINUOUS
370
    -3
390
F
  0
LAYER
  5
212
330
2
100
AcDbSymbolTableRecord
100
AcDbLayerTableRecord
  2
SA
 70
     0
 62
     7
  6
CONTINUOUS
370
    -3
390
F
  0
LAYER
  5
213
330
2
100
AcDbSymbolTableRecord
100
AcDbLayerTableRecord
  2
SACEN
 70
     0
 62
     7
  6
CONTINUOUS
370
    -3
390
F
  0
LAYER
  5
214
330
2
100
AcDbSymbolTableRecord
100
AcDbLayerTableRecord
  2
SADIM
 70
     0
 62
     7
  6
CONTINUOUS
370
    -3
390
F
  0
LAYER
  5
215
330
2
100
AcDbSymbolTableRecord
100
AcDbLayerTableRecord
  2
SAXHT
 70
     0
 62
     7
  6
CONTINUOUS
370
    -3
390
F
  0
LAYER
  5
216
330
2
100
AcDbSymbolTableRecord
100
AcDbLayerTableRecord
  2
SB
 70
     0
 62
     7
  6
CONTINUOUS
370
    -3
390
F
  0
LAYER
  5
217
330
2
100
AcDbSymbolTableRecord
100
AcDbLayerTableRecord
  2
SBCEN
 70
     0
 62
     7
  6
CONTINUOUS
370
    -3
390
F
  0
LAYER
  5
218
330
2
100
AcDbSymbolTableRecord
100
AcDbLayerTableRecord
  2
SBDIM
 70
     0
 62
     7
  6
CONTINUOUS
370
    -3
390
F
  0
LAYER
  5
219
330
2
100
AcDbSymbolTableRecord
100
AcDbLayerTableRecord
  2
SBXHT
 70
     0
 62
     7
  6
CONTINUOUS
370
    -3
390
F
  0
LAYER
  5
21A
330
2
100
AcDbSymbolTableRecord
100
AcDbLayerTableRecord
  2
SEC
 70
     0
 62
     7
  6
CONTINUOUS
370
    -3
390
F
  0
LAYER
  5
21B
330
2
100
AcDbSymbolTableRecord
100
AcDbLayerTableRecord
  2
SECHID
 70
     0
 62
     7
  6
CONTINUOUS
370
    -3
390
F
  0
LAYER
  5
21C
330
2
100
AcDbSymbolTableRecord
100
AcDbLayerTableRecord
  2
TOP
 70
     0
 62
     7
  6
CONTINUOUS
370
    -3
390
F
  0
LAYER
  5
21D
330
2
100
AcDbSymbolTableRecord
100
AcDbLayerTableRecord
  2
TOPCEN
 70
     0
 62
     7
  6
CONTINUOUS
370
    -3
390
F
  0
LAYER
  5
21E
330
2
100
AcDbSymbolTableRecord
100
AcDbLayerTableRecord
  2
TOPDIM
 70
     0
 62
     7
  6
CONTINUOUS
370
    -3
390
F
  0
LAYER
  5
21F
330
2
100
AcDbSymbolTableRecord
100
AcDbLayerTableRecord
  2
TOPSEC
 70
     0
 62
     7
  6
CONTINUOUS
370
    -3
390
F
  0
LAYER
  5
220
330
2
100
AcDbSymbolTableRecord
100
AcDbLayerTableRecord
  2
VEW
 70
     0
 62
     7
  6
CONTINUOUS
370
    -3
390
F
  0
LAYER
  5
221
330
2
100
AcDbSymbolTableRecord
100
AcDbLayerTableRecord
  2
___NOTE
 70
     0
 62
     7
  6
CONTINUOUS
370
    -3
390
F
  0
LAYER
  5
222
330
2
100
AcDbSymbolTableRecord
100
AcDbLayerTableRecord
  2
___SYMBOL
 70
     0
 62
     7
  6
CONTINUOUS
370
    -3
390
F
  0
LAYER
  5
B54
330
2
100
AcDbSymbolTableRecord
100
AcDbLayerTableRecord
  2
Defpoints
 70
     0
 62
     7
  6
CONTINUOUS
290
     0
370
    -3
390
F
  0
LAYER
  5
14BA
330
2
100
AcDbSymbolTableRecord
100
AcDbLayerTableRecord
  2
DATUM_AXIS
 70
     0
 62
     7
  6
CONTINUOUS
370
    -3
390
F
  0
ENDTAB
  0
TABLE
  2
STYLE
  5
3
330
0
100
AcDbSymbolTable
 70
     7
  0
STYLE
  5
11
330
3
100
AcDbSymbolTableRecord
100
AcDbTextStyleTableRecord
  2
STANDARD
 70
     0
 40
0.0
 41
0.8
 50
0.0
 71
     0
 42
0.2
  3
txt
  4

  0
STYLE
  5
223
330
3
100
AcDbSymbolTableRecord
100
AcDbTextStyleTableRecord
  2
TEXTSTYLE_1
 70
     0
 40
0.0
 41
1.0299999783
 50
0.0
 71
     0
 42
0.2
  3
txt
  4

  0
STYLE
  5
224
330
3
100
AcDbSymbolTableRecord
100
AcDbTextStyleTableRecord
  2
TEXTSTYLE_2
 70
     0
 40
0.0
 41
0.8
 50
0.0
 71
     0
 42
0.2
  3
txt
  4

  0
STYLE
  5
5B9
330
3
100
AcDbSymbolTableRecord
100
AcDbTextStyleTableRecord
  2

 70
     1
 40
0.0
 41
1.0
 50
0.0
 71
     0
 42
0.2
  3
genltshp.shx
  4

  0
STYLE
  5
5BE
330
3
100
AcDbSymbolTableRecord
100
AcDbTextStyleTableRecord
  2
ACANSTS
 70
     0
 40
1.0
 41
1.0
 50
0.0
 71
     0
 42
0.2
  3
romans.shx
  4

  0
STYLE
  5
5CA
330
3
100
AcDbSymbolTableRecord
100
AcDbTextStyleTableRecord
  2
ACANSGDT
 70
     0
 40
0.0
 41
1.0
 50
0.0
 71
     0
 42
0.2
  3
AMGDT
  4

  0
ENDTAB
  0
TABLE
  2
VIEW
  5
6
330
0
100
AcDbSymbolTable
 70
     0
  0
ENDTAB
  0
TABLE
  2
UCS
  5
7
330
0
100
AcDbSymbolTable
 70
     0
  0
ENDTAB
  0
TABLE
  2
APPID
  5
9
330
0
100
AcDbSymbolTable
 70
    13
  0
APPID
  5
225
330
9
100
AcDbSymbolTableRecord
100
AcDbRegAppTableRecord
  2
ACAD
 70
     0
  0
APPID
  5
54F
330
9
100
AcDbSymbolTableRecord
100
AcDbRegAppTableRecord
  2
MCAD_NO_VIS
 70
     0
  0
APPID
  5
550
330
9
100
AcDbSymbolTableRecord
100
AcDbRegAppTableRecord
  2
ACAD_TEMP_GRAPHIC
 70
     0
  0
APPID
  5
580
330
9
100
AcDbSymbolTableRecord
100
AcDbRegAppTableRecord
  2
AD_DRAW
 70
     0
  0
APPID
  5
583
330
9
100
AcDbSymbolTableRecord
100
AcDbRegAppTableRecord
  2
ACATTRIBSERVICES
 70
     0
  0
APPID
  5
5A3
330
9
100
AcDbSymbolTableRecord
100
AcDbRegAppTableRecord
  2
DESIGNERASSEMBLIES
 70
     0
  0
APPID
  5
5A9
330
9
100
AcDbSymbolTableRecord
100
AcDbRegAppTableRecord
  2
ACADM_DIM_EDIT
 70
     0
  0
APPID
  5
5AA
330
9
100
AcDbSymbolTableRecord
100
AcDbRegAppTableRecord
  2
AMDT_DM_ADJ
 70
     0
  0
APPID
  5
5D8
330
9
100
AcDbSymbolTableRecord
100
AcDbRegAppTableRecord
  2
ACAD_DSTYLE_DIMARC_LENGTH_SYMBOL
 70
     0
  0
APPID
  5
5D9
330
9
100
AcDbSymbolTableRecord
100
AcDbRegAppTableRecord
  2
ACAD_DSTYLE_DIMJOGGED_JOGANGLE_SYMBOL
 70
     0
  0
APPID
  5
77A
330
9
100
AcDbSymbolTableRecord
100
AcDbRegAppTableRecord
  2
DCO15
 70
     0
  0
APPID
  5
16E3
330
9
100
AcDbSymbolTableRecord
100
AcDbRegAppTableRecord
  2
ACAD_EXEMPT_FROM_CAD_STANDARDS
 70
     0
  0
APPID
  5
17B1
330
9
100
AcDbSymbolTableRecord
100
AcDbRegAppTableRecord
  2
ACAD_PSEXT
 70
     0
  0
ENDTAB
  0
TABLE
  2
DIMSTYLE
  5
A
330
0
100
AcDbSymbolTable
 70
    13
100
AcDbDimStyleTable
 71
     1
340
24C
  0
DIMSTYLE
105
24C
330
A
100
AcDbSymbolTableRecord
100
AcDbDimStyleTableRecord
  2
STANDARD
 70
     0
 41
0.1875
 47
0.01
 48
0.01
 71
     1
 78
     4
140
0.15625
271
     3
272
     3
284
     4
340
11
341
226
342
226
343
226
344
226
  0
DIMSTYLE
105
24D
330
A
100
AcDbSymbolTableRecord
100
AcDbDimStyleTableRecord
  2
DIMSTYLE_1
 70
     0
 41
0.1875
 47
0.02
 48
0.02
 78
     4
140
0.15625
271
     2
272
     2
284
     4
340
11
341
226
342
226
343
226
344
226
  0
DIMSTYLE
105
24E
330
A
100
AcDbSymbolTableRecord
100
AcDbDimStyleTableRecord
  2
DIMSTYLE_2
 70
     0
 41
0.1875
 47
0.02
 48
0.02
 78
     4
140
0.15625
271
     2
272
     2
284
     4
340
11
341
226
342
226
343
226
344
226
  0
DIMSTYLE
105
24F
330
A
100
AcDbSymbolTableRecord
100
AcDbDimStyleTableRecord
  2
DIMSTYLE_3
 70
     0
 41
0.1875
 78
     4
140
0.15625
271
     0
272
     0
284
     4
340
11
341
226
342
226
343
226
344
226
  0
DIMSTYLE
105
5D7
330
A
100
AcDbSymbolTableRecord
100
AcDbDimStyleTableRecord
  2
AM_ANSI
 70
     0
  4
mm
 41
0.1
 42
0.05
 43
0.5
 44
0.1
 47
0.1
 48
0.1
 78
     7
 79
     2
140
0.12
141
0.0
146
0.71
147
0.06
176
   256
177
   256
178
     2
274
     4
284
     7
340
11
371
    -1
372
    -1
1001
ACAD_DSTYLE_DIMARC_LENGTH_SYMBOL
1070
   379
1070
     1
1001
ACAD_DSTYLE_DIMJOGGED_JOGANGLE_SYMBOL
1070
   384
1040
0.7853981633974483
  0
DIMSTYLE
105
5E0
330
A
100
AcDbSymbolTableRecord
100
AcDbDimStyleTableRecord
  2
AM_ANSI$3
 70
     0
  4
mm
 41
0.1
 42
0.05
 43
0.5
 44
0.1
 47
0.1
 48
0.1
 78
     7
 79
     2
140
0.12
141
0.0
146
0.71
147
0.06
176
   256
177
   256
178
     2
274
     4
284
     7
288
     1
289
     0
340
11
371
    -1
372
    -1
1001
ACAD_DSTYLE_DIMARC_LENGTH_SYMBOL
1070
   379
1070
     1
1001
ACAD_DSTYLE_DIMJOGGED_JOGANGLE_SYMBOL
1070
   384
1040
0.7853981633974483
  0
DIMSTYLE
105
5E3
330
A
100
AcDbSymbolTableRecord
100
AcDbDimStyleTableRecord
  2
AM_ANSI$4
 70
     0
  4
mm
 41
0.1
 42
0.05
 43
0.5
 44
0.1
 47
0.1
 48
0.1
 78
     7
 79
     2
140
0.12
141
0.0
146
0.71
147
0.06
176
   256
177
   256
178
     2
274
     4
284
     7
288
     1
289
     0
340
11
371
    -1
372
    -1
1001
ACAD_DSTYLE_DIMARC_LENGTH_SYMBOL
1070
   379
1070
     1
1001
ACAD_DSTYLE_DIMJOGGED_JOGANGLE_SYMBOL
1070
   384
1040
0.7853981633974483
  0
DIMSTYLE
105
5E8
330
A
100
AcDbSymbolTableRecord
100
AcDbDimStyleTableRecord
  2
AM_ANSI$7
 70
     0
  4
mm
 41
0.1
 42
0.05
 43
0.5
 44
0.1
 47
0.1
 48
0.1
 78
     7
 79
     2
140
0.24
141
0.0
146
0.71
147
0.06
176
   256
177
   256
178
     2
274
     4
284
     7
340
11
371
    -1
372
    -1
1001
ACAD_DSTYLE_DIMARC_LENGTH_SYMBOL
1070
   379
1070
     1
1001
ACAD_DSTYLE_DIMJOGGED_JOGANGLE_SYMBOL
1070
   384
1040
0.7853981633974483
  0
DIMSTYLE
105
5EB
330
A
100
AcDbSymbolTableRecord
100
AcDbDimStyleTableRecord
  2
AM_ANSI$SF
 70
     0
  4
mm
 41
0.1
 42
0.05
 43
0.5
 44
0.1
 47
0.1
 48
0.1
 75
     1
 76
     1
 78
     7
 79
     2
140
0.12
141
0.0
146
0.71
147
0.06
176
   256
177
   256
178
     2
274
     4
284
     7
340
11
371
    -1
372
    -1
1001
ACAD_DSTYLE_DIMARC_LENGTH_SYMBOL
1070
   379
1070
     1
1001
ACAD_DSTYLE_DIMJOGGED_JOGANGLE_SYMBOL
1070
   384
1040
0.7853981633974483
  0
DIMSTYLE
105
5F2
330
A
100
AcDbSymbolTableRecord
100
AcDbDimStyleTableRecord
  2
AM_ANSI$SH
 70
     0
  4
mm
 41
0.1
 42
0.05
 43
0.5
 44
0.1
 47
0.1
 48
0.1
 75
     1
 76
     1
 78
     7
 79
     2
140
0.12
141
0.0
146
0.71
147
0.06
173
     1
176
   256
177
   256
178
     2
274
     4
284
     7
340
11
343
5EC
371
    -1
372
    -1
1001
ACAD_DSTYLE_DIMARC_LENGTH_SYMBOL
1070
   379
1070
     1
1001
ACAD_DSTYLE_DIMJOGGED_JOGANGLE_SYMBOL
1070
   384
1040
0.7853981633974483
  0
DIMSTYLE
105
778
330
A
100
AcDbSymbolTableRecord
100
AcDbDimStyleTableRecord
  2
DIMSTYLE_4
 70
     0
 41
0.1875
 47
0.019997
 48
0.090003
 72
     1
 78
     4
140
0.15625
271
     2
272
     2
284
     4
340
11
341
226
342
226
343
226
344
226
  0
DIMSTYLE
105
779
330
A
100
AcDbSymbolTableRecord
100
AcDbDimStyleTableRecord
  2
DIMSTYLE_5
 70
     0
 41
0.1875
 47
0.12
 48
0.25
 71
     1
 78
     4
140
0.15625
271
     2
272
     2
284
     4
340
11
341
226
342
226
343
226
344
226
  0
ENDTAB
  0
TABLE
  2
BLOCK_RECORD
  5
1
330
0
100
AcDbSymbolTable
 70
   184
  0
BLOCK_RECORD
  5
1F
102
{ACAD_XDICTIONARY
360
16E0
102
}
330
1
100
AcDbSymbolTableRecord
100
AcDbBlockTableRecord
  2
*MODEL_SPACE
340
22
  0
BLOCK_RECORD
  5
1B
330
1
100
AcDbSymbolTableRecord
100
AcDbBlockTableRecord
  2
*PAPER_SPACE
340
1E
  0
BLOCK_RECORD
  5
227
330
1
100
AcDbSymbolTableRecord
100
AcDbBlockTableRecord
  2
KOHLER_BL0
340
0
  0
BLOCK_RECORD
  5
228
330
1
100
AcDbSymbolTableRecord
100
AcDbBlockTableRecord
  2
C_ARROW_BL1
340
0
  0
BLOCK_RECORD
  5
229
330
1
100
AcDbSymbolTableRecord
100
AcDbBlockTableRecord
  2
C_ARROW_BL2
340
0
  0
BLOCK_RECORD
  5
22A
330
1
100
AcDbSymbolTableRecord
100
AcDbBlockTableRecord
  2
C_ARROW_BL3
340
0
  0
BLOCK_RECORD
  5
22B
330
1
100
AcDbSymbolTableRecord
100
AcDbBlockTableRecord
  2
C_ARROW_BL4
340
0
  0
BLOCK_RECORD
  5
240
330
1
100
AcDbSymbolTableRecord
100
AcDbBlockTableRecord
  2
GENERIC_STANDARD_BL5
340
0
  0
BLOCK_RECORD
  5
241
330
1
100
AcDbSymbolTableRecord
100
AcDbBlockTableRecord
  2
CHARACTERISTIC_BL6
340
0
  0
BLOCK_RECORD
  5
242
330
1
100
AcDbSymbolTableRecord
100
AcDbBlockTableRecord
  2
CHARACTERISTIC_BL7
340
0
  0
BLOCK_RECORD
  5
243
330
1
100
AcDbSymbolTableRecord
100
AcDbBlockTableRecord
  2
CENTER_BL8
340
0
  0
BLOCK_RECORD
  5
244
330
1
100
AcDbSymbolTableRecord
100
AcDbBlockTableRecord
  2
CENTER_BL9
340
0
  0
BLOCK_RECORD
  5
245
330
1
100
AcDbSymbolTableRecord
100
AcDbBlockTableRecord
  2
CENTER_BL10
340
0
  0
BLOCK_RECORD
  5
246
330
1
100
AcDbSymbolTableRecord
100
AcDbBlockTableRecord
  2
CENTER_BL11
340
0
  0
BLOCK_RECORD
  5
247
330
1
100
AcDbSymbolTableRecord
100
AcDbBlockTableRecord
  2
CENTER_BL12
340
0
  0
BLOCK_RECORD
  5
248
330
1
100
AcDbSymbolTableRecord
100
AcDbBlockTableRecord
  2
DELTA_BL13
340
0
  0
BLOCK_RECORD
  5
249
330
1
100
AcDbSymbolTableRecord
100
AcDbBlockTableRecord
  2
CHARACTERISTIC_BL14
340
0
  0
BLOCK_RECORD
  5
24A
330
1
100
AcDbSymbolTableRecord
100
AcDbBlockTableRecord
  2
CHARACTERISTIC_BL15
340
0
  0
BLOCK_RECORD
  5
24B
330
1
100
AcDbSymbolTableRecord
100
AcDbBlockTableRecord
  2
CHARACTERISTIC_BL16
340
0
  0
BLOCK_RECORD
  5
226
330
1
100
AcDbSymbolTableRecord
100
AcDbBlockTableRecord
  2
_FILLED
340
0
102
{BLKREFS
331
2CC
331
2CD
331
2D5
331
2DD
331
2DE
331
2E8
331
2E9
331
2F1
331
2F2
331
2F9
331
300
331
307
331
30E
331
316
331
317
331
31F
331
326
331
32E
331
32F
331
339
331
33A
331
342
331
343
331
34B
331
34C
331
354
331
355
331
35F
331
360
331
368
331
369
331
373
331
374
331
5FF
331
600
331
608
331
61B
331
61C
331
625
331
626
331
62E
331
637
331
638
331
641
331
642
331
64A
331
652
331
65D
331
65E
331
667
331
668
331
672
331
673
331
681
331
682
331
694
331
6A3
331
6A4
331
6AE
331
6AF
331
6B8
331
6B9
331
6C1
331
6CA
331
6D3
331
6DC
331
6E4
331
6ED
331
6EE
331
6F7
331
6F8
331
701
331
702
331
716
331
717
331
720
331
721
331
729
331
732
331
733
331
73B
331
CA6
331
CA7
331
CAF
331
CB6
331
CB7
331
CCD
331
CCE
331
CD6
331
CDF
331
CE0
331
CE9
331
CEA
331
CF2
331
CFA
331
D03
331
D04
331
D0D
331
D0E
331
D17
331
D18
331
D21
331
D22
331
D29
331
D2A
331
D34
331
D3D
331
D3E
331
D47
331
D48
331
D51
331
D52
331
D5A
331
D60
331
D66
331
D6E
331
D76
331
D7F
331
D80
331
D89
331
D8A
331
D93
331
D94
331
D9B
331
D9C
331
DA8
331
DA9
331
DB2
331
DB3
331
DBB
331
DC2
331
DC3
331
DCB
331
E59
331
E62
331
E63
331
E6C
331
E6D
331
E76
331
E77
331
E80
331
E81
331
E8A
331
E8B
331
E94
331
E95
331
E9D
331
EA6
331
EAE
331
EB7
331
EBF
331
EC8
331
EC9
331
ED1
331
ED9
331
EE2
331
EE3
331
EEC
331
EED
331
E18
331
E19
331
E24
331
E25
331
E2D
331
E36
331
E3E
331
E47
331
E50
331
137F
331
1380
331
1389
331
138A
331
1392
331
139A
331
13A2
331
13AA
331
13B2
331
13B8
331
13C1
331
13C2
331
13CB
331
13CC
331
13D5
331
13D6
331
13DF
331
13E0
331
13E9
331
13EA
331
13F3
331
13F4
331
13FC
331
1402
331
1408
331
140E
331
1414
331
141B
331
141C
331
1424
331
142C
331
1435
331
1436
331
143F
331
1440
331
147D
331
147E
331
1487
331
1488
331
1491
331
1492
331
149A
331
14A3
331
14A4
331
14AD
331
14AE
331
14B7
331
14B8
331
16A1
331
16A2
331
16AB
331
16AC
331
16B5
331
16B6
331
16BE
331
16C5
331
16C6
331
16CF
331
16D0
331
16D9
331
16DA
331
1706
331
1707
331
1714
331
1715
331
1730
331
1731
331
1777
331
1778
331
1781
331
1782
331
178B
331
178C
102
}
  0
BLOCK_RECORD
  5
5EC
330
1
100
AcDbSymbolTableRecord
100
AcDbBlockTableRecord
  2
GENAXEH
340
0
  0
BLOCK_RECORD
  5
73D
330
1
100
AcDbSymbolTableRecord
100
AcDbBlockTableRecord
  2
CENTER_BL7
340
0
  0
BLOCK_RECORD
  5
742
330
1
100
AcDbSymbolTableRecord
100
AcDbBlockTableRecord
  2
CHARACTERISTIC_BL10
340
0
  0
BLOCK_RECORD
  5
74B
330
1
100
AcDbSymbolTableRecord
100
AcDbBlockTableRecord
  2
CHARACTERISTIC_BL11
340
0
  0
BLOCK_RECORD
  5
754
330
1
100
AcDbSymbolTableRecord
100
AcDbBlockTableRecord
  2
CHARACTERISTIC_BL12
340
0
  0
BLOCK_RECORD
  5
75D
330
1
100
AcDbSymbolTableRecord
100
AcDbBlockTableRecord
  2
CHARACTERISTIC_BL13
340
0
  0
BLOCK_RECORD
  5
766
330
1
100
AcDbSymbolTableRecord
100
AcDbBlockTableRecord
  2
CHARACTERISTIC_BL17
340
0
  0
BLOCK_RECORD
  5
76F
330
1
100
AcDbSymbolTableRecord
100
AcDbBlockTableRecord
  2
CHARACTERISTIC_BL18
340
0
  0
BLOCK_RECORD
  5
EEF
330
1
100
AcDbSymbolTableRecord
100
AcDbBlockTableRecord
  2
CHARACTERISTIC_BL8
340
0
  0
BLOCK_RECORD
  5
EF8
330
1
100
AcDbSymbolTableRecord
100
AcDbBlockTableRecord
  2
CENTER_BL13
340
0
  0
BLOCK_RECORD
  5
EFD
330
1
100
AcDbSymbolTableRecord
100
AcDbBlockTableRecord
  2
DELTA_BL14
340
0
  0
BLOCK_RECORD
  5
15C2
330
1
100
AcDbSymbolTableRecord
100
AcDbBlockTableRecord
  2
*D171
340
0
  0
BLOCK_RECORD
  5
15CD
330
1
100
AcDbSymbolTableRecord
100
AcDbBlockTableRecord
  2
*D172
340
0
  0
BLOCK_RECORD
  5
15D8
330
1
100
AcDbSymbolTableRecord
100
AcDbBlockTableRecord
  2
*D173
340
0
  0
BLOCK_RECORD
  5
15E3
330
1
100
AcDbSymbolTableRecord
100
AcDbBlockTableRecord
  2
*D174
340
0
  0
BLOCK_RECORD
  5
15EA
330
1
100
AcDbSymbolTableRecord
100
AcDbBlockTableRecord
  2
*D175
340
0
  0
BLOCK_RECORD
  5
15F5
330
1
100
AcDbSymbolTableRecord
100
AcDbBlockTableRecord
  2
*D176
340
0
  0
BLOCK_RECORD
  5
1600
330
1
100
AcDbSymbolTableRecord
100
AcDbBlockTableRecord
  2
*D177
340
0
  0
ENDTAB
  0
ENDSEC
  0
SECTION
  2
BLOCKS
  0
BLOCK
  5
20
330
1F
100
AcDbEntity
  8
0
100
AcDbBlockBegin
  2
*MODEL_SPACE
 70
     0
 10
0.0
 20
0.0
 30
0.0
  3
*MODEL_SPACE
  1

  0
ENDBLK
  5
21
330
1F
100
AcDbEntity
  8
0
100
AcDbBlockEnd
  0
BLOCK
  5
1C
330
1B
100
AcDbEntity
 67
     1
  8
0
100
AcDbBlockBegin
  2
*PAPER_SPACE
 70
     0
 10
0.0
 20
0.0
 30
0.0
  3
*PAPER_SPACE
  1

  0
ENDBLK
  5
1D
330
1B
100
AcDbEntity
 67
     1
  8
0
100
AcDbBlockEnd
  0
BLOCK
  5
250
330
227
100
AcDbEntity
  8
0
  6
Continuous
 62
     2
100
AcDbBlockBegin
  2
KOHLER_BL0
 70
     0
 10
30.2123715
 20
2.261645999999999
 30
0.0
  3
KOHLER_BL0
  1

  0
ARC
  5
251
330
227
100
AcDbEntity
  8
0
  6
Continuous
 62
     2
100
AcDbCircle
 10
30.778184
 20
2.31711475
 30
0.0
 40
0.03065625
100
AcDbArc
 50
270.0
 51
90.0
  0
LINE
  5
252
330
227
100
AcDbEntity
  8
0
  6
Continuous
 62
     2
100
AcDbLine
 10
29.528184
 20
2.121020999999999
 30
0.0
 11
29.528184
 21
2.402270999999999
 31
0.0
  0
LINE
  5
253
330
227
100
AcDbEntity
  8
0
  6
Continuous
 62
     2
100
AcDbLine
 10
29.528184
 20
2.402270999999999
 30
0.0
 11
29.595184
 21
2.402270999999999
 31
0.0
  0
LINE
  5
254
330
227
100
AcDbEntity
  8
0
  6
Continuous
 62
     2
100
AcDbLine
 10
29.528184
 20
2.121020999999999
 30
0.0
 11
29.595184
 21
2.121020999999999
 31
0.0
  0
LINE
  5
255
330
227
100
AcDbEntity
  8
0
  6
Continuous
 62
     2
100
AcDbLine
 10
29.778184
 20
2.402270999999999
 30
0.0
 11
29.653184
 21
2.277270999999999
 31
0.0
  0
LINE
  5
256
330
227
100
AcDbEntity
  8
0
  6
Continuous
 62
     2
100
AcDbLine
 10
29.653184
 20
2.277270999999999
 30
0.0
 11
29.778184
 21
2.121020999999999
 31
0.0
  0
CIRCLE
  5
257
330
227
100
AcDbEntity
  8
0
  6
Continuous
 62
     2
100
AcDbCircle
 10
29.887559
 20
2.261645999999999
 30
0.0
 40
0.073625
  0
LINE
  5
258
330
227
100
AcDbEntity
  8
0
  6
Continuous
 62
     2
100
AcDbLine
 10
29.6923821352
 20
2.121020999999999
 30
0.0
 11
29.778184
 21
2.121020999999999
 31
0.0
  0
CIRCLE
  5
259
330
227
100
AcDbEntity
  8
0
  6
Continuous
 62
     2
100
AcDbCircle
 10
29.887559
 20
2.261645999999999
 30
0.0
 40
0.140625
  0
LINE
  5
25A
330
227
100
AcDbEntity
  8
0
  6
Continuous
 62
     2
100
AcDbLine
 10
29.595184
 20
2.121020999999999
 30
0.0
 11
29.595184
 21
2.242518668999999
 31
0.0
  0
LINE
  5
25B
330
227
100
AcDbEntity
  8
0
  6
Continuous
 62
     2
100
AcDbLine
 10
29.6834316913
 20
2.402270999999999
 30
0.0
 11
29.595184
 21
2.314023308699999
 31
0.0
  0
LINE
  5
25C
330
227
100
AcDbEntity
  8
0
  6
Continuous
 62
     2
100
AcDbLine
 10
29.595184
 20
2.242518668999999
 30
0.0
 11
29.6923821352
 21
2.121020999999999
 31
0.0
  0
LINE
  5
25D
330
227
100
AcDbEntity
  8
0
  6
Continuous
 62
     2
100
AcDbLine
 10
29.6834316913
 20
2.402270999999999
 30
0.0
 11
29.778184
 21
2.402270999999999
 31
0.0
  0
LINE
  5
25E
330
227
100
AcDbEntity
  8
0
  6
Continuous
 62
     2
100
AcDbLine
 10
29.595184
 20
2.402270999999999
 30
0.0
 11
29.595184
 21
2.314023308699999
 31
0.0
  0
LINE
  5
25F
330
227
100
AcDbEntity
  8
0
  6
Continuous
 62
     2
100
AcDbLine
 10
30.059434
 20
2.402270999999999
 30
0.0
 11
30.059434
 21
2.121020999999999
 31
0.0
  0
LINE
  5
260
330
227
100
AcDbEntity
  8
0
  6
Continuous
 62
     2
100
AcDbLine
 10
30.126434
 20
2.121020999999999
 30
0.0
 11
30.126434
 21
2.243771
 31
0.0
  0
LINE
  5
261
330
227
100
AcDbEntity
  8
0
  6
Continuous
 62
     2
100
AcDbLine
 10
30.126434
 20
2.310770999999999
 30
0.0
 11
30.126434
 21
2.402270999999999
 31
0.0
  0
LINE
  5
262
330
227
100
AcDbEntity
  8
0
  6
Continuous
 62
     2
100
AcDbLine
 10
30.204559
 20
2.121020999999999
 30
0.0
 11
30.204559
 21
2.243771
 31
0.0
  0
LINE
  5
263
330
227
100
AcDbEntity
  8
0
  6
Continuous
 62
     2
100
AcDbLine
 10
30.204559
 20
2.310770999999999
 30
0.0
 11
30.204559
 21
2.402270999999999
 31
0.0
  0
LINE
  5
264
330
227
100
AcDbEntity
  8
0
  6
Continuous
 62
     2
100
AcDbLine
 10
30.271559
 20
2.402270999999999
 30
0.0
 11
30.271559
 21
2.121020999999999
 31
0.0
  0
LINE
  5
265
330
227
100
AcDbEntity
  8
0
  6
Continuous
 62
     2
100
AcDbLine
 10
30.126434
 20
2.310770999999999
 30
0.0
 11
30.204559
 21
2.310770999999999
 31
0.0
  0
LINE
  5
266
330
227
100
AcDbEntity
  8
0
  6
Continuous
 62
     2
100
AcDbLine
 10
30.126434
 20
2.243771
 30
0.0
 11
30.204559
 21
2.243771
 31
0.0
  0
LINE
  5
267
330
227
100
AcDbEntity
  8
0
  6
Continuous
 62
     2
100
AcDbLine
 10
30.204559
 20
2.121020999999999
 30
0.0
 11
30.271559
 21
2.121020999999999
 31
0.0
  0
LINE
  5
268
330
227
100
AcDbEntity
  8
0
  6
Continuous
 62
     2
100
AcDbLine
 10
30.059434
 20
2.121020999999999
 30
0.0
 11
30.126434
 21
2.121020999999999
 31
0.0
  0
LINE
  5
269
330
227
100
AcDbEntity
  8
0
  6
Continuous
 62
     2
100
AcDbLine
 10
30.204559
 20
2.402270999999999
 30
0.0
 11
30.271559
 21
2.402270999999999
 31
0.0
  0
LINE
  5
26A
330
227
100
AcDbEntity
  8
0
  6
Continuous
 62
     2
100
AcDbLine
 10
30.059434
 20
2.402270999999999
 30
0.0
 11
30.126434
 21
2.402270999999999
 31
0.0
  0
LINE
  5
26B
330
227
100
AcDbEntity
  8
0
  6
Continuous
 62
     2
100
AcDbLine
 10
30.302809
 20
2.402270999999999
 30
0.0
 11
30.302809
 21
2.121020999999999
 31
0.0
  0
LINE
  5
26C
330
227
100
AcDbEntity
  8
0
  6
Continuous
 62
     2
100
AcDbLine
 10
30.459059
 20
2.188020999999999
 30
0.0
 11
30.459059
 21
2.121020999999999
 31
0.0
  0
LINE
  5
26D
330
227
100
AcDbEntity
  8
0
  6
Continuous
 62
     2
100
AcDbLine
 10
30.302809
 20
2.121020999999999
 30
0.0
 11
30.459059
 21
2.121020999999999
 31
0.0
  0
LINE
  5
26E
330
227
100
AcDbEntity
  8
0
  6
Continuous
 62
     2
100
AcDbLine
 10
30.369809
 20
2.188020999999999
 30
0.0
 11
30.369809
 21
2.402270999999999
 31
0.0
  0
LINE
  5
26F
330
227
100
AcDbEntity
  8
0
  6
Continuous
 62
     2
100
AcDbLine
 10
30.369809
 20
2.188020999999999
 30
0.0
 11
30.459059
 21
2.188020999999999
 31
0.0
  0
LINE
  5
270
330
227
100
AcDbEntity
  8
0
  6
Continuous
 62
     2
100
AcDbLine
 10
30.302809
 20
2.402270999999999
 30
0.0
 11
30.369809
 21
2.402270999999999
 31
0.0
  0
LINE
  5
271
330
227
100
AcDbEntity
  8
0
  6
Continuous
 62
     2
100
AcDbLine
 10
30.490309
 20
2.121020999999999
 30
0.0
 11
30.646559
 21
2.121020999999999
 31
0.0
  0
LINE
  5
272
330
227
100
AcDbEntity
  8
0
  6
Continuous
 62
     2
100
AcDbLine
 10
30.646559
 20
2.188020999999999
 30
0.0
 11
30.646559
 21
2.121020999999999
 31
0.0
  0
LINE
  5
273
330
227
100
AcDbEntity
  8
0
  6
Continuous
 62
     2
100
AcDbLine
 10
30.557309
 20
2.188020999999999
 30
0.0
 11
30.646559
 21
2.188020999999999
 31
0.0
  0
LINE
  5
274
330
227
100
AcDbEntity
  8
0
  6
Continuous
 62
     2
100
AcDbLine
 10
30.557309
 20
2.2359585
 30
0.0
 11
30.557309
 21
2.188020999999999
 31
0.0
  0
LINE
  5
275
330
227
100
AcDbEntity
  8
0
  6
Continuous
 62
     2
100
AcDbLine
 10
30.557309
 20
2.335271
 30
0.0
 11
30.646559
 21
2.335271
 31
0.0
  0
LINE
  5
276
330
227
100
AcDbEntity
  8
0
  6
Continuous
 62
     2
100
AcDbLine
 10
30.490309
 20
2.402270999999999
 30
0.0
 11
30.490309
 21
2.121020999999999
 31
0.0
  0
LINE
  5
277
330
227
100
AcDbEntity
  8
0
  6
Continuous
 62
     2
100
AcDbLine
 10
30.646559
 20
2.335271
 30
0.0
 11
30.646559
 21
2.402270999999999
 31
0.0
  0
LINE
  5
278
330
227
100
AcDbEntity
  8
0
  6
Continuous
 62
     2
100
AcDbLine
 10
30.490309
 20
2.402270999999999
 30
0.0
 11
30.646559
 21
2.402270999999999
 31
0.0
  0
LINE
  5
279
330
227
100
AcDbEntity
  8
0
  6
Continuous
 62
     2
100
AcDbLine
 10
30.557309
 20
2.287333499999999
 30
0.0
 11
30.646559
 21
2.287333499999999
 31
0.0
  0
LINE
  5
27A
330
227
100
AcDbEntity
  8
0
  6
Continuous
 62
     2
100
AcDbLine
 10
30.646559
 20
2.287333499999999
 30
0.0
 11
30.646559
 21
2.2359585
 31
0.0
  0
LINE
  5
27B
330
227
100
AcDbEntity
  8
0
  6
Continuous
 62
     2
100
AcDbLine
 10
30.557309
 20
2.2359585
 30
0.0
 11
30.646559
 21
2.2359585
 31
0.0
  0
LINE
  5
27C
330
227
100
AcDbEntity
  8
0
  6
Continuous
 62
     2
100
AcDbLine
 10
30.557309
 20
2.287333499999999
 30
0.0
 11
30.557309
 21
2.335271
 31
0.0
  0
LINE
  5
27D
330
227
100
AcDbEntity
  8
0
  6
Continuous
 62
     2
100
AcDbLine
 10
30.677809
 20
2.121020999999999
 30
0.0
 11
30.677809
 21
2.402270999999999
 31
0.0
  0
LINE
  5
27E
330
227
100
AcDbEntity
  8
0
  6
Continuous
 62
     2
100
AcDbLine
 10
30.744809
 20
2.230395999999999
 30
0.0
 11
30.744809
 21
2.121020999999999
 31
0.0
  0
ARC
  5
27F
330
227
100
AcDbEntity
  8
0
  6
Continuous
 62
     2
100
AcDbCircle
 10
30.7793715
 20
2.316333499999999
 30
0.0
 40
0.0859375
100
AcDbArc
 50
304.1679402531
 51
90.0
  0
LINE
  5
280
330
227
100
AcDbEntity
  8
0
  6
Continuous
 62
     2
100
AcDbLine
 10
30.7793715
 20
2.402270999999999
 30
0.0
 11
30.677809
 21
2.402270999999999
 31
0.0
  0
LINE
  5
281
330
227
100
AcDbEntity
  8
0
  6
Continuous
 62
     2
100
AcDbLine
 10
30.778184
 20
2.347770999999999
 30
0.0
 11
30.744809
 21
2.347770999999999
 31
0.0
  0
LINE
  5
282
330
227
100
AcDbEntity
  8
0
  6
Continuous
 62
     2
100
AcDbLine
 10
30.8276357616
 20
2.2452292458
 30
0.0
 11
30.896559
 21
2.121020999999999
 31
0.0
  0
LINE
  5
283
330
227
100
AcDbEntity
  8
0
  6
Continuous
 62
     2
100
AcDbLine
 10
30.8199350526
 20
2.121020999999999
 30
0.0
 11
30.7592427922
 21
2.230395999999999
 31
0.0
  0
LINE
  5
284
330
227
100
AcDbEntity
  8
0
  6
Continuous
 62
     2
100
AcDbLine
 10
30.677809
 20
2.121020999999999
 30
0.0
 11
30.744809
 21
2.121020999999999
 31
0.0
  0
LINE
  5
285
330
227
100
AcDbEntity
  8
0
  6
Continuous
 62
     2
100
AcDbLine
 10
30.8199350526
 20
2.121020999999999
 30
0.0
 11
30.896559
 21
2.121020999999999
 31
0.0
  0
LINE
  5
286
330
227
100
AcDbEntity
  8
0
  6
Continuous
 62
     2
100
AcDbLine
 10
30.778184
 20
2.2864585
 30
0.0
 11
30.744809
 21
2.2864585
 31
0.0
  0
LINE
  5
287
330
227
100
AcDbEntity
  8
0
  6
Continuous
 62
     2
100
AcDbLine
 10
30.744809
 20
2.347770999999999
 30
0.0
 11
30.744809
 21
2.2864585
 31
0.0
  0
LINE
  5
288
330
227
100
AcDbEntity
  8
0
  6
Continuous
 62
     2
100
AcDbLine
 10
30.744809
 20
2.230395999999999
 30
0.0
 11
30.7592427922
 21
2.230395999999999
 31
0.0
  0
LWPOLYLINE
  5
289
330
227
100
AcDbEntity
  8
0
  6
Continuous
 62
     2
100
AcDbPolyline
 90
       14
 70
     0
 43
0.0
 10
30.896559
 20
2.121020999999999
 10
30.8199350526
 20
2.121020999999999
 10
30.7592427922
 20
2.230395999999999
 10
30.744809
 20
2.230395999999999
 10
30.744809
 20
2.121020999999999
 10
30.677809
 20
2.121020999999999
 10
30.677809
 20
2.347770999999999
 10
30.744809
 20
2.347770999999999
 10
30.744809
 20
2.2864585
 10
30.778184
 20
2.2864585
 10
30.858650134
 20
2.2864585
 10
30.8497683179
 20
2.267043116199999
 10
30.8276357616
 20
2.2452292458
 10
30.896559
 20
2.121020999999999
  0
HATCH
  5
28A
330
227
100
AcDbEntity
  8
0
  6
Continuous
 62
     2
100
AcDbHatch
 10
0.0
 20
0.0
 30
0.0
210
0.0
220
0.0
230
1.0
  2
SOLID
 70
     1
 71
     1
 91
        1
 92
        1
 93
       13
 72
     1
 10
30.896559
 20
2.121020999999999
 11
30.8199350526
 21
2.121020999999999
 72
     1
 10
30.8199350526
 20
2.121020999999999
 11
30.7592427922
 21
2.230395999999999
 72
     1
 10
30.7592427922
 20
2.230395999999999
 11
30.744809
 21
2.230395999999999
 72
     1
 10
30.744809
 20
2.230395999999999
 11
30.744809
 21
2.121020999999999
 72
     1
 10
30.744809
 20
2.121020999999999
 11
30.677809
 21
2.121020999999999
 72
     1
 10
30.677809
 20
2.121020999999999
 11
30.677809
 21
2.347770999999999
 72
     1
 10
30.677809
 20
2.347770999999999
 11
30.744809
 21
2.347770999999999
 72
     1
 10
30.744809
 20
2.347770999999999
 11
30.744809
 21
2.2864585
 72
     1
 10
30.744809
 20
2.2864585
 11
30.778184
 21
2.2864585
 72
     1
 10
30.778184
 20
2.2864585
 11
30.858650134
 21
2.2864585
 72
     1
 10
30.858650134
 20
2.2864585
 11
30.8497683179
 21
2.267043116199999
 72
     1
 10
30.8497683179
 20
2.267043116199999
 11
30.8276357616
 21
2.2452292458
 72
     1
 10
30.8276357616
 20
2.2452292458
 11
30.896559
 21
2.121020999999999
 97
        1
330
289
 75
     0
 76
     1
 98
        1
 10
0.0
 20
0.0
450
        0
451
        0
460
0.0
461
0.0
452
        0
462
0.0
453
        0
470

  0
LWPOLYLINE
  5
28B
330
227
100
AcDbEntity
  8
0
  6
Continuous
 62
     2
100
AcDbPolyline
 90
       18
 70
     0
 43
0.0
 10
30.677809
 20
2.347770999999999
 10
30.677809
 20
2.402270999999999
 10
30.7793715
 20
2.402270999999999
 10
30.8099349823
 20
2.396652410999999
 10
30.836501987
 20
2.3805313299
 10
30.8555986155
 20
2.356015747599999
 10
30.8647277946
 20
2.326311319
 10
30.8626957941
 20
2.295302191799999
 10
30.858650134
 20
2.2864585
 10
30.778184
 20
2.2864585
 10
30.793512125
 20
2.290565658699999
 10
30.8047330913
 20
2.301786625
 10
30.80884025
 20
2.31711475
 10
30.8047330913
 20
2.332442874999999
 10
30.793512125
 20
2.3436638413
 10
30.778184
 20
2.347770999999999
 10
30.744809
 20
2.347770999999999
 10
30.677809
 20
2.347770999999999
  0
HATCH
  5
28C
330
227
100
AcDbEntity
  8
0
  6
Continuous
 62
     2
100
AcDbHatch
 10
0.0
 20
0.0
 30
0.0
210
0.0
220
0.0
230
1.0
  2
SOLID
 70
     1
 71
     1
 91
        1
 92
        1
 93
       17
 72
     1
 10
30.677809
 20
2.347770999999999
 11
30.677809
 21
2.402270999999999
 72
     1
 10
30.677809
 20
2.402270999999999
 11
30.7793715
 21
2.402270999999999
 72
     1
 10
30.7793715
 20
2.402270999999999
 11
30.8099349823
 21
2.396652410999999
 72
     1
 10
30.8099349823
 20
2.396652410999999
 11
30.836501987
 21
2.3805313299
 72
     1
 10
30.836501987
 20
2.3805313299
 11
30.8555986155
 21
2.356015747599999
 72
     1
 10
30.8555986155
 20
2.356015747599999
 11
30.8647277946
 21
2.326311319
 72
     1
 10
30.8647277946
 20
2.326311319
 11
30.8626957941
 21
2.295302191799999
 72
     1
 10
30.8626957941
 20
2.295302191799999
 11
30.858650134
 21
2.2864585
 72
     1
 10
30.858650134
 20
2.2864585
 11
30.778184
 21
2.2864585
 72
     1
 10
30.778184
 20
2.2864585
 11
30.793512125
 21
2.290565658699999
 72
     1
 10
30.793512125
 20
2.290565658699999
 11
30.8047330913
 21
2.301786625
 72
     1
 10
30.8047330913
 20
2.301786625
 11
30.80884025
 21
2.31711475
 72
     1
 10
30.80884025
 20
2.31711475
 11
30.8047330913
 21
2.332442874999999
 72
     1
 10
30.8047330913
 20
2.332442874999999
 11
30.793512125
 21
2.3436638413
 72
     1
 10
30.793512125
 20
2.3436638413
 11
30.778184
 21
2.347770999999999
 72
     1
 10
30.778184
 20
2.347770999999999
 11
30.744809
 21
2.347770999999999
 72
     1
 10
30.744809
 20
2.347770999999999
 11
30.677809
 21
2.347770999999999
 97
        1
330
28B
 75
     0
 76
     1
 98
        1
 10
0.0
 20
0.0
450
        0
451
        0
460
0.0
461
0.0
452
        0
462
0.0
453
        0
470

  0
LWPOLYLINE
  5
28D
330
227
100
AcDbEntity
  8
0
  6
Continuous
 62
     2
100
AcDbPolyline
 90
       12
 70
     0
 43
0.0
 10
29.595184
 20
2.121020999999999
 10
29.528184
 20
2.121020999999999
 10
29.528184
 20
2.402270999999999
 10
29.595184
 20
2.402270999999999
 10
29.595184
 20
2.314023308699999
 10
29.6834316913
 20
2.402270999999999
 10
29.778184
 20
2.402270999999999
 10
29.653184
 20
2.277270999999999
 10
29.778184
 20
2.121020999999999
 10
29.6923821352
 20
2.121020999999999
 10
29.595184
 20
2.242518668999999
 10
29.595184
 20
2.121020999999999
  0
HATCH
  5
28E
330
227
100
AcDbEntity
  8
0
  6
Continuous
 62
     2
100
AcDbHatch
 10
0.0
 20
0.0
 30
0.0
210
0.0
220
0.0
230
1.0
  2
SOLID
 70
     1
 71
     1
 91
        1
 92
        1
 93
       11
 72
     1
 10
29.595184
 20
2.121020999999999
 11
29.528184
 21
2.121020999999999
 72
     1
 10
29.528184
 20
2.121020999999999
 11
29.528184
 21
2.402270999999999
 72
     1
 10
29.528184
 20
2.402270999999999
 11
29.595184
 21
2.402270999999999
 72
     1
 10
29.595184
 20
2.402270999999999
 11
29.595184
 21
2.314023308699999
 72
     1
 10
29.595184
 20
2.314023308699999
 11
29.6834316913
 21
2.402270999999999
 72
     1
 10
29.6834316913
 20
2.402270999999999
 11
29.778184
 21
2.402270999999999
 72
     1
 10
29.778184
 20
2.402270999999999
 11
29.653184
 21
2.277270999999999
 72
     1
 10
29.653184
 20
2.277270999999999
 11
29.778184
 21
2.121020999999999
 72
     1
 10
29.778184
 20
2.121020999999999
 11
29.6923821352
 21
2.121020999999999
 72
     1
 10
29.6923821352
 20
2.121020999999999
 11
29.595184
 21
2.242518668999999
 72
     1
 10
29.595184
 20
2.242518668999999
 11
29.595184
 21
2.121020999999999
 97
        1
330
28D
 75
     0
 76
     1
 98
        1
 10
0.0
 20
0.0
450
        0
451
        0
460
0.0
461
0.0
452
        0
462
0.0
453
        0
470

  0
LWPOLYLINE
  5
28F
330
227
100
AcDbEntity
  8
0
  6
Continuous
 62
     2
100
AcDbPolyline
 90
       23
 70
     0
 43
0.0
 10
29.887559
 20
2.121020999999999
 10
29.8441034852
 20
2.127903677399999
 10
29.8049016989
 20
2.1478779852
 10
29.7737909852
 20
2.1789886989
 10
29.7538166774
 20
2.2181904852
 10
29.746934
 20
2.261645999999999
 10
29.7538166774
 20
2.3051015148
 10
29.7690287706
 20
2.3349569287
 10
29.894352258
 20
2.3349569287
 10
29.8674105624
 20
2.332460413
 10
29.8431900249
 20
2.320400018399999
 10
29.8249617634
 20
2.300404567999999
 10
29.8151876055
 20
2.275174558199999
 10
29.8151876055
 20
2.248117441799999
 10
29.8249617634
 20
2.222887431999999
 10
29.8431900249
 20
2.2028919816
 10
29.8674105624
 20
2.190831586999999
 10
29.894352258
 20
2.1883350713
 10
30.0060892294
 20
2.1883350713
 10
30.0013270148
 20
2.1789886989
 10
29.9702163011
 20
2.1478779852
 10
29.9310145148
 20
2.127903677399999
 10
29.887559
 20
2.121020999999999
  0
HATCH
  5
290
330
227
100
AcDbEntity
  8
0
  6
Continuous
 62
     2
100
AcDbHatch
 10
0.0
 20
0.0
 30
0.0
210
0.0
220
0.0
230
1.0
  2
SOLID
 70
     1
 71
     1
 91
        1
 92
        1
 93
       22
 72
     1
 10
29.887559
 20
2.121020999999999
 11
29.8441034852
 21
2.127903677399999
 72
     1
 10
29.8441034852
 20
2.127903677399999
 11
29.8049016989
 21
2.1478779852
 72
     1
 10
29.8049016989
 20
2.1478779852
 11
29.7737909852
 21
2.1789886989
 72
     1
 10
29.7737909852
 20
2.1789886989
 11
29.7538166774
 21
2.2181904852
 72
     1
 10
29.7538166774
 20
2.2181904852
 11
29.746934
 21
2.261645999999999
 72
     1
 10
29.746934
 20
2.261645999999999
 11
29.7538166774
 21
2.3051015148
 72
     1
 10
29.7538166774
 20
2.3051015148
 11
29.7690287706
 21
2.3349569287
 72
     1
 10
29.7690287706
 20
2.3349569287
 11
29.894352258
 21
2.3349569287
 72
     1
 10
29.894352258
 20
2.3349569287
 11
29.8674105624
 21
2.332460413
 72
     1
 10
29.8674105624
 20
2.332460413
 11
29.8431900249
 21
2.320400018399999
 72
     1
 10
29.8431900249
 20
2.320400018399999
 11
29.8249617634
 21
2.300404567999999
 72
     1
 10
29.8249617634
 20
2.300404567999999
 11
29.8151876055
 21
2.275174558199999
 72
     1
 10
29.8151876055
 20
2.275174558199999
 11
29.8151876055
 21
2.248117441799999
 72
     1
 10
29.8151876055
 20
2.248117441799999
 11
29.8249617634
 21
2.222887431999999
 72
     1
 10
29.8249617634
 20
2.222887431999999
 11
29.8431900249
 21
2.2028919816
 72
     1
 10
29.8431900249
 20
2.2028919816
 11
29.8674105624
 21
2.190831586999999
 72
     1
 10
29.8674105624
 20
2.190831586999999
 11
29.894352258
 21
2.1883350713
 72
     1
 10
29.894352258
 20
2.1883350713
 11
30.0060892294
 21
2.1883350713
 72
     1
 10
30.0060892294
 20
2.1883350713
 11
30.0013270148
 21
2.1789886989
 72
     1
 10
30.0013270148
 20
2.1789886989
 11
29.9702163011
 21
2.1478779852
 72
     1
 10
29.9702163011
 20
2.1478779852
 11
29.9310145148
 21
2.127903677399999
 72
     1
 10
29.9310145148
 20
2.127903677399999
 11
29.887559
 21
2.121020999999999
 97
        1
330
28F
 75
     0
 76
     1
 98
        1
 10
0.0
 20
0.0
450
        0
451
        0
460
0.0
461
0.0
452
        0
462
0.0
453
        0
470

  0
LWPOLYLINE
  5
291
330
227
100
AcDbEntity
  8
0
  6
Continuous
 62
     2
100
AcDbPolyline
 90
       22
 70
     0
 43
0.0
 10
29.7690287706
 20
2.3349569287
 10
29.7737909852
 20
2.3443033011
 10
29.8049016989
 20
2.3754140148
 10
29.8441034852
 20
2.3953883226
 10
29.887559
 20
2.402270999999999
 10
29.9310145148
 20
2.3953883226
 10
29.9702163011
 20
2.3754140148
 10
30.0013270148
 20
2.3443033011
 10
30.0213013226
 20
2.3051015148
 10
30.028184
 20
2.261645999999999
 10
30.0213013226
 20
2.2181904852
 10
30.0060892294
 20
2.1883350713
 10
29.894352258
 20
2.1883350713
 10
29.9203764864
 20
2.195739602699999
 10
29.9419685315
 20
2.2120451582
 10
29.9562122679
 20
2.235049582299999
 10
29.961184
 20
2.261645999999999
 10
29.9562122679
 20
2.288242417699999
 10
29.9419685315
 20
2.3112468418
 10
29.9203764864
 20
2.327552397299999
 10
29.894352258
 20
2.3349569287
 10
29.7690287706
 20
2.3349569287
  0
HATCH
  5
292
330
227
100
AcDbEntity
  8
0
  6
Continuous
 62
     2
100
AcDbHatch
 10
0.0
 20
0.0
 30
0.0
210
0.0
220
0.0
230
1.0
  2
SOLID
 70
     1
 71
     1
 91
        1
 92
        1
 93
       21
 72
     1
 10
29.7690287706
 20
2.3349569287
 11
29.7737909852
 21
2.3443033011
 72
     1
 10
29.7737909852
 20
2.3443033011
 11
29.8049016989
 21
2.3754140148
 72
     1
 10
29.8049016989
 20
2.3754140148
 11
29.8441034852
 21
2.3953883226
 72
     1
 10
29.8441034852
 20
2.3953883226
 11
29.887559
 21
2.402270999999999
 72
     1
 10
29.887559
 20
2.402270999999999
 11
29.9310145148
 21
2.3953883226
 72
     1
 10
29.9310145148
 20
2.3953883226
 11
29.9702163011
 21
2.3754140148
 72
     1
 10
29.9702163011
 20
2.3754140148
 11
30.0013270148
 21
2.3443033011
 72
     1
 10
30.0013270148
 20
2.3443033011
 11
30.0213013226
 21
2.3051015148
 72
     1
 10
30.0213013226
 20
2.3051015148
 11
30.028184
 21
2.261645999999999
 72
     1
 10
30.028184
 20
2.261645999999999
 11
30.0213013226
 21
2.2181904852
 72
     1
 10
30.0213013226
 20
2.2181904852
 11
30.0060892294
 21
2.1883350713
 72
     1
 10
30.0060892294
 20
2.1883350713
 11
29.894352258
 21
2.1883350713
 72
     1
 10
29.894352258
 20
2.1883350713
 11
29.9203764864
 21
2.195739602699999
 72
     1
 10
29.9203764864
 20
2.195739602699999
 11
29.9419685315
 21
2.2120451582
 72
     1
 10
29.9419685315
 20
2.2120451582
 11
29.9562122679
 21
2.235049582299999
 72
     1
 10
29.9562122679
 20
2.235049582299999
 11
29.961184
 21
2.261645999999999
 72
     1
 10
29.961184
 20
2.261645999999999
 11
29.9562122679
 21
2.288242417699999
 72
     1
 10
29.9562122679
 20
2.288242417699999
 11
29.9419685315
 21
2.3112468418
 72
     1
 10
29.9419685315
 20
2.3112468418
 11
29.9203764864
 21
2.327552397299999
 72
     1
 10
29.9203764864
 20
2.327552397299999
 11
29.894352258
 21
2.3349569287
 72
     1
 10
29.894352258
 20
2.3349569287
 11
29.7690287706
 21
2.3349569287
 97
        1
330
291
 75
     0
 76
     1
 98
        1
 10
0.0
 20
0.0
450
        0
451
        0
460
0.0
461
0.0
452
        0
462
0.0
453
        0
470

  0
LWPOLYLINE
  5
293
330
227
100
AcDbEntity
  8
0
  6
Continuous
 62
     2
100
AcDbPolyline
 90
       13
 70
     0
 43
0.0
 10
30.126434
 20
2.121020999999999
 10
30.059434
 20
2.121020999999999
 10
30.059434
 20
2.402270999999999
 10
30.126434
 20
2.402270999999999
 10
30.126434
 20
2.310770999999999
 10
30.204559
 20
2.310770999999999
 10
30.204559
 20
2.402270999999999
 10
30.271559
 20
2.402270999999999
 10
30.271559
 20
2.121020999999999
 10
30.204559
 20
2.121020999999999
 10
30.204559
 20
2.243771
 10
30.126434
 20
2.243771
 10
30.126434
 20
2.121020999999999
  0
HATCH
  5
294
330
227
100
AcDbEntity
  8
0
  6
Continuous
 62
     2
100
AcDbHatch
 10
0.0
 20
0.0
 30
0.0
210
0.0
220
0.0
230
1.0
  2
SOLID
 70
     1
 71
     1
 91
        1
 92
        1
 93
       12
 72
     1
 10
30.126434
 20
2.121020999999999
 11
30.059434
 21
2.121020999999999
 72
     1
 10
30.059434
 20
2.121020999999999
 11
30.059434
 21
2.402270999999999
 72
     1
 10
30.059434
 20
2.402270999999999
 11
30.126434
 21
2.402270999999999
 72
     1
 10
30.126434
 20
2.402270999999999
 11
30.126434
 21
2.310770999999999
 72
     1
 10
30.126434
 20
2.310770999999999
 11
30.204559
 21
2.310770999999999
 72
     1
 10
30.204559
 20
2.310770999999999
 11
30.204559
 21
2.402270999999999
 72
     1
 10
30.204559
 20
2.402270999999999
 11
30.271559
 21
2.402270999999999
 72
     1
 10
30.271559
 20
2.402270999999999
 11
30.271559
 21
2.121020999999999
 72
     1
 10
30.271559
 20
2.121020999999999
 11
30.204559
 21
2.121020999999999
 72
     1
 10
30.204559
 20
2.121020999999999
 11
30.204559
 21
2.243771
 72
     1
 10
30.204559
 20
2.243771
 11
30.126434
 21
2.243771
 72
     1
 10
30.126434
 20
2.243771
 11
30.126434
 21
2.121020999999999
 97
        1
330
293
 75
     0
 76
     1
 98
        1
 10
0.0
 20
0.0
450
        0
451
        0
460
0.0
461
0.0
452
        0
462
0.0
453
        0
470

  0
LWPOLYLINE
  5
295
330
227
100
AcDbEntity
  8
0
  6
Continuous
 62
     2
100
AcDbPolyline
 90
        7
 70
     0
 43
0.0
 10
30.459059
 20
2.121020999999999
 10
30.302809
 20
2.121020999999999
 10
30.302809
 20
2.402270999999999
 10
30.369809
 20
2.402270999999999
 10
30.369809
 20
2.188020999999999
 10
30.459059
 20
2.188020999999999
 10
30.459059
 20
2.121020999999999
  0
HATCH
  5
296
330
227
100
AcDbEntity
  8
0
  6
Continuous
 62
     2
100
AcDbHatch
 10
0.0
 20
0.0
 30
0.0
210
0.0
220
0.0
230
1.0
  2
SOLID
 70
     1
 71
     1
 91
        1
 92
        1
 93
        6
 72
     1
 10
30.459059
 20
2.121020999999999
 11
30.302809
 21
2.121020999999999
 72
     1
 10
30.302809
 20
2.121020999999999
 11
30.302809
 21
2.402270999999999
 72
     1
 10
30.302809
 20
2.402270999999999
 11
30.369809
 21
2.402270999999999
 72
     1
 10
30.369809
 20
2.402270999999999
 11
30.369809
 21
2.188020999999999
 72
     1
 10
30.369809
 20
2.188020999999999
 11
30.459059
 21
2.188020999999999
 72
     1
 10
30.459059
 20
2.188020999999999
 11
30.459059
 21
2.121020999999999
 97
        1
330
295
 75
     0
 76
     1
 98
        1
 10
0.0
 20
0.0
450
        0
451
        0
460
0.0
461
0.0
452
        0
462
0.0
453
        0
470

  0
LWPOLYLINE
  5
297
330
227
100
AcDbEntity
  8
0
  6
Continuous
 62
     2
100
AcDbPolyline
 90
       13
 70
     0
 43
0.0
 10
30.646559
 20
2.121020999999999
 10
30.490309
 20
2.121020999999999
 10
30.490309
 20
2.402270999999999
 10
30.646559
 20
2.402270999999999
 10
30.646559
 20
2.335271
 10
30.557309
 20
2.335271
 10
30.557309
 20
2.287333499999999
 10
30.646559
 20
2.287333499999999
 10
30.646559
 20
2.2359585
 10
30.557309
 20
2.2359585
 10
30.557309
 20
2.188020999999999
 10
30.646559
 20
2.188020999999999
 10
30.646559
 20
2.121020999999999
  0
HATCH
  5
298
330
227
100
AcDbEntity
  8
0
  6
Continuous
 62
     2
100
AcDbHatch
 10
0.0
 20
0.0
 30
0.0
210
0.0
220
0.0
230
1.0
  2
SOLID
 70
     1
 71
     1
 91
        1
 92
        1
 93
       12
 72
     1
 10
30.646559
 20
2.121020999999999
 11
30.490309
 21
2.121020999999999
 72
     1
 10
30.490309
 20
2.121020999999999
 11
30.490309
 21
2.402270999999999
 72
     1
 10
30.490309
 20
2.402270999999999
 11
30.646559
 21
2.402270999999999
 72
     1
 10
30.646559
 20
2.402270999999999
 11
30.646559
 21
2.335271
 72
     1
 10
30.646559
 20
2.335271
 11
30.557309
 21
2.335271
 72
     1
 10
30.557309
 20
2.335271
 11
30.557309
 21
2.287333499999999
 72
     1
 10
30.557309
 20
2.287333499999999
 11
30.646559
 21
2.287333499999999
 72
     1
 10
30.646559
 20
2.287333499999999
 11
30.646559
 21
2.2359585
 72
     1
 10
30.646559
 20
2.2359585
 11
30.557309
 21
2.2359585
 72
     1
 10
30.557309
 20
2.2359585
 11
30.557309
 21
2.188020999999999
 72
     1
 10
30.557309
 20
2.188020999999999
 11
30.646559
 21
2.188020999999999
 72
     1
 10
30.646559
 20
2.188020999999999
 11
30.646559
 21
2.121020999999999
 97
        1
330
297
 75
     0
 76
     1
 98
        1
 10
0.0
 20
0.0
450
        0
451
        0
460
0.0
461
0.0
452
        0
462
0.0
453
        0
470

  0
ENDBLK
  5
299
330
227
100
AcDbEntity
  8
0
  6
ByBlock
 62
     0
100
AcDbBlockEnd
  0
BLOCK
  5
29A
330
228
100
AcDbEntity
  8
DEFAULT_2
  6
HIDDEN
 62
     8
100
AcDbBlockBegin
  2
C_ARROW_BL1
 70
     0
 10
17.0
 20
21.775
 30
0.0
  3
C_ARROW_BL1
  1

  0
LINE
  5
29B
330
228
100
AcDbEntity
  8
DEFAULT_2
  6
HIDDEN
 62
     8
100
AcDbLine
 10
17.0
 20
21.5875
 30
0.0
 11
17.09375
 21
21.775
 31
0.0
  0
LINE
  5
29C
330
228
100
AcDbEntity
  8
DEFAULT_2
  6
HIDDEN
 62
     8
100
AcDbLine
 10
17.0
 20
21.5875
 30
0.0
 11
16.90625
 21
21.775
 31
0.0
  0
LINE
  5
29D
330
228
100
AcDbEntity
  8
DEFAULT_2
  6
HIDDEN
 62
     8
100
AcDbLine
 10
16.9765625
 20
21.775
 30
0.0
 11
16.90625
 21
21.775
 31
0.0
  0
LINE
  5
29E
330
228
100
AcDbEntity
  8
DEFAULT_2
  6
HIDDEN
 62
     8
100
AcDbLine
 10
16.9765625
 20
21.9625
 30
0.0
 11
16.9765625
 21
21.775
 31
0.0
  0
LINE
  5
29F
330
228
100
AcDbEntity
  8
DEFAULT_2
  6
HIDDEN
 62
     8
100
AcDbLine
 10
16.9765625
 20
21.9625
 30
0.0
 11
17.0234375
 21
21.9625
 31
0.0
  0
LINE
  5
2A0
330
228
100
AcDbEntity
  8
DEFAULT_2
  6
HIDDEN
 62
     8
100
AcDbLine
 10
17.0234375
 20
21.775
 30
0.0
 11
17.0234375
 21
21.9625
 31
0.0
  0
LINE
  5
2A1
330
228
100
AcDbEntity
  8
DEFAULT_2
  6
HIDDEN
 62
     8
100
AcDbLine
 10
17.09375
 20
21.775
 30
0.0
 11
17.0234375
 21
21.775
 31
0.0
  0
LWPOLYLINE
  5
2A2
330
228
100
AcDbEntity
  8
DEFAULT_2
  6
HIDDEN
 62
     8
100
AcDbPolyline
 90
        8
 70
     0
 43
0.0
 10
17.0
 20
21.5875
 10
16.90625
 20
21.775
 10
16.9765625
 20
21.775
 10
16.9765625
 20
21.9625
 10
17.0234375
 20
21.9625
 10
17.0234375
 20
21.775
 10
17.09375
 20
21.775
 10
17.0
 20
21.5875
  0
HATCH
  5
2A3
330
228
100
AcDbEntity
  8
DEFAULT_2
  6
HIDDEN
 62
     8
100
AcDbHatch
 10
0.0
 20
0.0
 30
0.0
210
0.0
220
0.0
230
1.0
  2
SOLID
 70
     1
 71
     1
 91
        1
 92
        1
 93
        7
 72
     1
 10
17.0
 20
21.5875
 11
16.90625
 21
21.775
 72
     1
 10
16.90625
 20
21.775
 11
16.9765625
 21
21.775
 72
     1
 10
16.9765625
 20
21.775
 11
16.9765625
 21
21.9625
 72
     1
 10
16.9765625
 20
21.9625
 11
17.0234375
 21
21.9625
 72
     1
 10
17.0234375
 20
21.9625
 11
17.0234375
 21
21.775
 72
     1
 10
17.0234375
 20
21.775
 11
17.09375
 21
21.775
 72
     1
 10
17.09375
 20
21.775
 11
17.0
 21
21.5875
 97
        1
330
2A2
 75
     0
 76
     1
 98
        1
 10
0.0
 20
0.0
450
        0
451
        0
460
0.0
461
0.0
452
        0
462
0.0
453
        0
470

  0
ENDBLK
  5
2A4
330
228
100
AcDbEntity
  8
0
  6
ByBlock
 62
     0
100
AcDbBlockEnd
  0
BLOCK
  5
2A5
330
229
100
AcDbEntity
  8
DEFAULT_2
  6
HIDDEN
 62
     8
100
AcDbBlockBegin
  2
C_ARROW_BL2
 70
     0
 10
0.3375
 20
11.0
 30
0.0
  3
C_ARROW_BL2
  1

  0
LINE
  5
2A6
330
229
100
AcDbEntity
  8
DEFAULT_2
  6
HIDDEN
 62
     8
100
AcDbLine
 10
0.525
 20
11.0
 30
0.0
 11
0.3375
 21
11.09375
 31
0.0
  0
LINE
  5
2A7
330
229
100
AcDbEntity
  8
DEFAULT_2
  6
HIDDEN
 62
     8
100
AcDbLine
 10
0.525
 20
11.0
 30
0.0
 11
0.3375
 21
10.90625
 31
0.0
  0
LINE
  5
2A8
330
229
100
AcDbEntity
  8
DEFAULT_2
  6
HIDDEN
 62
     8
100
AcDbLine
 10
0.3375
 20
10.9765625
 30
0.0
 11
0.3375
 21
10.90625
 31
0.0
  0
LINE
  5
2A9
330
229
100
AcDbEntity
  8
DEFAULT_2
  6
HIDDEN
 62
     8
100
AcDbLine
 10
0.15
 20
10.9765625
 30
0.0
 11
0.3375
 21
10.9765625
 31
0.0
  0
LINE
  5
2AA
330
229
100
AcDbEntity
  8
DEFAULT_2
  6
HIDDEN
 62
     8
100
AcDbLine
 10
0.15
 20
10.9765625
 30
0.0
 11
0.15
 21
11.0234375
 31
0.0
  0
LINE
  5
2AB
330
229
100
AcDbEntity
  8
DEFAULT_2
  6
HIDDEN
 62
     8
100
AcDbLine
 10
0.3375
 20
11.0234375
 30
0.0
 11
0.15
 21
11.0234375
 31
0.0
  0
LINE
  5
2AC
330
229
100
AcDbEntity
  8
DEFAULT_2
  6
HIDDEN
 62
     8
100
AcDbLine
 10
0.3375
 20
11.09375
 30
0.0
 11
0.3375
 21
11.0234375
 31
0.0
  0
LWPOLYLINE
  5
2AD
330
229
100
AcDbEntity
  8
DEFAULT_2
  6
HIDDEN
 62
     8
100
AcDbPolyline
 90
        8
 70
     0
 43
0.0
 10
0.525
 20
11.0
 10
0.3375
 20
10.90625
 10
0.3375
 20
10.9765625
 10
0.15
 20
10.9765625
 10
0.15
 20
11.0234375
 10
0.3375
 20
11.0234375
 10
0.3375
 20
11.09375
 10
0.525
 20
11.0
  0
HATCH
  5
2AE
330
229
100
AcDbEntity
  8
DEFAULT_2
  6
HIDDEN
 62
     8
100
AcDbHatch
 10
0.0
 20
0.0
 30
0.0
210
0.0
220
0.0
230
1.0
  2
SOLID
 70
     1
 71
     1
 91
        1
 92
        1
 93
        7
 72
     1
 10
0.525
 20
11.0
 11
0.3375
 21
10.90625
 72
     1
 10
0.3375
 20
10.90625
 11
0.3375
 21
10.9765625
 72
     1
 10
0.3375
 20
10.9765625
 11
0.15
 21
10.9765625
 72
     1
 10
0.15
 20
10.9765625
 11
0.15
 21
11.0234375
 72
     1
 10
0.15
 20
11.0234375
 11
0.3375
 21
11.0234375
 72
     1
 10
0.3375
 20
11.0234375
 11
0.3375
 21
11.09375
 72
     1
 10
0.3375
 20
11.09375
 11
0.525
 21
11.0
 97
        1
330
2AD
 75
     0
 76
     1
 98
        1
 10
0.0
 20
0.0
450
        0
451
        0
460
0.0
461
0.0
452
        0
462
0.0
453
        0
470

  0
ENDBLK
  5
2AF
330
229
100
AcDbEntity
  8
0
  6
ByBlock
 62
     0
100
AcDbBlockEnd
  0
BLOCK
  5
2B0
330
22A
100
AcDbEntity
  8
DEFAULT_2
  6
HIDDEN
 62
     8
100
AcDbBlockBegin
  2
C_ARROW_BL3
 70
     0
 10
17.0
 20
0.4
 30
0.0
  3
C_ARROW_BL3
  1

  0
LINE
  5
2B1
330
22A
100
AcDbEntity
  8
DEFAULT_2
  6
HIDDEN
 62
     8
100
AcDbLine
 10
17.0
 20
0.5875
 30
0.0
 11
16.90625
 21
0.4
 31
0.0
  0
LINE
  5
2B2
330
22A
100
AcDbEntity
  8
DEFAULT_2
  6
HIDDEN
 62
     8
100
AcDbLine
 10
17.0
 20
0.5875
 30
0.0
 11
17.09375
 21
0.4
 31
0.0
  0
LINE
  5
2B3
330
22A
100
AcDbEntity
  8
DEFAULT_2
  6
HIDDEN
 62
     8
100
AcDbLine
 10
17.0234375
 20
0.4
 30
0.0
 11
17.09375
 21
0.4
 31
0.0
  0
LINE
  5
2B4
330
22A
100
AcDbEntity
  8
DEFAULT_2
  6
HIDDEN
 62
     8
100
AcDbLine
 10
17.0234375
 20
0.2125
 30
0.0
 11
17.0234375
 21
0.4
 31
0.0
  0
LINE
  5
2B5
330
22A
100
AcDbEntity
  8
DEFAULT_2
  6
HIDDEN
 62
     8
100
AcDbLine
 10
17.0234375
 20
0.2125
 30
0.0
 11
16.9765625
 21
0.2125
 31
0.0
  0
LINE
  5
2B6
330
22A
100
AcDbEntity
  8
DEFAULT_2
  6
HIDDEN
 62
     8
100
AcDbLine
 10
16.9765625
 20
0.4
 30
0.0
 11
16.9765625
 21
0.2125
 31
0.0
  0
LINE
  5
2B7
330
22A
100
AcDbEntity
  8
DEFAULT_2
  6
HIDDEN
 62
     8
100
AcDbLine
 10
16.90625
 20
0.4
 30
0.0
 11
16.9765625
 21
0.4
 31
0.0
  0
LWPOLYLINE
  5
2B8
330
22A
100
AcDbEntity
  8
DEFAULT_2
  6
HIDDEN
 62
     8
100
AcDbPolyline
 90
        8
 70
     0
 43
0.0
 10
17.0
 20
0.5875
 10
17.09375
 20
0.4
 10
17.0234375
 20
0.4
 10
17.0234375
 20
0.2125
 10
16.9765625
 20
0.2125
 10
16.9765625
 20
0.4
 10
16.90625
 20
0.4
 10
17.0
 20
0.5875
  0
HATCH
  5
2B9
330
22A
100
AcDbEntity
  8
DEFAULT_2
  6
HIDDEN
 62
     8
100
AcDbHatch
 10
0.0
 20
0.0
 30
0.0
210
0.0
220
0.0
230
1.0
  2
SOLID
 70
     1
 71
     1
 91
        1
 92
        1
 93
        7
 72
     1
 10
17.0
 20
0.5875
 11
17.09375
 21
0.4
 72
     1
 10
17.09375
 20
0.4
 11
17.0234375
 21
0.4
 72
     1
 10
17.0234375
 20
0.4
 11
17.0234375
 21
0.2125
 72
     1
 10
17.0234375
 20
0.2125
 11
16.9765625
 21
0.2125
 72
     1
 10
16.9765625
 20
0.2125
 11
16.9765625
 21
0.4
 72
     1
 10
16.9765625
 20
0.4
 11
16.90625
 21
0.4
 72
     1
 10
16.90625
 20
0.4
 11
17.0
 21
0.5875
 97
        1
330
2B8
 75
     0
 76
     1
 98
        1
 10
0.0
 20
0.0
450
        0
451
        0
460
0.0
461
0.0
452
        0
462
0.0
453
        0
470

  0
ENDBLK
  5
2BA
330
22A
100
AcDbEntity
  8
0
  6
ByBlock
 62
     0
100
AcDbBlockEnd
  0
BLOCK
  5
2BB
330
22B
100
AcDbEntity
  8
DEFAULT_2
  6
HIDDEN
 62
     8
100
AcDbBlockBegin
  2
C_ARROW_BL4
 70
     0
 10
33.7125
 20
11.0
 30
0.0
  3
C_ARROW_BL4
  1

  0
LINE
  5
2BC
330
22B
100
AcDbEntity
  8
DEFAULT_2
  6
HIDDEN
 62
     8
100
AcDbLine
 10
33.525
 20
11.0
 30
0.0
 11
33.7125
 21
10.90625
 31
0.0
  0
LINE
  5
2BD
330
22B
100
AcDbEntity
  8
DEFAULT_2
  6
HIDDEN
 62
     8
100
AcDbLine
 10
33.525
 20
11.0
 30
0.0
 11
33.7125
 21
11.09375
 31
0.0
  0
LINE
  5
2BE
330
22B
100
AcDbEntity
  8
DEFAULT_2
  6
HIDDEN
 62
     8
100
AcDbLine
 10
33.7125
 20
11.0234375
 30
0.0
 11
33.7125
 21
11.09375
 31
0.0
  0
LINE
  5
2BF
330
22B
100
AcDbEntity
  8
DEFAULT_2
  6
HIDDEN
 62
     8
100
AcDbLine
 10
33.9
 20
11.0234375
 30
0.0
 11
33.7125
 21
11.0234375
 31
0.0
  0
LINE
  5
2C0
330
22B
100
AcDbEntity
  8
DEFAULT_2
  6
HIDDEN
 62
     8
100
AcDbLine
 10
33.9
 20
11.0234375
 30
0.0
 11
33.9
 21
10.9765625
 31
0.0
  0
LINE
  5
2C1
330
22B
100
AcDbEntity
  8
DEFAULT_2
  6
HIDDEN
 62
     8
100
AcDbLine
 10
33.7125
 20
10.9765625
 30
0.0
 11
33.9
 21
10.9765625
 31
0.0
  0
LINE
  5
2C2
330
22B
100
AcDbEntity
  8
DEFAULT_2
  6
HIDDEN
 62
     8
100
AcDbLine
 10
33.7125
 20
10.90625
 30
0.0
 11
33.7125
 21
10.9765625
 31
0.0
  0
LWPOLYLINE
  5
2C3
330
22B
100
AcDbEntity
  8
DEFAULT_2
  6
HIDDEN
 62
     8
100
AcDbPolyline
 90
        8
 70
     0
 43
0.0
 10
33.525
 20
11.0
 10
33.7125
 20
11.09375
 10
33.7125
 20
11.0234375
 10
33.9
 20
11.0234375
 10
33.9
 20
10.9765625
 10
33.7125
 20
10.9765625
 10
33.7125
 20
10.90625
 10
33.525
 20
11.0
  0
HATCH
  5
2C4
330
22B
100
AcDbEntity
  8
DEFAULT_2
  6
HIDDEN
 62
     8
100
AcDbHatch
 10
0.0
 20
0.0
 30
0.0
210
0.0
220
0.0
230
1.0
  2
SOLID
 70
     1
 71
     1
 91
        1
 92
        1
 93
        7
 72
     1
 10
33.525
 20
11.0
 11
33.7125
 21
11.09375
 72
     1
 10
33.7125
 20
11.09375
 11
33.7125
 21
11.0234375
 72
     1
 10
33.7125
 20
11.0234375
 11
33.9
 21
11.0234375
 72
     1
 10
33.9
 20
11.0234375
 11
33.9
 21
10.9765625
 72
     1
 10
33.9
 20
10.9765625
 11
33.7125
 21
10.9765625
 72
     1
 10
33.7125
 20
10.9765625
 11
33.7125
 21
10.90625
 72
     1
 10
33.7125
 20
10.90625
 11
33.525
 21
11.0
 97
        1
330
2C3
 75
     0
 76
     1
 98
        1
 10
0.0
 20
0.0
450
        0
451
        0
460
0.0
461
0.0
452
        0
462
0.0
453
        0
470

  0
ENDBLK
  5
2C5
330
22B
100
AcDbEntity
  8
0
  6
ByBlock
 62
     0
100
AcDbBlockEnd
  0
BLOCK
  5
376
330
240
100
AcDbEntity
  8
___SYMBOL
  6
Continuous
 62
     2
100
AcDbBlockBegin
  2
GENERIC_STANDARD_BL5
 70
     0
 10
27.6750713043
 20
8.8867991161
 30
0.0
  3
GENERIC_STANDARD_BL5
  1

  0
TEXT
  5
377
330
240
100
AcDbEntity
  8
___SYMBOL
  6
Continuous
 62
     2
100
AcDbText
 10
26.4966860141
 20
10.3014166881
 30
0.0
 40
0.1562499832
  1
APPLICABLE STANDARDS:
 41
0.7182539683
  7
TEXTSTYLE_2
100
AcDbText
  0
TEXT
  5
378
330
240
100
AcDbEntity
  8
___SYMBOL
  6
Continuous
 62
     2
100
AcDbText
 10
26.6636220071
 20
9.481314665899999
 30
0.0
 40
0.1562499832
  1
B
 41
0.8
100
AcDbText
  0
TEXT
  5
379
330
240
100
AcDbEntity
  8
___SYMBOL
  6
Continuous
 62
     2
100
AcDbText
 10
26.6636220071
 20
8.2352967764
 30
0.0
 40
0.1562499832
  1
E
 41
0.8
100
AcDbText
  0
TEXT
  5
37A
330
240
100
AcDbEntity
  8
___SYMBOL
  6
Continuous
 62
     2
100
AcDbText
 10
26.6636220071
 20
9.061642647199999
 30
0.0
 40
0.1562499832
  1
C
 41
0.8
100
AcDbText
  0
TEXT
  5
37B
330
240
100
AcDbEntity
  8
___SYMBOL
  6
Continuous
 62
     2
100
AcDbText
 10
26.6567256092
 20
9.885946414699999
 30
0.0
 40
0.1562499832
  1
A
 41
0.8
100
AcDbText
  0
TEXT
  5
37C
330
240
100
AcDbEntity
  8
___SYMBOL
  6
Continuous
 62
     2
100
AcDbText
 10
26.6636220071
 20
8.649878067399999
 30
0.0
 40
0.1562499832
  1
D
 41
0.8
100
AcDbText
  0
TEXT
  5
37D
330
240
100
AcDbEntity
  8
___SYMBOL
  6
Continuous
 62
     2
100
AcDbText
 10
27.0613529277
 20
9.9100270735
 30
0.0
 40
0.1562499832
  1
F100.001
 41
0.8
100
AcDbText
  0
TEXT
  5
37E
330
240
100
AcDbEntity
  8
___SYMBOL
  6
Continuous
 62
     2
100
AcDbText
 10
27.0612509347
 20
9.4919434934
 30
0.0
 40
0.1562499832
  1
H040.001
 41
0.8
100
AcDbText
  0
TEXT
  5
37F
330
240
100
AcDbEntity
  8
___SYMBOL
  6
Continuous
 62
     2
100
AcDbText
 10
27.0566934332
 20
9.072608764199999
 30
0.0
 40
0.1562499832
  1
G300.050.3.5.2
 41
0.8
100
AcDbText
  0
TEXT
  5
380
330
240
100
AcDbEntity
  8
___SYMBOL
  6
Continuous
 62
     2
100
AcDbText
 10
27.0639506256
 20
8.6661818198
 30
0.0
 40
0.1562499832
  1
H040.001.5.4
 41
0.8
100
AcDbText
  0
TEXT
  5
381
330
240
100
AcDbEntity
  8
___SYMBOL
  6
Continuous
 62
     2
100
AcDbText
 10
27.0597279251
 20
8.223347628
 30
0.0
 40
0.1562499832
  1
H040.001.1C.8
 41
0.8
100
AcDbText
  0
LINE
  5
382
330
240
100
AcDbEntity
  8
___SYMBOL
  6
Continuous
 62
     7
100
AcDbLine
 10
26.9492494625
 20
8.168337623799999
 30
0.0
 11
26.4997064876
 21
8.168337623799999
 31
0.0
  0
LINE
  5
383
330
240
100
AcDbEntity
  8
___SYMBOL
  6
Continuous
 62
     7
100
AcDbLine
 10
26.4997064876
 20
8.168337623799999
 30
0.0
 11
26.7149267787
 21
8.5198216495
 31
0.0
  0
LINE
  5
384
330
240
100
AcDbEntity
  8
___SYMBOL
  6
Continuous
 62
     7
100
AcDbLine
 10
26.7149267787
 20
8.5198216495
 30
0.0
 11
26.9492494625
 21
8.168337623799999
 31
0.0
  0
LINE
  5
385
330
240
100
AcDbEntity
  8
___SYMBOL
  6
Continuous
 62
     7
100
AcDbLine
 10
26.9492494625
 20
8.9946834945
 30
0.0
 11
26.4997064876
 21
8.9946834945
 31
0.0
  0
LINE
  5
386
330
240
100
AcDbEntity
  8
___SYMBOL
  6
Continuous
 62
     7
100
AcDbLine
 10
26.4997064876
 20
8.9946834945
 30
0.0
 11
26.7149267787
 21
9.346167520199999
 31
0.0
  0
LINE
  5
387
330
240
100
AcDbEntity
  8
___SYMBOL
  6
Continuous
 62
     7
100
AcDbLine
 10
26.7149267787
 20
9.346167520199999
 30
0.0
 11
26.9492494625
 21
8.9946834945
 31
0.0
  0
LINE
  5
388
330
240
100
AcDbEntity
  8
___SYMBOL
  6
Continuous
 62
     7
100
AcDbLine
 10
26.9492494625
 20
8.582918927599999
 30
0.0
 11
26.4997064876
 21
8.582918927599999
 31
0.0
  0
LINE
  5
389
330
240
100
AcDbEntity
  8
___SYMBOL
  6
Continuous
 62
     7
100
AcDbLine
 10
26.4997064876
 20
8.582918927599999
 30
0.0
 11
26.7149267787
 21
8.934402953299999
 31
0.0
  0
LINE
  5
38A
330
240
100
AcDbEntity
  8
___SYMBOL
  6
Continuous
 62
     7
100
AcDbLine
 10
26.7149267787
 20
8.934402953299999
 30
0.0
 11
26.9492494625
 21
8.582918927599999
 31
0.0
  0
TEXT
  5
38B
330
240
100
AcDbEntity
  8
___SYMBOL
  6
Continuous
 62
     2
100
AcDbText
 10
26.6636220071
 20
7.3828907135
 30
0.0
 40
0.1562499832
  1
G
 41
0.8
100
AcDbText
  0
TEXT
  5
38C
330
240
100
AcDbEntity
  8
___SYMBOL
  6
Continuous
 62
     2
100
AcDbText
 10
26.6567256092
 20
7.7875224622
 30
0.0
 40
0.1562499832
  1
F
 41
0.8
100
AcDbText
  0
TEXT
  5
38D
330
240
100
AcDbEntity
  8
___SYMBOL
  6
Continuous
 62
     2
100
AcDbText
 10
27.0613529277
 20
7.8116031211
 30
0.0
 40
0.1562499832
  1
G300.015.3
 41
0.8
100
AcDbText
  0
TEXT
  5
38E
330
240
100
AcDbEntity
  8
___SYMBOL
  6
Continuous
 62
     2
100
AcDbText
 10
27.0612509347
 20
7.393519540899999
 30
0.0
 40
0.1562499832
  1
G300.015.3.3
 41
0.8
100
AcDbText
  0
LINE
  5
38F
330
240
100
AcDbEntity
  8
___SYMBOL
  6
Continuous
 62
     7
100
AcDbLine
 10
26.9492494625
 20
7.3159315609
 30
0.0
 11
26.4997064876
 21
7.3159315609
 31
0.0
  0
LINE
  5
390
330
240
100
AcDbEntity
  8
___SYMBOL
  6
Continuous
 62
     7
100
AcDbLine
 10
26.4997064876
 20
7.3159315609
 30
0.0
 11
26.7149267787
 21
7.667415586599999
 31
0.0
  0
LINE
  5
391
330
240
100
AcDbEntity
  8
___SYMBOL
  6
Continuous
 62
     7
100
AcDbLine
 10
26.7149267787
 20
7.667415586599999
 30
0.0
 11
26.9492494625
 21
7.3159315609
 31
0.0
  0
LINE
  5
392
330
240
100
AcDbEntity
  8
___SYMBOL
  6
Continuous
 62
     7
100
AcDbLine
 10
26.9492494625
 20
7.731997824699999
 30
0.0
 11
26.4997064876
 21
7.731997824699999
 31
0.0
  0
LINE
  5
393
330
240
100
AcDbEntity
  8
___SYMBOL
  6
Continuous
 62
     7
100
AcDbLine
 10
26.4997064876
 20
7.731997824699999
 30
0.0
 11
26.7149267787
 21
8.0834818504
 31
0.0
  0
LINE
  5
394
330
240
100
AcDbEntity
  8
___SYMBOL
  6
Continuous
 62
     7
100
AcDbLine
 10
26.7149267787
 20
8.0834818504
 30
0.0
 11
26.9492494625
 21
7.731997824699999
 31
0.0
  0
ENDBLK
  5
395
330
240
100
AcDbEntity
  8
0
  6
ByBlock
 62
     0
100
AcDbBlockEnd
  0
BLOCK
  5
396
330
241
100
AcDbEntity
  8
___SYMBOL
  6
Continuous
 62
     2
100
AcDbBlockBegin
  2
CHARACTERISTIC_BL6
 70
     0
 10
31.7909676759
 20
6.508701542299999
 30
0.0
  3
CHARACTERISTIC_BL6
  1

  0
TEXT
  5
397
330
241
100
AcDbEntity
  8
___SYMBOL
  6
Continuous
 62
     2
100
AcDbText
 10
31.6685481195
 20
6.566325954199999
 30
0.0
 40
0.1562499713
  1
16
 41
0.8
100
AcDbText
  0
LINE
  5
398
330
241
100
AcDbEntity
  8
___SYMBOL
  6
Continuous
 62
     7
100
AcDbLine
 10
31.9258419007
 20
6.769128542299999
 30
0.0
 11
31.9258419007
 21
6.248274542299999
 31
0.0
  0
LINE
  5
399
330
241
100
AcDbEntity
  8
___SYMBOL
  6
Continuous
 62
     7
100
AcDbLine
 10
31.9258419007
 20
6.248274542299999
 30
0.0
 11
31.6560934511
 21
6.248274542299999
 31
0.0
  0
LINE
  5
39A
330
241
100
AcDbEntity
  8
___SYMBOL
  6
Continuous
 62
     7
100
AcDbLine
 10
31.6560934511
 20
6.248274542299999
 30
0.0
 11
31.6560934511
 21
6.769128542299999
 31
0.0
  0
LINE
  5
39B
330
241
100
AcDbEntity
  8
___SYMBOL
  6
Continuous
 62
     7
100
AcDbLine
 10
31.6560934511
 20
6.520602115199999
 30
0.0
 11
31.9258419007
 21
6.520602115199999
 31
0.0
  0
LINE
  5
39C
330
241
100
AcDbEntity
  8
___SYMBOL
  6
Continuous
 62
     7
100
AcDbLine
 10
31.6560934511
 20
6.769128542299999
 30
0.0
 11
31.9258419007
 21
6.769128542299999
 31
0.0
  0
ENDBLK
  5
39D
330
241
100
AcDbEntity
  8
0
  6
ByBlock
 62
     0
100
AcDbBlockEnd
  0
BLOCK
  5
39E
330
242
100
AcDbEntity
  8
___SYMBOL
  6
Continuous
 62
     2
100
AcDbBlockBegin
  2
CHARACTERISTIC_BL7
 70
     0
 10
5.2634279336
 20
10.886686545
 30
0.0
  3
CHARACTERISTIC_BL7
  1

  0
TEXT
  5
39F
330
242
100
AcDbEntity
  8
___SYMBOL
  6
Continuous
 62
     2
100
AcDbText
 10
5.2035083657
 20
10.9443109568
 30
0.0
 40
0.1562499713
  1
2
 41
0.8
100
AcDbText
  0
LINE
  5
3A0
330
242
100
AcDbEntity
  8
___SYMBOL
  6
Continuous
 62
     7
100
AcDbLine
 10
5.398302158399999
 20
11.147113545
 30
0.0
 11
5.398302158399999
 21
10.626259545
 31
0.0
  0
LINE
  5
3A1
330
242
100
AcDbEntity
  8
___SYMBOL
  6
Continuous
 62
     7
100
AcDbLine
 10
5.398302158399999
 20
10.626259545
 30
0.0
 11
5.1285537089
 21
10.626259545
 31
0.0
  0
LINE
  5
3A2
330
242
100
AcDbEntity
  8
___SYMBOL
  6
Continuous
 62
     7
100
AcDbLine
 10
5.1285537089
 20
10.626259545
 30
0.0
 11
5.1285537089
 21
11.147113545
 31
0.0
  0
LINE
  5
3A3
330
242
100
AcDbEntity
  8
___SYMBOL
  6
Continuous
 62
     7
100
AcDbLine
 10
5.1285537089
 20
10.8985871178
 30
0.0
 11
5.398302158399999
 21
10.8985871178
 31
0.0
  0
LINE
  5
3A4
330
242
100
AcDbEntity
  8
___SYMBOL
  6
Continuous
 62
     7
100
AcDbLine
 10
5.1285537089
 20
11.147113545
 30
0.0
 11
5.398302158399999
 21
11.147113545
 31
0.0
  0
ENDBLK
  5
3A5
330
242
100
AcDbEntity
  8
0
  6
ByBlock
 62
     0
100
AcDbBlockEnd
  0
BLOCK
  5
3A6
330
243
100
AcDbEntity
  8
___SYMBOL
  6
Continuous
 62
     2
100
AcDbBlockBegin
  2
CENTER_BL8
 70
     0
 10
17.3155852232
 20
15.3648499947
 30
0.0
  3
CENTER_BL8
  1

  0
LINE
  5
3A7
330
243
100
AcDbEntity
  8
___SYMBOL
  6
Continuous
 62
     2
100
AcDbLine
 10
17.1905852232
 20
15.3648499947
 30
0.0
 11
17.4405852232
 21
15.3648499947
 31
0.0
  0
LINE
  5
3A8
330
243
100
AcDbEntity
  8
___SYMBOL
  6
Continuous
 62
     2
100
AcDbLine
 10
17.3155852232
 20
15.4898499947
 30
0.0
 11
17.3155852232
 21
15.2398499947
 31
0.0
  0
ENDBLK
  5
3A9
330
243
100
AcDbEntity
  8
0
  6
ByBlock
 62
     0
100
AcDbBlockEnd
  0
BLOCK
  5
3AA
330
244
100
AcDbEntity
  8
___SYMBOL
  6
Continuous
 62
     2
100
AcDbBlockBegin
  2
CENTER_BL9
 70
     0
 10
21.2648248965
 20
14.9865094854
 30
0.0
  3
CENTER_BL9
  1

  0
LINE
  5
3AB
330
244
100
AcDbEntity
  8
___SYMBOL
  6
Continuous
 62
     2
100
AcDbLine
 10
21.1398248965
 20
14.9865094854
 30
0.0
 11
21.3898248965
 21
14.9865094854
 31
0.0
  0
LINE
  5
3AC
330
244
100
AcDbEntity
  8
___SYMBOL
  6
Continuous
 62
     2
100
AcDbLine
 10
21.2648248965
 20
15.1115094854
 30
0.0
 11
21.2648248965
 21
14.8615094854
 31
0.0
  0
ENDBLK
  5
3AD
330
244
100
AcDbEntity
  8
0
  6
ByBlock
 62
     0
100
AcDbBlockEnd
  0
BLOCK
  5
3AE
330
245
100
AcDbEntity
  8
___SYMBOL
  6
Continuous
 62
     2
100
AcDbBlockBegin
  2
CENTER_BL10
 70
     0
 10
21.0877896746
 20
13.9207684813
 30
0.0
  3
CENTER_BL10
  1

  0
LINE
  5
3AF
330
245
100
AcDbEntity
  8
___SYMBOL
  6
Continuous
 62
     2
100
AcDbLine
 10
20.9627896746
 20
13.9207684813
 30
0.0
 11
21.2127896746
 21
13.9207684813
 31
0.0
  0
LINE
  5
3B0
330
245
100
AcDbEntity
  8
___SYMBOL
  6
Continuous
 62
     2
100
AcDbLine
 10
21.0877896746
 20
14.0457684813
 30
0.0
 11
21.0877896746
 21
13.7957684813
 31
0.0
  0
ENDBLK
  5
3B1
330
245
100
AcDbEntity
  8
0
  6
ByBlock
 62
     0
100
AcDbBlockEnd
  0
BLOCK
  5
3B2
330
246
100
AcDbEntity
  8
___SYMBOL
  6
Continuous
 62
     2
100
AcDbBlockBegin
  2
CENTER_BL11
 70
     0
 10
15.8154374802
 20
11.7986640812
 30
0.0
  3
CENTER_BL11
  1

  0
LINE
  5
3B3
330
246
100
AcDbEntity
  8
___SYMBOL
  6
Continuous
 62
     2
100
AcDbLine
 10
15.6904374802
 20
11.7986640812
 30
0.0
 11
15.9404374802
 21
11.7986640812
 31
0.0
  0
LINE
  5
3B4
330
246
100
AcDbEntity
  8
___SYMBOL
  6
Continuous
 62
     2
100
AcDbLine
 10
15.8154374802
 20
11.9236640812
 30
0.0
 11
15.8154374802
 21
11.6736640812
 31
0.0
  0
ENDBLK
  5
3B5
330
246
100
AcDbEntity
  8
0
  6
ByBlock
 62
     0
100
AcDbBlockEnd
  0
BLOCK
  5
3B6
330
247
100
AcDbEntity
  8
___SYMBOL
  6
Continuous
 62
     2
100
AcDbBlockBegin
  2
CENTER_BL12
 70
     0
 10
15.8148714483
 20
15.3629671898
 30
0.0
  3
CENTER_BL12
  1

  0
LINE
  5
3B7
330
247
100
AcDbEntity
  8
___SYMBOL
  6
Continuous
 62
     2
100
AcDbLine
 10
15.6898714483
 20
15.3629671898
 30
0.0
 11
15.9398714483
 21
15.3629671898
 31
0.0
  0
LINE
  5
3B8
330
247
100
AcDbEntity
  8
___SYMBOL
  6
Continuous
 62
     2
100
AcDbLine
 10
15.8148714483
 20
15.4879671898
 30
0.0
 11
15.8148714483
 21
15.2379671898
 31
0.0
  0
ENDBLK
  5
3B9
330
247
100
AcDbEntity
  8
0
  6
ByBlock
 62
     0
100
AcDbBlockEnd
  0
BLOCK
  5
3BA
330
248
100
AcDbEntity
  8
___SYMBOL
  6
Continuous
 62
     2
100
AcDbBlockBegin
  2
DELTA_BL13
 70
     0
 10
28.224444308
 20
2.3656932443
 30
0.0
  3
DELTA_BL13
  1

  0
TEXT
  5
3BB
330
248
100
AcDbEntity
  8
___SYMBOL
  6
Continuous
 62
     2
100
AcDbText
 10
28.1544102219
 20
2.242050107099999
 30
0.0
 40
0.15625
  1
D
 41
0.8
100
AcDbText
  0
LINE
  5
3BC
330
248
100
AcDbEntity
  8
___SYMBOL
  6
Continuous
 62
     7
100
AcDbLine
 10
28.449215779
 20
2.189951244299999
 30
0.0
 11
27.999672837
 21
2.189951244299999
 31
0.0
  0
LINE
  5
3BD
330
248
100
AcDbEntity
  8
___SYMBOL
  6
Continuous
 62
     7
100
AcDbLine
 10
27.999672837
 20
2.189951244299999
 30
0.0
 11
28.2148931123
 21
2.5414352443
 31
0.0
  0
LINE
  5
3BE
330
248
100
AcDbEntity
  8
___SYMBOL
  6
Continuous
 62
     7
100
AcDbLine
 10
28.2148931123
 20
2.5414352443
 30
0.0
 11
28.449215779
 21
2.189951244299999
 31
0.0
  0
ENDBLK
  5
3BF
330
248
100
AcDbEntity
  8
0
  6
ByBlock
 62
     0
100
AcDbBlockEnd
  0
BLOCK
  5
3C0
330
249
100
AcDbEntity
  8
___SYMBOL
  6
Continuous
 62
     2
100
AcDbBlockBegin
  2
CHARACTERISTIC_BL14
 70
     0
 10
26.6731377555
 20
16.473046589
 30
0.0
  3
CHARACTERISTIC_BL14
  1

  0
TEXT
  5
3C1
330
249
100
AcDbEntity
  8
___SYMBOL
  6
Continuous
 62
     2
100
AcDbText
 10
26.6132181876
 20
16.5306710009
 30
0.0
 40
0.1562499713
  1
6
 41
0.8
100
AcDbText
  0
LINE
  5
3C2
330
249
100
AcDbEntity
  8
___SYMBOL
  6
Continuous
 62
     7
100
AcDbLine
 10
26.8080119803
 20
16.733473589
 30
0.0
 11
26.8080119803
 21
16.212619589
 31
0.0
  0
LINE
  5
3C3
330
249
100
AcDbEntity
  8
___SYMBOL
  6
Continuous
 62
     7
100
AcDbLine
 10
26.8080119803
 20
16.212619589
 30
0.0
 11
26.5382635307
 21
16.212619589
 31
0.0
  0
LINE
  5
3C4
330
249
100
AcDbEntity
  8
___SYMBOL
  6
Continuous
 62
     7
100
AcDbLine
 10
26.5382635307
 20
16.212619589
 30
0.0
 11
26.5382635307
 21
16.733473589
 31
0.0
  0
LINE
  5
3C5
330
249
100
AcDbEntity
  8
___SYMBOL
  6
Continuous
 62
     7
100
AcDbLine
 10
26.5382635307
 20
16.4849471619
 30
0.0
 11
26.8080119803
 21
16.4849471619
 31
0.0
  0
LINE
  5
3C6
330
249
100
AcDbEntity
  8
___SYMBOL
  6
Continuous
 62
     7
100
AcDbLine
 10
26.5382635307
 20
16.733473589
 30
0.0
 11
26.8080119803
 21
16.733473589
 31
0.0
  0
ENDBLK
  5
3C7
330
249
100
AcDbEntity
  8
0
  6
ByBlock
 62
     0
100
AcDbBlockEnd
  0
BLOCK
  5
3C8
330
24A
100
AcDbEntity
  8
___SYMBOL
  6
Continuous
 62
     2
100
AcDbBlockBegin
  2
CHARACTERISTIC_BL15
 70
     0
 10
16.4858190426
 20
20.3830630437
 30
0.0
  3
CHARACTERISTIC_BL15
  1

  0
TEXT
  5
3C9
330
24A
100
AcDbEntity
  8
___SYMBOL
  6
Continuous
 62
     2
100
AcDbText
 10
16.4258994747
 20
20.4406874556
 30
0.0
 40
0.1562499713
  1
1
 41
0.8
100
AcDbText
  0
LINE
  5
3CA
330
24A
100
AcDbEntity
  8
___SYMBOL
  6
Continuous
 62
     7
100
AcDbLine
 10
16.6206932674
 20
20.6434900437
 30
0.0
 11
16.6206932674
 21
20.1226360437
 31
0.0
  0
LINE
  5
3CB
330
24A
100
AcDbEntity
  8
___SYMBOL
  6
Continuous
 62
     7
100
AcDbLine
 10
16.6206932674
 20
20.1226360437
 30
0.0
 11
16.3509448178
 21
20.1226360437
 31
0.0
  0
LINE
  5
3CC
330
24A
100
AcDbEntity
  8
___SYMBOL
  6
Continuous
 62
     7
100
AcDbLine
 10
16.3509448178
 20
20.1226360437
 30
0.0
 11
16.3509448178
 21
20.6434900437
 31
0.0
  0
LINE
  5
3CD
330
24A
100
AcDbEntity
  8
___SYMBOL
  6
Continuous
 62
     7
100
AcDbLine
 10
16.3509448178
 20
20.3949636166
 30
0.0
 11
16.6206932674
 21
20.3949636166
 31
0.0
  0
LINE
  5
3CE
330
24A
100
AcDbEntity
  8
___SYMBOL
  6
Continuous
 62
     7
100
AcDbLine
 10
16.3509448178
 20
20.6434900437
 30
0.0
 11
16.6206932674
 21
20.6434900437
 31
0.0
  0
ENDBLK
  5
3CF
330
24A
100
AcDbEntity
  8
0
  6
ByBlock
 62
     0
100
AcDbBlockEnd
  0
BLOCK
  5
3D0
330
24B
100
AcDbEntity
  8
___SYMBOL
  6
Continuous
 62
     2
100
AcDbBlockBegin
  2
CHARACTERISTIC_BL16
 70
     0
 10
9.306872567999999
 20
18.2612560737
 30
0.0
  3
CHARACTERISTIC_BL16
  1

  0
TEXT
  5
3D1
330
24B
100
AcDbEntity
  8
___SYMBOL
  6
Continuous
 62
     2
100
AcDbText
 10
9.246953000099999
 20
18.3188804855
 30
0.0
 40
0.1562499713
  1
3
 41
0.8
100
AcDbText
  0
LINE
  5
3D2
330
24B
100
AcDbEntity
  8
___SYMBOL
  6
Continuous
 62
     7
100
AcDbLine
 10
9.4417467928
 20
18.5216830737
 30
0.0
 11
9.4417467928
 21
18.0008290737
 31
0.0
  0
LINE
  5
3D3
330
24B
100
AcDbEntity
  8
___SYMBOL
  6
Continuous
 62
     7
100
AcDbLine
 10
9.4417467928
 20
18.0008290737
 30
0.0
 11
9.1719983432
 21
18.0008290737
 31
0.0
  0
LINE
  5
3D4
330
24B
100
AcDbEntity
  8
___SYMBOL
  6
Continuous
 62
     7
100
AcDbLine
 10
9.1719983432
 20
18.0008290737
 30
0.0
 11
9.1719983432
 21
18.5216830737
 31
0.0
  0
LINE
  5
3D5
330
24B
100
AcDbEntity
  8
___SYMBOL
  6
Continuous
 62
     7
100
AcDbLine
 10
9.1719983432
 20
18.2731566465
 30
0.0
 11
9.4417467928
 21
18.2731566465
 31
0.0
  0
LINE
  5
3D6
330
24B
100
AcDbEntity
  8
___SYMBOL
  6
Continuous
 62
     7
100
AcDbLine
 10
9.1719983432
 20
18.5216830737
 30
0.0
 11
9.4417467928
 21
18.5216830737
 31
0.0
  0
ENDBLK
  5
3D7
330
24B
100
AcDbEntity
  8
0
  6
ByBlock
 62
     0
100
AcDbBlockEnd
  0
BLOCK
  5
3D8
330
226
100
AcDbEntity
  8
0
100
AcDbBlockBegin
  2
_FILLED
 70
     0
 10
0.0
 20
0.0
 30
0.0
  3
_FILLED
  1

  0
SOLID
  5
3D9
330
226
100
AcDbEntity
  8
0
  6
ByBlock
 62
     0
100
AcDbTrace
 10
0.0
 20
0.0
 30
0.0
 11
-1.0
 21
0.1666666667
 31
0.0
 12
-1.0
 22
-0.1666666667
 32
0.0
 13
-1.0
 23
-0.1666666667
 33
0.0
  0
ENDBLK
  5
3DA
330
226
100
AcDbEntity
  8
0
  6
ByBlock
 62
     0
100
AcDbBlockEnd
  0
BLOCK
  5
5EE
330
5EC
100
AcDbEntity
  8
0
370
     0
100
AcDbBlockBegin
  2
GENAXEH
 70
     0
 10
0.0
 20
0.0
 30
0.0
  3
GENAXEH
  1

  0
LINE
  5
5ED
330
5EC
100
AcDbEntity
  8
0
100
AcDbLine
 10
-1.0
 20
0.0
 30
0.0
 11
1.0
 21
0.0
 31
0.0
  0
ENDBLK
  5
5EF
330
5EC
100
AcDbEntity
  8
0
370
     0
100
AcDbBlockEnd
  0
BLOCK
  5
73E
330
73D
100
AcDbEntity
  8
___SYMBOL
  6
Continuous
 62
     2
100
AcDbBlockBegin
  2
CENTER_BL7
 70
     0
 10
17.8635695496
 20
16.4209190709
 30
0.0
  3
CENTER_BL7
  1

  0
LINE
  5
73F
330
73D
100
AcDbEntity
  8
___SYMBOL
  6
Continuous
 62
     2
100
AcDbLine
 10
17.7385695496
 20
16.4209190709
 30
0.0
 11
17.9885695496
 21
16.4209190709
 31
0.0
  0
LINE
  5
740
330
73D
100
AcDbEntity
  8
___SYMBOL
  6
Continuous
 62
     2
100
AcDbLine
 10
17.8635695496
 20
16.5459190709
 30
0.0
 11
17.8635695496
 21
16.2959190709
 31
0.0
  0
ENDBLK
  5
741
330
73D
100
AcDbEntity
  8
0
  6
ByBlock
 62
     0
100
AcDbBlockEnd
  0
BLOCK
  5
743
330
742
100
AcDbEntity
  8
___SYMBOL
  6
Continuous
 62
     2
100
AcDbBlockBegin
  2
CHARACTERISTIC_BL10
 70
     0
 10
18.1096139415
 20
7.646059823099999
 30
0.0
  3
CHARACTERISTIC_BL10
  1

  0
TEXT
  5
744
330
742
100
AcDbEntity
  8
___SYMBOL
  6
Continuous
 62
     2
100
AcDbText
 10
17.987194385
 20
7.703684234899999
 30
0.0
 40
0.1562499713
  1
14
 41
0.8
100
AcDbText
  0
LINE
  5
745
330
742
100
AcDbEntity
  8
___SYMBOL
  6
Continuous
 62
     7
100
AcDbLine
 10
18.2444881663
 20
7.906486823099999
 30
0.0
 11
18.2444881663
 21
7.385632823099999
 31
0.0
  0
LINE
  5
746
330
742
100
AcDbEntity
  8
___SYMBOL
  6
Continuous
 62
     7
100
AcDbLine
 10
18.2444881663
 20
7.385632823099999
 30
0.0
 11
17.9747397167
 21
7.385632823099999
 31
0.0
  0
LINE
  5
747
330
742
100
AcDbEntity
  8
___SYMBOL
  6
Continuous
 62
     7
100
AcDbLine
 10
17.9747397167
 20
7.385632823099999
 30
0.0
 11
17.9747397167
 21
7.906486823099999
 31
0.0
  0
LINE
  5
748
330
742
100
AcDbEntity
  8
___SYMBOL
  6
Continuous
 62
     7
100
AcDbLine
 10
17.9747397167
 20
7.657960395899999
 30
0.0
 11
18.2444881663
 21
7.657960395899999
 31
0.0
  0
LINE
  5
749
330
742
100
AcDbEntity
  8
___SYMBOL
  6
Continuous
 62
     7
100
AcDbLine
 10
17.9747397167
 20
7.906486823099999
 30
0.0
 11
18.2444881663
 21
7.906486823099999
 31
0.0
  0
ENDBLK
  5
74A
330
742
100
AcDbEntity
  8
0
  6
ByBlock
 62
     0
100
AcDbBlockEnd
  0
BLOCK
  5
74C
330
74B
100
AcDbEntity
  8
___SYMBOL
  6
Continuous
 62
     2
100
AcDbBlockBegin
  2
CHARACTERISTIC_BL11
 70
     0
 10
13.3778656459
 20
8.040372181
 30
0.0
  3
CHARACTERISTIC_BL11
  1

  0
TEXT
  5
74D
330
74B
100
AcDbEntity
  8
___SYMBOL
  6
Continuous
 62
     2
100
AcDbText
 10
13.3179460779
 20
8.097996592899999
 30
0.0
 40
0.1562499713
  1
7
 41
0.8
100
AcDbText
  0
LINE
  5
74E
330
74B
100
AcDbEntity
  8
___SYMBOL
  6
Continuous
 62
     7
100
AcDbLine
 10
13.5127398707
 20
8.300799181
 30
0.0
 11
13.5127398707
 21
7.779945181
 31
0.0
  0
LINE
  5
74F
330
74B
100
AcDbEntity
  8
___SYMBOL
  6
Continuous
 62
     7
100
AcDbLine
 10
13.5127398707
 20
7.779945181
 30
0.0
 11
13.2429914211
 21
7.779945181
 31
0.0
  0
LINE
  5
750
330
74B
100
AcDbEntity
  8
___SYMBOL
  6
Continuous
 62
     7
100
AcDbLine
 10
13.2429914211
 20
7.779945181
 30
0.0
 11
13.2429914211
 21
8.300799181
 31
0.0
  0
LINE
  5
751
330
74B
100
AcDbEntity
  8
___SYMBOL
  6
Continuous
 62
     7
100
AcDbLine
 10
13.2429914211
 20
8.0522727539
 30
0.0
 11
13.5127398707
 21
8.0522727539
 31
0.0
  0
LINE
  5
752
330
74B
100
AcDbEntity
  8
___SYMBOL
  6
Continuous
 62
     7
100
AcDbLine
 10
13.2429914211
 20
8.300799181
 30
0.0
 11
13.5127398707
 21
8.300799181
 31
0.0
  0
ENDBLK
  5
753
330
74B
100
AcDbEntity
  8
0
  6
ByBlock
 62
     0
100
AcDbBlockEnd
  0
BLOCK
  5
755
330
754
100
AcDbEntity
  8
___SYMBOL
  6
Continuous
 62
     2
100
AcDbBlockBegin
  2
CHARACTERISTIC_BL12
 70
     0
 10
8.908675524999999
 20
13.3889681914
 30
0.0
  3
CHARACTERISTIC_BL12
  1

  0
TEXT
  5
756
330
754
100
AcDbEntity
  8
___SYMBOL
  6
Continuous
 62
     2
100
AcDbText
 10
8.848755956999999
 20
13.4465926033
 30
0.0
 40
0.1562499713
  1
4
 41
0.8
100
AcDbText
  0
LINE
  5
757
330
754
100
AcDbEntity
  8
___SYMBOL
  6
Continuous
 62
     7
100
AcDbLine
 10
9.0435497498
 20
13.6493951914
 30
0.0
 11
9.0435497498
 21
13.1285411914
 31
0.0
  0
LINE
  5
758
330
754
100
AcDbEntity
  8
___SYMBOL
  6
Continuous
 62
     7
100
AcDbLine
 10
9.0435497498
 20
13.1285411914
 30
0.0
 11
8.7738013002
 21
13.1285411914
 31
0.0
  0
LINE
  5
759
330
754
100
AcDbEntity
  8
___SYMBOL
  6
Continuous
 62
     7
100
AcDbLine
 10
8.7738013002
 20
13.1285411914
 30
0.0
 11
8.7738013002
 21
13.6493951914
 31
0.0
  0
LINE
  5
75A
330
754
100
AcDbEntity
  8
___SYMBOL
  6
Continuous
 62
     7
100
AcDbLine
 10
8.7738013002
 20
13.4008687643
 30
0.0
 11
9.0435497498
 21
13.4008687643
 31
0.0
  0
LINE
  5
75B
330
754
100
AcDbEntity
  8
___SYMBOL
  6
Continuous
 62
     7
100
AcDbLine
 10
8.7738013002
 20
13.6493951914
 30
0.0
 11
9.0435497498
 21
13.6493951914
 31
0.0
  0
ENDBLK
  5
75C
330
754
100
AcDbEntity
  8
0
  6
ByBlock
 62
     0
100
AcDbBlockEnd
  0
BLOCK
  5
75E
330
75D
100
AcDbEntity
  8
___SYMBOL
  6
Continuous
 62
     2
100
AcDbBlockBegin
  2
CHARACTERISTIC_BL13
 70
     0
 10
15.4949535459
 20
14.4329272076
 30
0.0
  3
CHARACTERISTIC_BL13
  1

  0
TEXT
  5
75F
330
75D
100
AcDbEntity
  8
___SYMBOL
  6
Continuous
 62
     2
100
AcDbText
 10
15.3725339895
 20
14.4905516195
 30
0.0
 40
0.1562499713
  1
10
 41
0.8
100
AcDbText
  0
LINE
  5
760
330
75D
100
AcDbEntity
  8
___SYMBOL
  6
Continuous
 62
     7
100
AcDbLine
 10
15.6298277707
 20
14.6933542076
 30
0.0
 11
15.6298277707
 21
14.1725002076
 31
0.0
  0
LINE
  5
761
330
75D
100
AcDbEntity
  8
___SYMBOL
  6
Continuous
 62
     7
100
AcDbLine
 10
15.6298277707
 20
14.1725002076
 30
0.0
 11
15.3600793211
 21
14.1725002076
 31
0.0
  0
LINE
  5
762
330
75D
100
AcDbEntity
  8
___SYMBOL
  6
Continuous
 62
     7
100
AcDbLine
 10
15.3600793211
 20
14.1725002076
 30
0.0
 11
15.3600793211
 21
14.6933542076
 31
0.0
  0
LINE
  5
763
330
75D
100
AcDbEntity
  8
___SYMBOL
  6
Continuous
 62
     7
100
AcDbLine
 10
15.3600793211
 20
14.4448277805
 30
0.0
 11
15.6298277707
 21
14.4448277805
 31
0.0
  0
LINE
  5
764
330
75D
100
AcDbEntity
  8
___SYMBOL
  6
Continuous
 62
     7
100
AcDbLine
 10
15.3600793211
 20
14.6933542076
 30
0.0
 11
15.6298277707
 21
14.6933542076
 31
0.0
  0
ENDBLK
  5
765
330
75D
100
AcDbEntity
  8
0
  6
ByBlock
 62
     0
100
AcDbBlockEnd
  0
BLOCK
  5
767
330
766
100
AcDbEntity
  8
___SYMBOL
  6
Continuous
 62
     2
100
AcDbBlockBegin
  2
CHARACTERISTIC_BL17
 70
     0
 10
16.2072037969
 20
10.5990806164
 30
0.0
  3
CHARACTERISTIC_BL17
  1

  0
TEXT
  5
768
330
766
100
AcDbEntity
  8
___SYMBOL
  6
Continuous
 62
     2
100
AcDbText
 10
16.0847842405
 20
10.6567050283
 30
0.0
 40
0.1562499713
  1
15
 41
0.8
100
AcDbText
  0
LINE
  5
769
330
766
100
AcDbEntity
  8
___SYMBOL
  6
Continuous
 62
     7
100
AcDbLine
 10
16.3420780217
 20
10.8595076164
 30
0.0
 11
16.3420780217
 21
10.3386536164
 31
0.0
  0
LINE
  5
76A
330
766
100
AcDbEntity
  8
___SYMBOL
  6
Continuous
 62
     7
100
AcDbLine
 10
16.3420780217
 20
10.3386536164
 30
0.0
 11
16.0723295721
 21
10.3386536164
 31
0.0
  0
LINE
  5
76B
330
766
100
AcDbEntity
  8
___SYMBOL
  6
Continuous
 62
     7
100
AcDbLine
 10
16.0723295721
 20
10.3386536164
 30
0.0
 11
16.0723295721
 21
10.8595076164
 31
0.0
  0
LINE
  5
76C
330
766
100
AcDbEntity
  8
___SYMBOL
  6
Continuous
 62
     7
100
AcDbLine
 10
16.0723295721
 20
10.6109811893
 30
0.0
 11
16.3420780217
 21
10.6109811893
 31
0.0
  0
LINE
  5
76D
330
766
100
AcDbEntity
  8
___SYMBOL
  6
Continuous
 62
     7
100
AcDbLine
 10
16.0723295721
 20
10.8595076164
 30
0.0
 11
16.3420780217
 21
10.8595076164
 31
0.0
  0
ENDBLK
  5
76E
330
766
100
AcDbEntity
  8
0
  6
ByBlock
 62
     0
100
AcDbBlockEnd
  0
BLOCK
  5
770
330
76F
100
AcDbEntity
  8
___SYMBOL
  6
Continuous
 62
     2
100
AcDbBlockBegin
  2
CHARACTERISTIC_BL18
 70
     0
 10
19.7217144408
 20
12.6590456273
 30
0.0
  3
CHARACTERISTIC_BL18
  1

  0
TEXT
  5
771
330
76F
100
AcDbEntity
  8
___SYMBOL
  6
Continuous
 62
     2
100
AcDbText
 10
19.6617948729
 20
12.7166700391
 30
0.0
 40
0.1562499713
  1
5
 41
0.8
100
AcDbText
  0
LINE
  5
772
330
76F
100
AcDbEntity
  8
___SYMBOL
  6
Continuous
 62
     7
100
AcDbLine
 10
19.8565886656
 20
12.9194726273
 30
0.0
 11
19.8565886656
 21
12.3986186273
 31
0.0
  0
LINE
  5
773
330
76F
100
AcDbEntity
  8
___SYMBOL
  6
Continuous
 62
     7
100
AcDbLine
 10
19.8565886656
 20
12.3986186273
 30
0.0
 11
19.586840216
 21
12.3986186273
 31
0.0
  0
LINE
  5
774
330
76F
100
AcDbEntity
  8
___SYMBOL
  6
Continuous
 62
     7
100
AcDbLine
 10
19.586840216
 20
12.3986186273
 30
0.0
 11
19.586840216
 21
12.9194726273
 31
0.0
  0
LINE
  5
775
330
76F
100
AcDbEntity
  8
___SYMBOL
  6
Continuous
 62
     7
100
AcDbLine
 10
19.586840216
 20
12.6709462001
 30
0.0
 11
19.8565886656
 21
12.6709462001
 31
0.0
  0
LINE
  5
776
330
76F
100
AcDbEntity
  8
___SYMBOL
  6
Continuous
 62
     7
100
AcDbLine
 10
19.586840216
 20
12.9194726273
 30
0.0
 11
19.8565886656
 21
12.9194726273
 31
0.0
  0
ENDBLK
  5
777
330
76F
100
AcDbEntity
  8
0
  6
ByBlock
 62
     0
100
AcDbBlockEnd
  0
BLOCK
  5
EF0
330
EEF
100
AcDbEntity
  8
___SYMBOL
  6
Continuous
 62
     2
100
AcDbBlockBegin
  2
CHARACTERISTIC_BL8
 70
     0
 10
7.610087469899999
 20
9.772669992699999
 30
0.0
  3
CHARACTERISTIC_BL8
  1

  0
TEXT
  5
EF1
330
EEF
100
AcDbEntity
  8
___SYMBOL
  6
Continuous
 62
     2
100
AcDbText
 10
7.4876679135
 20
9.8302944046
 30
0.0
 40
0.1562499713
  1
11
 41
0.8
100
AcDbText
  0
LINE
  5
EF2
330
EEF
100
AcDbEntity
  8
___SYMBOL
  6
Continuous
 62
     7
100
AcDbLine
 10
7.744961694699999
 20
10.0330969927
 30
0.0
 11
7.744961694699999
 21
9.512242992699999
 31
0.0
  0
LINE
  5
EF3
330
EEF
100
AcDbEntity
  8
___SYMBOL
  6
Continuous
 62
     7
100
AcDbLine
 10
7.744961694699999
 20
9.512242992699999
 30
0.0
 11
7.475213245099999
 21
9.512242992699999
 31
0.0
  0
LINE
  5
EF4
330
EEF
100
AcDbEntity
  8
___SYMBOL
  6
Continuous
 62
     7
100
AcDbLine
 10
7.475213245099999
 20
9.512242992699999
 30
0.0
 11
7.475213245099999
 21
10.0330969927
 31
0.0
  0
LINE
  5
EF5
330
EEF
100
AcDbEntity
  8
___SYMBOL
  6
Continuous
 62
     7
100
AcDbLine
 10
7.475213245099999
 20
9.784570565599999
 30
0.0
 11
7.744961694699999
 21
9.784570565599999
 31
0.0
  0
LINE
  5
EF6
330
EEF
100
AcDbEntity
  8
___SYMBOL
  6
Continuous
 62
     7
100
AcDbLine
 10
7.475213245099999
 20
10.0330969927
 30
0.0
 11
7.744961694699999
 21
10.0330969927
 31
0.0
  0
ENDBLK
  5
EF7
330
EEF
100
AcDbEntity
  8
0
  6
ByBlock
 62
     0
100
AcDbBlockEnd
  0
BLOCK
  5
EF9
330
EF8
100
AcDbEntity
  8
___SYMBOL
  6
Continuous
 62
     2
100
AcDbBlockBegin
  2
CENTER_BL13
 70
     0
 10
24.7402539229
 20
14.2507876819
 30
0.0
  3
CENTER_BL13
  1

  0
LINE
  5
EFA
330
EF8
100
AcDbEntity
  8
___SYMBOL
  6
Continuous
 62
     2
100
AcDbLine
 10
24.6152539229
 20
14.2507876819
 30
0.0
 11
24.8652539229
 21
14.2507876819
 31
0.0
  0
LINE
  5
EFB
330
EF8
100
AcDbEntity
  8
___SYMBOL
  6
Continuous
 62
     2
100
AcDbLine
 10
24.7402539229
 20
14.3757876819
 30
0.0
 11
24.7402539229
 21
14.1257876819
 31
0.0
  0
ENDBLK
  5
EFC
330
EF8
100
AcDbEntity
  8
0
  6
ByBlock
 62
     0
100
AcDbBlockEnd
  0
BLOCK
  5
EFE
330
EFD
100
AcDbEntity
  8
___SYMBOL
  6
Continuous
 62
     2
100
AcDbBlockBegin
  2
DELTA_BL14
 70
     0
 10
14.6835414536
 20
11.0711281114
 30
0.0
  3
DELTA_BL14
  1

  0
TEXT
  5
EFF
330
EFD
100
AcDbEntity
  8
___SYMBOL
  6
Continuous
 62
     2
100
AcDbText
 10
14.6135073675
 20
10.9474849742
 30
0.0
 40
0.15625
  1
C
 41
0.8
100
AcDbText
  0
LINE
  5
F00
330
EFD
100
AcDbEntity
  8
___SYMBOL
  6
Continuous
 62
     7
100
AcDbLine
 10
14.9083129246
 20
10.8953861114
 30
0.0
 11
14.4587699826
 21
10.8953861114
 31
0.0
  0
LINE
  5
F01
330
EFD
100
AcDbEntity
  8
___SYMBOL
  6
Continuous
 62
     7
100
AcDbLine
 10
14.4587699826
 20
10.8953861114
 30
0.0
 11
14.6739902579
 21
11.2468701114
 31
0.0
  0
LINE
  5
F02
330
EFD
100
AcDbEntity
  8
___SYMBOL
  6
Continuous
 62
     7
100
AcDbLine
 10
14.6739902579
 20
11.2468701114
 30
0.0
 11
14.9083129246
 21
10.8953861114
 31
0.0
  0
ENDBLK
  5
F03
330
EFD
100
AcDbEntity
  8
0
  6
ByBlock
 62
     0
100
AcDbBlockEnd
  0
BLOCK
  5
164D
330
15C2
100
AcDbEntity
  8
0
370
     0
100
AcDbBlockBegin
  2
*D171
 70
     1
 10
0.0
 20
0.0
 30
0.0
  3
*D171
  1

  0
LINE
  5
169D
330
15C2
100
AcDbEntity
  8
0
  6
Continuous
 62
     0
370
    -2
100
AcDbLine
 10
139.9290798456299
 20
10.38174675524629
 30
0.0
 11
139.9290798456299
 21
12.26074377494628
 31
0.0
  0
LINE
  5
169E
330
15C2
100
AcDbEntity
  8
0
  6
Continuous
 62
     0
370
    -2
100
AcDbLine
 10
143.2990798456299
 20
10.38174675524629
 30
0.0
 11
143.2990798456299
 21
12.26074377494628
 31
0.0
  0
LINE
  5
169F
330
15C2
100
AcDbEntity
  8
0
  6
Continuous
 62
     0
370
    -2
100
AcDbLine
 10
140.1165798456299
 20
12.08074377494628
 30
0.0
 11
140.6513076351299
 21
12.08074377494628
 31
0.0
  0
LINE
  5
16A0
330
15C2
100
AcDbEntity
  8
0
  6
Continuous
 62
     0
370
    -2
100
AcDbLine
 10
143.1115798456299
 20
12.08074377494628
 30
0.0
 11
141.2063076351299
 21
12.08074377494628
 31
0.0
  0
INSERT
  5
16A1
330
15C2
100
AcDbEntity
  8
0
  6
Continuous
 62
     0
370
    -2
100
AcDbBlockReference
  2
_FILLED
 10
139.9290798456299
 20
12.08074377494628
 30
0.0
 41
0.1875
 42
0.1875
 43
0.1875
 50
180.0
  0
INSERT
  5
16A2
330
15C2
100
AcDbEntity
  8
0
  6
Continuous
 62
     0
370
    -2
100
AcDbBlockReference
  2
_FILLED
 10
143.2990798456299
 20
12.08074377494628
 30
0.0
 41
0.1875
 42
0.1875
 43
0.1875
  0
MTEXT
  5
16A3
330
15C2
100
AcDbEntity
  8
0
  6
Continuous
 62
     0
100
AcDbMText
 10
140.9288076351299
 20
12.08074377494628
 30
0.0
 40
0.15625
 41
0.0
 71
     5
 72
     1
  1
\A1;3.37
 73
     1
 44
1.0
  0
POINT
  5
16A4
330
15C2
100
AcDbEntity
  8
Defpoints
  6
Continuous
 62
     0
370
     0
100
AcDbPoint
 10
139.9290798456299
 20
10.3192467552463
 30
0.0
  0
POINT
  5
16A5
330
15C2
100
AcDbEntity
  8
Defpoints
  6
Continuous
 62
     0
370
     0
100
AcDbPoint
 10
143.2990798456299
 20
10.3192467552463
 30
0.0
  0
POINT
  5
16A6
330
15C2
100
AcDbEntity
  8
Defpoints
  6
Continuous
 62
     0
370
     0
100
AcDbPoint
 10
143.2990798456299
 20
12.08074377494628
 30
0.0
  0
ENDBLK
  5
164E
330
15C2
100
AcDbEntity
  8
0
370
     0
100
AcDbBlockEnd
  0
BLOCK
  5
164F
330
15CD
100
AcDbEntity
  8
0
370
     0
100
AcDbBlockBegin
  2
*D172
 70
     1
 10
0.0
 20
0.0
 30
0.0
  3
*D172
  1

  0
LINE
  5
16A7
330
15CD
100
AcDbEntity
  8
0
  6
Continuous
 62
     0
370
    -2
100
AcDbLine
 10
143.2915798456299
 20
15.59326829334628
 30
0.0
 11
143.2915798456299
 21
14.70287984364629
 31
0.0
  0
LINE
  5
16A8
330
15CD
100
AcDbEntity
  8
0
  6
Continuous
 62
     0
370
    -2
100
AcDbLine
 10
139.9365798456299
 20
15.59326829334628
 30
0.0
 11
139.9365798456299
 21
14.70287984364629
 31
0.0
  0
LINE
  5
16A9
330
15CD
100
AcDbEntity
  8
0
  6
Continuous
 62
     0
370
    -2
100
AcDbLine
 10
143.1040798456299
 20
14.88287984364629
 30
0.0
 11
141.8645748878299
 21
14.88287984364629
 31
0.0
  0
LINE
  5
16AA
330
15CD
100
AcDbEntity
  8
0
  6
Continuous
 62
     0
370
    -2
100
AcDbLine
 10
140.1240798456299
 20
14.88287984364629
 30
0.0
 11
141.3095748878299
 21
14.88287984364629
 31
0.0
  0
INSERT
  5
16AB
330
15CD
100
AcDbEntity
  8
0
  6
Continuous
 62
     0
370
    -2
100
AcDbBlockReference
  2
_FILLED
 10
143.2915798456299
 20
14.88287984364629
 30
0.0
 41
0.1875
 42
0.1875
 43
0.1875
  0
INSERT
  5
16AC
330
15CD
100
AcDbEntity
  8
0
  6
Continuous
 62
     0
370
    -2
100
AcDbBlockReference
  2
_FILLED
 10
139.9365798456299
 20
14.88287984364629
 30
0.0
 41
0.1875
 42
0.1875
 43
0.1875
 50
180.0
  0
MTEXT
  5
16AD
330
15CD
100
AcDbEntity
  8
0
  6
Continuous
 62
     0
100
AcDbMText
 10
141.5870748878299
 20
14.88287984364629
 30
0.0
 40
0.15625
 41
0.0
 71
     5
 72
     1
  1
\A1;3.35
 73
     1
 44
1.0
  0
POINT
  5
16AE
330
15CD
100
AcDbEntity
  8
Defpoints
  6
Continuous
 62
     0
370
     0
100
AcDbPoint
 10
143.2915798456299
 20
15.65576829334628
 30
0.0
  0
POINT
  5
16AF
330
15CD
100
AcDbEntity
  8
Defpoints
  6
Continuous
 62
     0
370
     0
100
AcDbPoint
 10
139.9365798456299
 20
15.65576829334628
 30
0.0
  0
POINT
  5
16B0
330
15CD
100
AcDbEntity
  8
Defpoints
  6
Continuous
 62
     0
370
     0
100
AcDbPoint
 10
139.9365798456299
 20
14.88287984364629
 30
0.0
  0
ENDBLK
  5
1650
330
15CD
100
AcDbEntity
  8
0
370
     0
100
AcDbBlockEnd
  0
BLOCK
  5
1651
330
15D8
100
AcDbEntity
  8
0
370
     0
100
AcDbBlockBegin
  2
*D173
 70
     1
 10
0.0
 20
0.0
 30
0.0
  3
*D173
  1

  0
LINE
  5
16B1
330
15D8
100
AcDbEntity
  8
0
  6
Continuous
 62
     0
370
    -2
100
AcDbLine
 10
140.0540798456299
 20
15.71826829334628
 30
0.0
 11
144.0970241263299
 21
15.71826829334628
 31
0.0
  0
LINE
  5
16B2
330
15D8
100
AcDbEntity
  8
0
  6
Continuous
 62
     0
370
    -2
100
AcDbLine
 10
140.0540798456299
 20
29.21826829334629
 30
0.0
 11
144.0970241263299
 21
29.21826829334629
 31
0.0
  0
LINE
  5
16B3
330
15D8
100
AcDbEntity
  8
0
  6
Continuous
 62
     0
370
    -2
100
AcDbLine
 10
143.9170241263299
 20
15.90576829334628
 30
0.0
 11
143.9170241263299
 21
22.68754989444626
 31
0.0
  0
LINE
  5
16B4
330
15D8
100
AcDbEntity
  8
0
  6
Continuous
 62
     0
370
    -2
100
AcDbLine
 10
143.9170241263299
 20
29.03076829334628
 30
0.0
 11
143.9170241263299
 21
23.02379989444625
 31
0.0
  0
INSERT
  5
16B5
330
15D8
100
AcDbEntity
  8
0
  6
Continuous
 62
     0
370
    -2
100
AcDbBlockReference
  2
_FILLED
 10
143.9170241263299
 20
15.71826829334628
 30
0.0
 41
0.1875
 42
0.1875
 43
0.1875
 50
270.0
  0
INSERT
  5
16B6
330
15D8
100
AcDbEntity
  8
0
  6
Continuous
 62
     0
370
    -2
100
AcDbBlockReference
  2
_FILLED
 10
143.9170241263299
 20
29.21826829334629
 30
0.0
 41
0.1875
 42
0.1875
 43
0.1875
 50
90.0
  0
MTEXT
  5
16B7
330
15D8
100
AcDbEntity
  8
0
  6
Continuous
 62
     0
100
AcDbMText
 10
143.9170241263299
 20
22.85567489444628
 30
0.0
 40
0.15625
 41
0.0
 71
     5
 72
     1
  1
\A1;13.50
 73
     1
 44
1.0
  0
POINT
  5
16B8
330
15D8
100
AcDbEntity
  8
Defpoints
  6
Continuous
 62
     0
370
     0
100
AcDbPoint
 10
139.9915798456299
 20
15.71826829334628
 30
0.0
  0
POINT
  5
16B9
330
15D8
100
AcDbEntity
  8
Defpoints
  6
Continuous
 62
     0
370
     0
100
AcDbPoint
 10
139.9915798456299
 20
29.21826829334629
 30
0.0
  0
POINT
  5
16BA
330
15D8
100
AcDbEntity
  8
Defpoints
  6
Continuous
 62
     0
370
     0
100
AcDbPoint
 10
143.9170241263299
 20
29.21826829334629
 30
0.0
  0
ENDBLK
  5
1652
330
15D8
100
AcDbEntity
  8
0
370
     0
100
AcDbBlockEnd
  0
BLOCK
  5
1653
330
15E3
100
AcDbEntity
  8
0
370
     0
100
AcDbBlockBegin
  2
*D174
 70
     1
 10
0.0
 20
0.0
 30
0.0
  3
*D174
  1

  0
LINE
  5
16BB
330
15E3
100
AcDbEntity
  8
0
  6
Continuous
 62
     0
370
    -2
100
AcDbLine
 10
139.7543123843299
 20
6.966376359346284
 30
0.0
 11
139.2222737768673
 21
6.966376359346277
 31
0.0
  0
LINE
  5
16BC
330
15E3
100
AcDbEntity
  8
0
  6
Continuous
 62
     0
370
    -2
100
AcDbLine
 10
139.2222737768673
 20
6.966376359346277
 30
0.0
 11
141.5621352438268
 21
8.531990340869221
 31
0.0
  0
MTEXT
  5
16BD
330
15E3
100
AcDbEntity
  8
0
  6
Continuous
 62
     0
100
AcDbMText
 10
140.0318123843299
 20
6.966376359346277
 30
0.0
 40
0.15625
 41
0.0
 71
     5
 72
     1
  1
\A1;\U+2205.25
 73
     1
 44
1.0
  0
INSERT
  5
16BE
330
15E3
100
AcDbEntity
  8
0
  6
Continuous
 62
     0
370
    -2
100
AcDbBlockReference
  2
_FILLED
 10
141.7179690492299
 20
8.636259584146309
 30
0.0
 41
0.1875
 42
0.1875
 43
0.1875
 50
33.78669487900475
  0
POINT
  5
16BF
330
15E3
100
AcDbEntity
  8
Defpoints
  6
Continuous
 62
     0
370
     0
100
AcDbPoint
 10
141.7179690492299
 20
8.636259584146309
 30
0.0
  0
POINT
  5
16C0
330
15E3
100
AcDbEntity
  8
Defpoints
  6
Continuous
 62
     0
370
     0
100
AcDbPoint
 10
141.5101906420299
 20
8.49723392644632
 30
0.0
  0
ENDBLK
  5
1654
330
15E3
100
AcDbEntity
  8
0
370
     0
100
AcDbBlockEnd
  0
BLOCK
  5
1655
330
15EA
100
AcDbEntity
  8
0
370
     0
100
AcDbBlockBegin
  2
*D175
 70
     1
 10
0.0
 20
0.0
 30
0.0
  3
*D175
  1

  0
LINE
  5
16C1
330
15EA
100
AcDbEntity
  8
0
  6
Continuous
 62
     0
370
    -2
100
AcDbLine
 10
143.2647961430299
 20
10.25674675524629
 30
0.0
 11
139.0592338067299
 21
10.2567467552463
 31
0.0
  0
LINE
  5
16C2
330
15EA
100
AcDbEntity
  8
0
  6
Continuous
 62
     0
370
    -2
100
AcDbLine
 10
141.2262299266299
 20
8.566746755246299
 30
0.0
 11
139.0592338067299
 21
8.566746755246301
 31
0.0
  0
LINE
  5
16C3
330
15EA
100
AcDbEntity
  8
0
  6
Continuous
 62
     0
370
    -2
100
AcDbLine
 10
139.2392338067299
 20
10.0692467552463
 30
0.0
 11
139.2392338067299
 21
9.613582326746271
 31
0.0
  0
LINE
  5
16C4
330
15EA
100
AcDbEntity
  8
0
  6
Continuous
 62
     0
370
    -2
100
AcDbLine
 10
139.2392338067299
 20
8.754246755246301
 30
0.0
 11
139.2392338067299
 21
9.277332326746272
 31
0.0
  0
INSERT
  5
16C5
330
15EA
100
AcDbEntity
  8
0
  6
Continuous
 62
     0
370
    -2
100
AcDbBlockReference
  2
_FILLED
 10
139.2392338067299
 20
10.2567467552463
 30
0.0
 41
0.1875
 42
0.1875
 43
0.1875
 50
90.0
  0
INSERT
  5
16C6
330
15EA
100
AcDbEntity
  8
0
  6
Continuous
 62
     0
370
    -2
100
AcDbBlockReference
  2
_FILLED
 10
139.2392338067299
 20
8.566746755246301
 30
0.0
 41
0.1875
 42
0.1875
 43
0.1875
 50
270.0
  0
MTEXT
  5
16C7
330
15EA
100
AcDbEntity
  8
0
  6
Continuous
 62
     0
100
AcDbMText
 10
139.2392338067299
 20
9.445457326746293
 30
0.0
 40
0.15625
 41
0.0
 71
     5
 72
     1
  1
\A1;1.69
 73
     1
 44
1.0
  0
POINT
  5
16C8
330
15EA
100
AcDbEntity
  8
Defpoints
  6
Continuous
 62
     0
370
     0
100
AcDbPoint
 10
143.3272961430299
 20
10.25674675524629
 30
0.0
  0
POINT
  5
16C9
330
15EA
100
AcDbEntity
  8
Defpoints
  6
Continuous
 62
     0
370
     0
100
AcDbPoint
 10
141.2887299266299
 20
8.566746755246299
 30
0.0
  0
POINT
  5
16CA
330
15EA
100
AcDbEntity
  8
Defpoints
  6
Continuous
 62
     0
370
     0
100
AcDbPoint
 10
139.2392338067299
 20
8.566746755246301
 30
0.0
  0
ENDBLK
  5
1656
330
15EA
100
AcDbEntity
  8
0
370
     0
100
AcDbBlockEnd
  0
BLOCK
  5
1657
330
15F5
100
AcDbEntity
  8
0
370
     0
100
AcDbBlockBegin
  2
*D176
 70
     1
 10
0.0
 20
0.0
 30
0.0
  3
*D176
  1

  0
LINE
  5
16CB
330
15F5
100
AcDbEntity
  8
0
  6
Continuous
 62
     0
370
    -2
100
AcDbLine
 10
141.1290798456299
 20
9.956746755246285
 30
0.0
 11
139.4906510408299
 21
9.956746755246287
 31
0.0
  0
LINE
  5
16CC
330
15F5
100
AcDbEntity
  8
0
  6
Continuous
 62
     0
370
    -2
100
AcDbLine
 10
141.1290798456299
 20
8.926746755246284
 30
0.0
 11
139.4906510408299
 21
8.926746755246286
 31
0.0
  0
LINE
  5
16CD
330
15F5
100
AcDbEntity
  8
0
  6
Continuous
 62
     0
370
    -2
100
AcDbLine
 10
139.6706510408299
 20
9.769246755246287
 30
0.0
 11
139.6706510408299
 21
9.613361803746276
 31
0.0
  0
LINE
  5
16CE
330
15F5
100
AcDbEntity
  8
0
  6
Continuous
 62
     0
370
    -2
100
AcDbLine
 10
139.6706510408299
 20
9.114246755246286
 30
0.0
 11
139.6706510408299
 21
9.277111803746276
 31
0.0
  0
INSERT
  5
16CF
330
15F5
100
AcDbEntity
  8
0
  6
Continuous
 62
     0
370
    -2
100
AcDbBlockReference
  2
_FILLED
 10
139.6706510408299
 20
9.956746755246287
 30
0.0
 41
0.1875
 42
0.1875
 43
0.1875
 50
90.0
  0
INSERT
  5
16D0
330
15F5
100
AcDbEntity
  8
0
  6
Continuous
 62
     0
370
    -2
100
AcDbBlockReference
  2
_FILLED
 10
139.6706510408299
 20
8.926746755246286
 30
0.0
 41
0.1875
 42
0.1875
 43
0.1875
 50
270.0
  0
MTEXT
  5
16D1
330
15F5
100
AcDbEntity
  8
0
  6
Continuous
 62
     0
100
AcDbMText
 10
139.6706510408299
 20
9.445236803746297
 30
0.0
 40
0.15625
 41
0.0
 71
     5
 72
     1
  1
\A1;1.03
 73
     1
 44
1.0
  0
POINT
  5
16D2
330
15F5
100
AcDbEntity
  8
Defpoints
  6
Continuous
 62
     0
370
     0
100
AcDbPoint
 10
141.1915798456299
 20
9.956746755246285
 30
0.0
  0
POINT
  5
16D3
330
15F5
100
AcDbEntity
  8
Defpoints
  6
Continuous
 62
     0
370
     0
100
AcDbPoint
 10
141.1915798456299
 20
8.926746755246284
 30
0.0
  0
POINT
  5
16D4
330
15F5
100
AcDbEntity
  8
Defpoints
  6
Continuous
 62
     0
370
     0
100
AcDbPoint
 10
139.6706510408299
 20
8.926746755246286
 30
0.0
  0
ENDBLK
  5
1658
330
15F5
100
AcDbEntity
  8
0
370
     0
100
AcDbBlockEnd
  0
BLOCK
  5
1659
330
1600
100
AcDbEntity
  8
0
370
     0
100
AcDbBlockBegin
  2
*D177
 70
     1
 10
0.0
 20
0.0
 30
0.0
  3
*D177
  1

  0
LINE
  5
16D5
330
1600
100
AcDbEntity
  8
0
  6
Continuous
 62
     0
370
    -2
100
AcDbLine
 10
140.7390798456299
 20
9.566746755246299
 30
0.0
 11
140.7390798456299
 21
11.32269630094628
 31
0.0
  0
LINE
  5
16D6
330
1600
100
AcDbEntity
  8
0
  6
Continuous
 62
     0
370
    -2
100
AcDbLine
 10
142.4890798456299
 20
9.566746755246299
 30
0.0
 11
142.4890798456299
 21
11.32269630094628
 31
0.0
  0
LINE
  5
16D7
330
1600
100
AcDbEntity
  8
0
  6
Continuous
 62
     0
370
    -2
100
AcDbLine
 10
140.9265798456299
 20
11.14269630094628
 30
0.0
 11
141.2882502748633
 21
11.14269630094628
 31
0.0
  0
LINE
  5
16D8
330
1600
100
AcDbEntity
  8
0
  6
Continuous
 62
     0
370
    -2
100
AcDbLine
 10
142.3015798456299
 20
11.14269630094628
 30
0.0
 11
141.8015836081966
 21
11.14269630094628
 31
0.0
  0
INSERT
  5
16D9
330
1600
100
AcDbEntity
  8
0
  6
Continuous
 62
     0
370
    -2
100
AcDbBlockReference
  2
_FILLED
 10
140.7390798456299
 20
11.14269630094628
 30
0.0
 41
0.1875
 42
0.1875
 43
0.1875
 50
180.0
  0
INSERT
  5
16DA
330
1600
100
AcDbEntity
  8
0
  6
Continuous
 62
     0
370
    -2
100
AcDbBlockReference
  2
_FILLED
 10
142.4890798456299
 20
11.14269630094628
 30
0.0
 41
0.1875
 42
0.1875
 43
0.1875
  0
MTEXT
  5
16DB
330
1600
100
AcDbEntity
  8
0
  6
Continuous
 62
     0
100
AcDbMText
 10
141.5449169415299
 20
11.14269630094628
 30
0.0
 40
0.15625
 41
0.0
 71
     5
 72
     1
  1
\A1;1.75
 73
     1
 44
1.0
  0
POINT
  5
16DC
330
1600
100
AcDbEntity
  8
Defpoints
  6
Continuous
 62
     0
370
     0
100
AcDbPoint
 10
140.7390798456299
 20
9.504246755246299
 30
0.0
  0
POINT
  5
16DD
330
1600
100
AcDbEntity
  8
Defpoints
  6
Continuous
 62
     0
370
     0
100
AcDbPoint
 10
142.4890798456299
 20
9.504246755246299
 30
0.0
  0
POINT
  5
16DE
330
1600
100
AcDbEntity
  8
Defpoints
  6
Continuous
 62
     0
370
     0
100
AcDbPoint
 10
142.4890798456299
 20
11.14269630094628
 30
0.0
  0
ENDBLK
  5
165A
330
1600
100
AcDbEntity
  8
0
370
     0
100
AcDbBlockEnd
  0
ENDSEC
  0
SECTION
  2
ENTITIES
  0
LINE
  5
4D8
330
1F
100
AcDbEntity
  8
TOP
  6
Continuous
 62
     7
100
AcDbLine
 10
-1.211989490880323
 20
22.24773097181898
 30
0.0
 11
22.19462999242467
 21
22.24773097181898
 31
0.0
  0
ARC
  5
509
330
1F
100
AcDbEntity
  8
TOP
  6
Continuous
 62
     7
100
AcDbCircle
 10
-67.42679495345281
 20
17.19956959225398
 30
0.0
 40
89.99977499999999
100
AcDbArc
 50
358.239277
 51
3.064581999999998
  0
ARC
  5
50A
330
1F
100
AcDbEntity
  8
TOP
  6
Continuous
 62
     7
100
AcDbCircle
 10
10.49131002519774
 20
16.59554725951359
 30
0.0
 40
13.2277690876946
100
AcDbArc
 50
249.37510723
 51
270.0000442918
  0
ARC
  5
50B
330
1F
100
AcDbEntity
  8
TOP
  6
Continuous
 62
     7
100
AcDbCircle
 10
10.07112961925138
 20
15.47916324954726
 30
0.0
 40
12.03493010806617
100
AcDbArc
 50
227.7405670236
 51
249.3751321935
  0
ARC
  5
50C
330
1F
100
AcDbEntity
  8
TOP
  6
Continuous
 62
     7
100
AcDbCircle
 10
10.49131583291655
 20
15.25847717659716
 30
0.0
 40
11.79855723499984
100
AcDbArc
 50
270.0000214535
 51
289.6413728056999
  0
ARC
  5
50E
330
1F
100
AcDbEntity
  8
TOP
  6
Continuous
 62
     7
100
AcDbCircle
 10
9.422948129709157
 20
14.76580900120401
 30
0.0
 40
11.07107663010589
100
AcDbArc
 50
204.5063880585
 51
227.7405736711
  0
ARC
  5
50F
330
1F
100
AcDbEntity
  8
TOP
  6
Continuous
 62
     7
100
AcDbCircle
 10
9.964682774969157
 20
13.78284214476062
 30
0.0
 40
10.23176100346687
100
AcDbArc
 50
229.2508816132
 51
250.3585793867
  0
ARC
  5
510
330
1F
100
AcDbEntity
  8
TOP
  6
Continuous
 62
     7
100
AcDbCircle
 10
8.418099927969274
 20
14.30774969155514
 30
0.0
 40
9.966749577197097
100
AcDbArc
 50
179.999993502
 51
204.5064492936
  0
ARC
  5
511
330
1F
100
AcDbEntity
  8
TOP
  6
Continuous
 62
     7
100
AcDbCircle
 10
8.417285014139897
 20
14.30776519191639
 30
0.0
 40
9.96593466336772
100
AcDbArc
 50
179.2726578414
 51
180.0000826153
  0
ARC
  5
513
330
1F
100
AcDbEntity
  8
TOP
  6
Continuous
 62
     7
100
AcDbCircle
 10
9.154189033608576
 20
12.84218608147333
 30
0.0
 40
8.990095213505778
100
AcDbArc
 50
205.6751230078
 51
229.2508711928
  0
ARC
  5
514
330
1F
100
AcDbEntity
  8
TOP
  6
Continuous
 62
     7
100
AcDbCircle
 10
9.154187842544887
 20
11.63760973292173
 30
0.0
 40
8.990094213108278
100
AcDbArc
 50
135.0389295964999
 51
154.3248727339
  0
ARC
  5
517
330
1F
100
AcDbEntity
  8
TOP
  6
Continuous
 62
     7
100
AcDbCircle
 10
7.901328128835332
 20
12.23989984745935
 30
0.0
 40
7.599982403063158
100
AcDbArc
 50
154.3248670705
 51
205.6751329295
  0
ARC
  5
51A
330
1F
100
AcDbEntity
  8
TOP
  6
Continuous
 62
     7
100
AcDbCircle
 10
3.458043834007176
 20
17.32601927612898
 30
0.0
 40
0.9399976499999999
100
AcDbArc
 50
66.57265499999998
 51
135.0389419999999
  0
ARC
  5
51C
330
1F
100
AcDbEntity
  8
TOP
  6
Continuous
 62
     7
100
AcDbCircle
 10
3.224958416722175
 20
18.74390373140898
 30
0.0
 40
0.249999375
100
AcDbArc
 50
243.871446
 51
314.9192469999999
  0
ARC
  5
51D
330
1F
100
AcDbEntity
  8
TOP
  6
Continuous
 62
     7
100
AcDbCircle
 10
-1.211989490880323
 20
21.99773159681898
 30
0.0
 40
0.249999375
100
AcDbArc
 50
90.0
 51
176.935418
  0
ARC
  5
51E
330
1F
100
AcDbEntity
  8
TOP
  6
Continuous
 62
     7
100
AcDbCircle
 10
88.40943545499717
 20
17.19956959225398
 30
0.0
 40
89.99977499999999
100
AcDbArc
 50
176.935418
 51
181.760723
  0
ARC
  5
51F
330
1F
100
AcDbEntity
  8
TOP
  6
Continuous
 62
     7
100
AcDbCircle
 10
10.49133047634661
 20
16.59554725951359
 30
0.0
 40
13.2277690876946
100
AcDbArc
 50
269.9999557082
 51
290.6248927699999
  0
ARC
  5
520
330
1F
100
AcDbEntity
  8
TOP
  6
Continuous
 62
     7
100
AcDbCircle
 10
10.91151088215964
 20
15.47916324954726
 30
0.0
 40
12.03493010806617
100
AcDbArc
 50
290.6248678065
 51
312.2594329763999
  0
ARC
  5
521
330
1F
100
AcDbEntity
  8
TOP
  6
Continuous
 62
     7
100
AcDbCircle
 10
10.49132466849446
 20
15.25847717659716
 30
0.0
 40
11.79855723499984
100
AcDbArc
 50
250.3586271943
 51
269.9999785465
  0
ARC
  5
523
330
1F
100
AcDbEntity
  8
TOP
  6
Continuous
 62
     7
100
AcDbCircle
 10
11.55969237170186
 20
14.76580900120401
 30
0.0
 40
11.07107663010589
100
AcDbArc
 50
312.2594263289
 51
335.4936119415
  0
ARC
  5
524
330
1F
100
AcDbEntity
  8
TOP
  6
Continuous
 62
     7
100
AcDbCircle
 10
11.01795772657519
 20
13.78284214476062
 30
0.0
 40
10.23176100346687
100
AcDbArc
 50
289.6414206133
 51
310.7491183867999
  0
ARC
  5
526
330
1F
100
AcDbEntity
  8
TOP
  6
Continuous
 62
     7
100
AcDbCircle
 10
12.56454057357508
 20
14.30774969155514
 30
0.0
 40
9.966749577197097
100
AcDbArc
 50
335.4935507064
 51
0.0000064979999994
  0
ARC
  5
527
330
1F
100
AcDbEntity
  8
TOP
  6
Continuous
 62
     7
100
AcDbCircle
 10
12.56535548727112
 20
14.30776519191639
 30
0.0
 40
9.96593466336772
100
AcDbArc
 50
359.9999173847
 51
0.7273421586000017
  0
ARC
  5
529
330
1F
100
AcDbEntity
  8
TOP
  6
Continuous
 62
     7
100
AcDbCircle
 10
10.49132025077218
 20
12.22555602731898
 30
0.0
 40
9.5221761945
100
AcDbArc
 50
41.46643500000001
 51
138.533565
  0
ARC
  5
52A
330
1F
100
AcDbEntity
  8
TOP
  6
Continuous
 62
     7
100
AcDbCircle
 10
11.82845146780244
 20
12.84218608147333
 30
0.0
 40
8.990095213505778
100
AcDbArc
 50
310.7491288072
 51
334.3248769922001
  0
ARC
  5
52B
330
1F
100
AcDbEntity
  8
TOP
  6
Continuous
 62
     7
100
AcDbCircle
 10
11.82845265886613
 20
11.63760973292173
 30
0.0
 40
8.990094213108278
100
AcDbArc
 50
25.6751272661
 51
44.96107040350002
  0
ARC
  5
52E
330
1F
100
AcDbEntity
  8
TOP
  6
Continuous
 62
     7
100
AcDbCircle
 10
13.08131237257568
 20
12.23989984745935
 30
0.0
 40
7.599982403063158
100
AcDbArc
 50
334.3248670705
 51
25.6751329295
  0
ARC
  5
532
330
1F
100
AcDbEntity
  8
TOP
  6
Continuous
 62
     7
100
AcDbCircle
 10
17.52459666753717
 20
17.32601927612898
 30
0.0
 40
0.9399976499999999
100
AcDbArc
 50
44.96105799999996
 51
113.427345
  0
CIRCLE
  5
533
330
1F
100
AcDbEntity
  8
TOP
  6
Continuous
 62
     7
100
AcDbCircle
 10
10.49132025077218
 20
14.49775034681898
 30
0.0
 40
0.8749978125
  0
ARC
  5
53A
330
1F
100
AcDbEntity
  8
TOP
  6
Continuous
 62
     7
100
AcDbCircle
 10
10.49132025077218
 20
33.55770269681899
 30
0.0
 40
16.749958125
100
AcDbArc
 50
224.424865
 51
243.871446
  0
ARC
  5
53B
330
1F
100
AcDbEntity
  8
TOP
  6
Continuous
 62
     7
100
AcDbCircle
 10
10.49132025077218
 20
33.55770269681899
 30
0.0
 40
16.749958125
100
AcDbArc
 50
246.572655
 51
293.427345
  0
ARC
  5
53C
330
1F
100
AcDbEntity
  8
TOP
  6
Continuous
 62
     7
100
AcDbCircle
 10
10.49132025077218
 20
33.55770269681899
 30
0.0
 40
16.749958125
100
AcDbArc
 50
296.1285540000001
 51
315.575135
  0
CIRCLE
  5
53E
330
1F
100
AcDbEntity
  8
2018-1
  6
Continuous
 62
     7
100
AcDbCircle
 10
10.49132025077218
 20
19.24773847181898
 30
0.0
 40
0.6874982812499999
  0
ARC
  5
53F
330
1F
100
AcDbEntity
  8
TOP
  6
Continuous
 62
     7
100
AcDbCircle
 10
17.75768208482218
 20
18.74390373140898
 30
0.0
 40
0.249999375
100
AcDbArc
 50
225.0807529999999
 51
296.1285540000001
  0
ARC
  5
540
330
1F
100
AcDbEntity
  8
TOP
  6
Continuous
 62
     7
100
AcDbCircle
 10
22.19462999242467
 20
21.99773159681898
 30
0.0
 40
0.249999375
100
AcDbArc
 50
3.064581999999998
 51
90.0
  0
ENDSEC
  0
SECTION
  2
OBJECTS
  0
DICTIONARY
  5
C
330
0
100
AcDbDictionary
281
     1
  3
ACAD_COLOR
350
544
  3
ACAD_GROUP
350
D
  3
ACAD_LAYOUT
350
1A
  3
ACAD_MATERIAL
350
543
  3
ACAD_MLINESTYLE
350
17
  3
ACAD_PLOTSETTINGS
350
19
  3
ACAD_PLOTSTYLENAME
350
E
  3
ACAD_TABLESTYLE
350
545
  3
AcDbVariableDictionary
350
16EF
  3
AcmDictionary
350
5A4
  3
AMG
350
54A
  3
AMGSNAPSETTINGS
350
966
  3
ASE_INDEX_DICTIONARY
350
16EC
  0
DICTIONARY
  5
16E0
330
1F
100
AcDbDictionary
280
     1
281
     1
  3
ACAD_SORTENTS
360
16E1
  0
DICTIONARY
  5
544
102
{ACAD_REACTORS
330
C
102
}
330
C
100
AcDbDictionary
281
     1
  0
DICTIONARY
  5
D
102
{ACAD_REACTORS
330
C
102
}
330
C
100
AcDbDictionary
281
     1
  0
DICTIONARY
  5
1A
102
{ACAD_REACTORS
330
C
102
}
330
C
100
AcDbDictionary
281
     1
  3
Layout1
350
1E
  3
Model
350
22
  0
DICTIONARY
  5
543
102
{ACAD_REACTORS
330
C
102
}
330
C
100
AcDbDictionary
281
     1
  0
DICTIONARY
  5
17
102
{ACAD_REACTORS
330
C
102
}
330
C
100
AcDbDictionary
281
     1
  3
Standard
350
18
  0
DICTIONARY
  5
19
102
{ACAD_REACTORS
330
C
102
}
330
C
100
AcDbDictionary
281
     1
  0
ACDBDICTIONARYWDFLT
  5
E
102
{ACAD_REACTORS
330
C
102
}
330
C
100
AcDbDictionary
281
     1
  3
Normal
350
F
100
AcDbDictionaryWithDefault
340
F
  0
DICTIONARY
  5
545
102
{ACAD_REACTORS
330
C
102
}
330
C
100
AcDbDictionary
281
     1
  3
Standard
350
546
  0
DICTIONARY
  5
16EF
102
{ACAD_REACTORS
330
C
102
}
330
C
100
AcDbDictionary
281
     1
  3
CTABLESTYLE
350
16F0
  0
DICTIONARY
  5
5A4
102
{ACAD_REACTORS
330
C
102
}
330
C
100
AcDbDictionary
281
     1
  3
AcmStdDictionary
350
5AF
  3
AMDTSECTSYM_ARROWCOLOR
350
5CE
  0
DICTIONARY
  5
54A
102
{ACAD_REACTORS
330
C
102
}
330
C
100
AcDbDictionary
281
     1
  0
DICTIONARY
  5
966
102
{ACAD_REACTORS
330
C
102
}
330
C
100
AcDbDictionary
281
     1
  0
DICTIONARY
  5
16EC
102
{ACAD_REACTORS
330
C
102
}
330
C
100
AcDbDictionary
281
     1
  3
ASEBlockHierarchyIndexRecord
350
16ED
1001
DCO15
1040
1629175667.629
  0
SORTENTSTABLE
  5
16E1
102
{ACAD_REACTORS
330
16E0
102
}
330
16E0
100
AcDbSortentsTable
330
1F
331
526
  5
526
331
527
  5
527
331
509
  5
509
331
529
  5
529
331
50A
  5
50A
331
50B
  5
50B
331
52A
  5
52A
331
52B
  5
52B
331
50C
  5
50C
331
50E
  5
50E
331
50F
  5
50F
331
52E
  5
52E
331
510
  5
510
331
511
  5
511
331
513
  5
513
331
514
  5
514
331
517
  5
517
331
532
  5
532
331
533
  5
533
331
53A
  5
53A
331
53B
  5
53B
331
53C
  5
53C
331
53E
  5
53E
331
53F
  5
53F
331
540
  5
540
331
51A
  5
51A
331
51C
  5
51C
331
51D
  5
51D
331
51E
  5
51E
331
4D8
  5
4D8
331
51F
  5
51F
331
520
  5
520
331
521
  5
521
331
523
  5
523
331
524
  5
524
  0
LAYOUT
  5
1E
102
{ACAD_REACTORS
330
1A
102
}
330
1A
100
AcDbPlotSettings
  1

  2

  4

  6

 40
0.0
 41
0.0
 42
0.0
 43
0.0
 44
0.0
 45
0.0
 46
0.0
 47
0.0
 48
0.0
 49
0.0
140
0.0
141
0.0
142
1.0
143
1.0
 70
     0
 72
     0
 73
     0
 74
     0
  7

 75
     0
147
1.0
 76
     0
 77
     2
 78
   300
148
0.0
149
0.0
100
AcDbLayout
  1
Layout1
 70
     0
 71
     1
 10
0.0
 20
0.0
 11
12.0
 21
9.0
 12
0.0
 22
0.0
 32
0.0
 14
1.000000000000000E+20
 24
1.000000000000000E+20
 34
1.000000000000000E+20
 15
-1.000000000000000E+20
 25
-1.000000000000000E+20
 35
-1.000000000000000E+20
146
0.0
 13
0.0
 23
0.0
 33
0.0
 16
1.0
 26
0.0
 36
0.0
 17
0.0
 27
1.0
 37
0.0
 76
     0
330
1B
  0
LAYOUT
  5
22
102
{ACAD_REACTORS
330
1A
102
}
330
1A
100
AcDbPlotSettings
  1

  2
PDF995
  4
Letter
  6

 40
3.174999952316284
 41
3.174999952316284
 42
3.175003051757812
 43
3.17498779296875
 44
215.8999938964844
 45
279.3999938964844
 46
0.0
 47
0.0
 48
0.0
 49
0.0
140
0.0
141
0.0
142
1.0
143
1.0
 70
 14336
 72
     0
 73
     1
 74
     0
  7

 75
     0
147
1.0
 76
     0
 77
     2
 78
   300
148
227.600466754605
149
53.33036235490794
100
AcDbLayout
  1
Model
 70
     0
 71
     0
 10
0.0
 20
0.0
 11
0.0
 21
0.0
 12
0.0
 22
0.0
 32
0.0
 14
0.0
 24
0.0
 34
0.0
 15
0.0
 25
0.0
 35
0.0
146
0.0
 13
0.0
 23
0.0
 33
0.0
 16
0.0
 26
0.0
 36
0.0
 17
0.0
 27
0.0
 37
0.0
 76
     0
330
1F
1001
ACAD_PSEXT
1000
PDF995
1000
PDF995 Printer Driver
1000
PDF995PORT
1000

1070
     0
  0
MLINESTYLE
  5
18
102
{ACAD_REACTORS
330
17
102
}
330
17
100
AcDbMlineStyle
  2
STANDARD
 70
     0
  3

 62
   256
 51
90.0
 52
90.0
 71
     2
 49
0.5
 62
   256
  6
BYLAYER
 49
-0.5
 62
   256
  6
BYLAYER
  0
ACDBPLACEHOLDER
  5
F
102
{ACAD_REACTORS
330
E
102
}
330
0
  0
TABLESTYLE
  5
546
102
{ACAD_REACTORS
330
545
102
}
330
545
100
AcDbTableStyle
  3
Standard
 70
     0
 71
     0
 40
0.06
 41
0.06
280
     0
281
     0
  7
STANDARD
140
0.18
170
     2
 62
     0
 63
     7
283
     0
274
    -2
284
     1
 64
     0
275
    -2
285
     1
 65
     0
276
    -2
286
     1
 66
     0
277
    -2
287
     1
 67
     0
278
    -2
288
     1
 68
     0
279
    -2
289
     1
 69
     0
  7
STANDARD
140
0.25
170
     5
 62
     0
 63
     7
283
     0
274
    -2
284
     1
 64
     0
275
    -2
285
     1
 65
     0
276
    -2
286
     1
 66
     0
277
    -2
287
     1
 67
     0
278
    -2
288
     1
 68
     0
279
    -2
289
     1
 69
     0
  7
STANDARD
140
0.18
170
     5
 62
     0
 63
     7
283
     0
274
    -2
284
     1
 64
     0
275
    -2
285
     1
 65
     0
276
    -2
286
     1
 66
     0
277
    -2
287
     1
 67
     0
278
    -2
288
     1
 68
     0
279
    -2
289
     1
 69
     0
  0
DICTIONARYVAR
  5
16F0
102
{ACAD_REACTORS
330
16EF
102
}
330
16EF
100
DictionaryVariables
280
     0
  1
STANDARD
  0
DICTIONARY
  5
5AF
102
{ACAD_REACTORS
330
5A4
102
}
330
5A4
100
AcDbDictionary
281
     1
  0
XRECORD
  5
5CE
102
{ACAD_REACTORS
330
5A4
102
}
330
5A4
100
AcDbXrecord
280
     1
 90
-1023410169
  0
XRECORD
  5
16ED
102
{ACAD_REACTORS
330
16EC
102
}
330
16EC
100
AcDbXrecord
280
     1
330
16A1
330
16A2
330
16AB
330
16AC
330
16B5
330
16B6
330
16BE
330
16C5
330
16C6
330
16CF
330
16D0
330
16D9
330
16DA
330
2CC
330
2CD
330
2D5
330
2DD
330
2DE
330
2E8
330
2E9
330
2F1
330
2F2
330
2F9
330
300
330
307
330
30E
330
316
330
317
330
31F
330
326
330
32E
330
32F
330
339
330
33A
330
342
330
343
330
34B
330
34C
330
354
330
355
330
35F
330
360
330
368
330
369
330
373
330
374
330
CA6
330
CA7
330
CAF
330
CB6
330
CB7
330
1706
330
1707
330
CCD
330
CCE
330
CD6
330
CDF
330
CE0
330
CE9
330
CEA
330
CF2
330
CFA
330
D03
330
D04
330
D0D
330
D0E
330
D17
330
D18
330
D21
330
D22
330
D29
330
D2A
330
D34
330
D3D
330
D3E
330
D47
330
D48
330
D51
330
D52
330
D5A
330
D60
330
D66
330
D6E
330
D76
330
D7F
330
D80
330
D89
330
D8A
330
D93
330
D94
330
D9B
330
D9C
330
DA8
330
DA9
330
DB2
330
DB3
330
DBB
330
DC2
330
DC3
330
DCB
330
5FF
330
600
330
608
330
61B
330
61C
330
625
330
626
330
62E
330
637
330
638
330
641
330
642
330
64A
330
652
330
65D
330
65E
330
667
330
668
330
672
330
673
330
681
330
682
330
694
330
6A3
330
6A4
330
6AE
330
6AF
330
6B8
330
6B9
330
6C1
330
6CA
330
6D3
330
6DC
330
6E4
330
6ED
330
6EE
330
6F7
330
6F8
330
701
330
702
330
716
330
717
330
720
330
721
330
729
330
732
330
733
330
73B
330
137F
330
1380
330
1389
330
138A
330
1392
330
139A
330
13A2
330
13AA
330
13B2
330
13B8
330
13C1
330
13C2
330
13CB
330
13CC
330
13D5
330
13D6
330
13DF
330
13E0
330
13E9
330
13EA
330
13F3
330
13F4
330
13FC
330
1402
330
1408
330
140E
330
1414
330
141B
330
141C
330
1424
330
142C
330
1435
330
1436
330
143F
330
1440
330
E59
330
E62
330
E63
330
E6C
330
E6D
330
E76
330
E77
330
E80
330
E81
330
E8A
330
E8B
330
E94
330
E95
330
E9D
330
EA6
330
EAE
330
EB7
330
EBF
330
EC8
330
EC9
330
ED1
330
ED9
330
EE2
330
EE3
330
EEC
330
EED
330
E18
330
E19
330
E24
330
E25
330
E2D
330
E36
330
E3E
330
E47
330
E50
330
147D
330
147E
330
1487
330
1488
330
1491
330
1492
330
149A
330
14A3
330
14A4
330
14AD
330
14AE
330
14B7
330
14B8
330
1714
330
1715
330
1777
330
1778
330
1730
330
1731
330
1781
330
1782
330
178B
330
178C
  0
ENDSEC
  0
EOF
