  0
SECTION
  2
HEADER
  9
$ACADVER
  1
AC1009
  9
$INSBASE
 10
19.873025153899999
 20
25.3315602664
 30
0.0
  9
$EXTMIN
 10
9.3732414916978897
 20
18.070593339863759
 30
-0.0015258207003583
  9
$EXTMAX
 10
30.3875037878644
 20
32.592493523171733
 30
0.0000000349246037
  9
$LIMMIN
 10
0.0
 20
0.0
  9
$LIMMAX
 10
11.692913385800001
 20
8.2677165353999982
  9
$ORTHOMODE
 70
     0
  9
$REGENMODE
 70
     1
  9
$FILLMODE
 70
     1
  9
$QTEXTMODE
 70
     0
  9
$MIRRTEXT
 70
     0
  9
$DRAGMODE
 70
     2
  9
$LTSCALE
 40
0.6431102362
  9
$OSMODE
 70
    47
  9
$ATTMODE
 70
     1
  9
$TEXTSIZE
 40
0.2
  9
$TRACEWID
 40
0.05
  9
$TEXTSTYLE
  7
STANDARD
  9
$CLAYER
  8
0
  9
$CELTYPE
  6
BYLAYER
  9
$CECOLOR
 62
   256
  9
$DIMSCALE
 40
1.0
  9
$DIMASZ
 40
0.1875
  9
$DIMEXO
 40
0.0625
  9
$DIMDLI
 40
0.4443307087
  9
$DIMRND
 40
0.0
  9
$DIMDLE
 40
0.0
  9
$DIMEXE
 40
0.125
  9
$DIMTP
 40
0.0
  9
$DIMTM
 40
0.0
  9
$DIMTXT
 40
0.15625
  9
$DIMCEN
 40
0.1052362205
  9
$DIMTSZ
 40
0.0
  9
$DIMTOL
 70
     0
  9
$DIMLIM
 70
     0
  9
$DIMTIH
 70
     1
  9
$DIMTOH
 70
     1
  9
$DIMSE1
 70
     0
  9
$DIMSE2
 70
     0
  9
$DIMTAD
 70
     0
  9
$DIMZIN
 70
     0
  9
$DIMBLK
  1

  9
$DIMASO
 70
     1
  9
$DIMSHO
 70
     1
  9
$DIMPOST
  1

  9
$DIMAPOST
  1

  9
$DIMALT
 70
     0
  9
$DIMALTD
 70
     2
  9
$DIMALTF
 40
25.399999999999999
  9
$DIMLFAC
 40
1.0
  9
$DIMTOFL
 70
     0
  9
$DIMTVP
 40
0.0
  9
$DIMTIX
 70
     0
  9
$DIMSOXD
 70
     0
  9
$DIMSAH
 70
     0
  9
$DIMBLK1
  1

  9
$DIMBLK2
  1

  9
$DIMSTYLE
  2
STANDARD
  9
$DIMCLRD
 70
     0
  9
$DIMCLRE
 70
     0
  9
$DIMCLRT
 70
     0
  9
$DIMTFAC
 40
1.0
  9
$DIMGAP
 40
0.09
  9
$LUNITS
 70
     2
  9
$LUPREC
 70
     4
  9
$SKETCHINC
 40
0.1
  9
$FILLETRAD
 40
0.0
  9
$AUNITS
 70
     0
  9
$AUPREC
 70
     0
  9
$MENU
  1
.
  9
$ELEVATION
 40
0.0
  9
$PELEVATION
 40
0.0
  9
$THICKNESS
 40
0.0
  9
$LIMCHECK
 70
     0
  9
$BLIPMODE
 70
     0
  9
$CHAMFERA
 40
0.0
  9
$CHAMFERB
 40
0.0
  9
$SKPOLY
 70
     0
  9
$TDCREATE
 40
2457423.4556260072
  9
$TDUPDATE
 40
2457423.5141431252
  9
$TDINDWG
 40
0.0559999421
  9
$TDUSRTIMER
 40
0.0559999421
  9
$USRTIMER
 70
     1
  9
$ANGBASE
 50
0.0
  9
$ANGDIR
 70
     0
  9
$PDMODE
 70
     0
  9
$PDSIZE
 40
0.3125
  9
$PLINEWID
 40
0.0
  9
$COORDS
 70
     0
  9
$SPLFRAME
 70
     0
  9
$SPLINETYPE
 70
     6
  9
$SPLINESEGS
 70
     8
  9
$ATTDIA
 70
     1
  9
$ATTREQ
 70
     1
  9
$HANDLING
 70
     1
  9
$HANDSEED
  5
2986
  9
$SURFTAB1
 70
     6
  9
$SURFTAB2
 70
     6
  9
$SURFTYPE
 70
     6
  9
$SURFU
 70
     6
  9
$SURFV
 70
     6
  9
$UCSNAME
  2

  9
$UCSORG
 10
0.0
 20
0.0
 30
0.0
  9
$UCSXDIR
 10
1.0
 20
0.0
 30
0.0
  9
$UCSYDIR
 10
0.0
 20
1.0
 30
0.0
  9
$PUCSNAME
  2

  9
$PUCSORG
 10
0.0
 20
0.0
 30
0.0
  9
$PUCSXDIR
 10
1.0
 20
0.0
 30
0.0
  9
$PUCSYDIR
 10
0.0
 20
1.0
 30
0.0
  9
$USERI1
 70
     0
  9
$USERI2
 70
     0
  9
$USERI3
 70
     0
  9
$USERI4
 70
     0
  9
$USERI5
 70
     0
  9
$USERR1
 40
0.0
  9
$USERR2
 40
0.0
  9
$USERR3
 40
0.0
  9
$USERR4
 40
0.0
  9
$USERR5
 40
0.0
  9
$WORLDVIEW
 70
     1
  9
$SHADEDGE
 70
     3
  9
$SHADEDIF
 70
    70
  9
$TILEMODE
 70
     1
  9
$MAXACTVP
 70
    48
  9
$PLIMCHECK
 70
     0
  9
$PEXTMIN
 10
1.0000000000000000E+020
 20
1.0000000000000000E+020
 30
1.0000000000000000E+020
  9
$PEXTMAX
 10
-1.0000000000000000E+020
 20
-1.0000000000000000E+020
 30
-1.0000000000000000E+020
  9
$PLIMMIN
 10
0.0
 20
0.0
  9
$PLIMMAX
 10
12.0
 20
9.0
  9
$UNITMODE
 70
     0
  9
$VISRETAIN
 70
     1
  9
$PLINEGEN
 70
     0
  9
$PSLTSCALE
 70
     1
  0
ENDSEC
  0
SECTION
  2
TABLES
  0
TABLE
  2
VPORT
 70
     1
  0
VPORT
  2
*ACTIVE
 70
     0
 10
0.0
 20
0.0
 11
1.0
 21
1.0
 12
19.88037263978114
 22
25.331543431517751
 13
0.0
 23
0.0
 14
1.0
 24
1.0
 15
0.0
 25
0.0
 16
0.0
 26
0.0
 36
1.0
 17
0.0
 27
0.0
 37
0.0
 40
14.62035374387276
 41
2.123303167420814
 42
50.0
 43
0.0
 44
0.0
 50
0.0
 51
0.0
 71
     0
 72
   100
 73
     1
 74
     1
 75
     0
 76
     0
 77
     0
 78
     0
  0
ENDTAB
  0
TABLE
  2
LTYPE
 70
     1
  0
LTYPE
  2
CONTINUOUS
 70
     0
  3
Solid line
 72
    65
 73
     0
 40
0.0
  0
ENDTAB
  0
TABLE
  2
LAYER
 70
     2
  0
LAYER
  2
0
 70
     0
 62
     7
  6
CONTINUOUS
  0
LAYER
  2
DEFPOINTS
 70
     0
 62
     7
  6
CONTINUOUS
  0
ENDTAB
  0
TABLE
  2
STYLE
 70
     1
  0
STYLE
  2
STANDARD
 70
     0
 40
0.0
 41
0.8
 50
0.0
 71
     0
 42
0.2
  3
txt
  4

  0
ENDTAB
  0
TABLE
  2
VIEW
 70
     0
  0
ENDTAB
  0
TABLE
  2
UCS
 70
     0
  0
ENDTAB
  0
TABLE
  2
APPID
 70
     5
  0
APPID
  2
ACAD
 70
     0
  0
APPID
  2
ACAD_MLEADERVER
 70
     0
  0
APPID
  2
ACAD_NAV_VCDISPLAY
 70
     0
  0
APPID
  2
ACAD_EXEMPT_FROM_CAD_STANDARDS
 70
     0
  0
APPID
  2
AcDbAttr
 70
     0
  0
ENDTAB
  0
TABLE
  2
DIMSTYLE
 70
     1
  0
DIMSTYLE
  2
STANDARD
 70
     0
  3

  4

  5

  6

  7

 40
1.0
 41
0.1875
 42
0.0625
 43
0.38
 44
0.125
 45
0.0
 46
0.0
 47
1.5
 48
1.5
140
0.15625
141
0.09
142
0.0
143
25.399999999999999
144
1.0
145
0.0
146
1.0
147
0.09
 71
     0
 72
     0
 73
     1
 74
     1
 75
     0
 76
     0
 77
     0
 78
     4
170
     0
171
     2
172
     0
173
     0
174
     0
175
     0
176
     0
177
     0
178
     0
  0
ENDTAB
  0
ENDSEC
  0
SECTION
  2
BLOCKS
  0
BLOCK
  8
0
  2
$MODEL_SPACE
 70
     0
 10
0.0
 20
0.0
 30
0.0
  3
$MODEL_SPACE
  1

  0
ENDBLK
  5
21
  8
0
  0
BLOCK
 67
     1
  8
0
  2
$PAPER_SPACE
 70
     0
 10
0.0
 20
0.0
 30
0.0
  3
$PAPER_SPACE
  1

  0
ENDBLK
  5
1D
 67
     1
  8
0
  0
ENDSEC
  0
SECTION
  2
ENTITIES
  0
LINE
  5
317
  8
0
 10
9.3780085321000008
 20
23.071560266399999
 30
0.0
 11
9.3791136258000005
 21
20.885448766
 31
0.0
  0
LINE
  5
318
  8
0
 10
9.378008531499999
 20
27.591560266399998
 30
0.0
 11
9.378008531499999
 21
23.071560266399999
 31
0.0
  0
LINE
  5
31A
  8
0
 10
9.3791136258000005
 20
29.777671766800001
 30
0.0
 11
9.3780085321000008
 21
27.591560266399998
 31
0.0
  0
LINE
  5
3E0
  8
0
 10
11.582997902000001
 20
18.081564497599999
 30
0.0
 11
28.163052413900001
 21
18.081564497599999
 31
0.0
  0
LINE
  5
2544
  8
0
 10
28.1630524057
 20
32.581556035200002
 30
0.0
 11
11.5829978939
 21
32.581556035200002
 31
0.0
  0
LINE
  5
25E9
  8
0
 10
30.368041775599998
 20
27.591560266399998
 30
0.0
 11
30.366936681999999
 21
29.777671766800001
 31
0.0
  0
LINE
  5
25EA
  8
0
 10
30.3680417763
 20
23.071560266399999
 30
0.0
 11
30.3680417763
 21
27.591560266399998
 31
0.0
  0
LINE
  5
25EC
  8
0
 10
30.366936681999999
 20
20.885448766
 30
0.0
 11
30.368041775599998
 21
23.071560266399999
 31
0.0
  0
CIRCLE
  5
271C
  8
0
 10
19.873025153899999
 20
25.3315602664
 30
0.0
 40
1.440624861399999
  0
CIRCLE
  5
2720
  8
0
 10
19.873025153899999
 20
25.3315602664
 30
0.0
 40
0.875
  0
ARC
  5
2842
  8
0
 10
21.098575240222971
 20
20.669498272236719
 30
0.0
 40
11.72145106914844
 50
178.9443498192224
 51
184.84596896414001
  0
ARC
  5
2844
  8
0
 10
11.8490613219978
 20
19.89312628907529
 30
0.0
 40
2.439427015042881
 50
185.0286379939628
 51
209.44954177942401
  0
ARC
  5
2845
  8
0
 10
10.85935172893012
 20
19.48917744600595
 30
0.0
 40
1.3855716041363439
 50
215.0343853411018
 51
270.09674578983038
  0
ARC
  5
2846
  8
0
 10
11.484951941256551
 20
26.68568401576885
 30
0.0
 40
8.6046781284069382
 50
265.84627074688052
 51
270.65287053951391
  0
ARC
  5
2847
  8
0
 10
28.425433742707309
 20
21.30818900151354
 30
0.0
 40
3.237275035567774
 50
265.35107422100589
 51
290.30842391745142
  0
ARC
  5
2848
  8
0
 10
28.828027375225108
 20
19.554890837922422
 30
0.0
 40
1.471473851946411
 50
299.33864703944982
 51
357.71360175454942
  0
ARC
  5
2849
  8
0
 10
19.5455837750001
 20
20.72352239408962
 30
0.0
 40
10.822564335068989
 50
353.48835029958838
 51
0.8572854181739881
  0
ARC
  5
284A
  8
0
 10
28.306123469086241
 20
27.15548403015805
 30
0.0
 40
5.4279578781082218
 50
80.16904136372861
 51
91.51038686384932
  0
ARC
  5
284B
  8
0
 10
28.967698932097171
 20
31.255796383468329
 30
0.0
 40
1.2758088521393129
 50
19.458693259164878
 51
78.002345645828683
  0
ARC
  5
284C
  8
0
 10
25.257469584087861
 20
30.212339309960619
 30
0.0
 40
5.1279225713464101
 50
355.13749753187818
 51
16.640530072472991
  0
ARC
  5
284D
  8
0
 10
11.32796471253868
 20
29.301495106346351
 30
0.0
 40
3.2899607331053522
 50
85.554050377107728
 51
110.1054477613494
  0
ARC
  5
284E
  8
0
 10
10.88597854660363
 20
31.14411955384627
 30
0.0
 40
1.424524052389996
 50
118.9223815608825
 51
171.68835970577459
  0
ARC
  5
284F
  8
0
 10
17.568239762254588
 20
30.0600998551553
 30
0.0
 40
8.1939949058416133
 50
170.94249695895971
 51
181.97524448832749
  0
ATTDEF
  5
2884
  8
DEFPOINTS
 10
19.867415252146859
 20
25.325882422539792
 30
0.0
 40
0.001
  1
K-17916-RL
  3

  2
MODELNUMBER
 70
     0
1001
AcDbAttr
1070
     0
1070
     1
  0
ATTDEF
  5
2885
  8
DEFPOINTS
 10
19.867415252146859
 20
25.324215755873119
 30
0.0
 40
0.001
  1
DERRING
  3

  2
TRADENAME
 70
     0
1001
AcDbAttr
1070
     0
1070
     1
  0
ATTDEF
  5
2886
  8
DEFPOINTS
 10
19.867415252146859
 20
25.322549089206451
 30
0.0
 40
0.001
  1
BATHROOM SINK
  3

  2
PRODUCT
 70
     0
1001
AcDbAttr
1070
     0
1070
     1
  0
ATTDEF
  5
2887
  8
DEFPOINTS
 10
19.867415252146859
 20
25.320882422539789
 30
0.0
 40
0.001
  1
VITREOUS CHINA
  3

  2
MATERIAL
 70
     0
1001
AcDbAttr
1070
     0
1070
     1
  0
ENDSEC
  0
EOF
