  0
SECTION
  2
HEADER
  9
$ACADVER
  1
AC1021
  9
$ACADMAINTVER
 70
    50
  9
$DWGCODEPAGE
  3
ANSI_936
  9
$LASTSAVEDBY
  1
ko36699
  9
$INSBASE
 10
0.0
 20
0.0
 30
0.0
  9
$EXTMIN
 10
-777.291851532656
 20
-41.48401274739808
 30
0.0
  9
$EXTMAX
 10
2060.822331093502
 20
2075.155863091308
 30
0.0
  9
$LIMMIN
 10
0.0
 20
0.0
  9
$LIMMAX
 10
1117.6
 20
863.6000000000001
  9
$ORTHOMODE
 70
     0
  9
$REGENMODE
 70
     1
  9
$FILLMODE
 70
     1
  9
$QTEXTMODE
 70
     0
  9
$MIRRTEXT
 70
     0
  9
$LTSCALE
 40
61.468
  9
$ATTMODE
 70
     1
  9
$TEXTSIZE
 40
0.2
  9
$TRACEWID
 40
0.05
  9
$TEXTSTYLE
  7
STANDARD
  9
$CLAYER
  8
0
  9
$CELTYPE
  6
BYLAYER
  9
$CECOLOR
 62
   256
  9
$CELTSCALE
 40
1.0
  9
$DISPSILH
 70
     0
  9
$DIMSCALE
 40
1.0
  9
$DIMASZ
 40
3.5
  9
$DIMEXO
 40
1.0
  9
$DIMDLI
 40
10.0
  9
$DIMRND
 40
0.0
  9
$DIMDLE
 40
0.0
  9
$DIMEXE
 40
1.0
  9
$DIMTP
 40
0.1
  9
$DIMTM
 40
0.1
  9
$DIMTXT
 40
3.5
  9
$DIMCEN
 40
0.0
  9
$DIMTSZ
 40
0.0
  9
$DIMTOL
 70
     0
  9
$DIMLIM
 70
     0
  9
$DIMTIH
 70
     0
  9
$DIMTOH
 70
     0
  9
$DIMSE1
 70
     0
  9
$DIMSE2
 70
     0
  9
$DIMTAD
 70
     1
  9
$DIMZIN
 70
     8
  9
$DIMBLK
  1

  9
$DIMASO
 70
     1
  9
$DIMSHO
 70
     1
  9
$DIMPOST
  1

  9
$DIMAPOST
  1
"
  9
$DIMALT
 70
     0
  9
$DIMALTD
 70
     2
  9
$DIMALTF
 40
0.0393701
  9
$DIMLFAC
 40
1.0
  9
$DIMTOFL
 70
     1
  9
$DIMTVP
 40
0.0
  9
$DIMTIX
 70
     0
  9
$DIMSOXD
 70
     0
  9
$DIMSAH
 70
     0
  9
$DIMBLK1
  1

  9
$DIMBLK2
  1

  9
$DIMSTYLE
  2
AM_ISO
  9
$DIMCLRD
 70
   256
  9
$DIMCLRE
 70
   256
  9
$DIMCLRT
 70
   140
  9
$DIMTFAC
 40
0.71
  9
$DIMGAP
 40
1.5
  9
$DIMJUST
 70
     0
  9
$DIMSD1
 70
     0
  9
$DIMSD2
 70
     0
  9
$DIMTOLJ
 70
     0
  9
$DIMTZIN
 70
     8
  9
$DIMALTZ
 70
     0
  9
$DIMALTTZ
 70
     0
  9
$DIMUPT
 70
     0
  9
$DIMDEC
 70
     2
  9
$DIMTDEC
 70
     3
  9
$DIMALTU
 70
     2
  9
$DIMALTTD
 70
     4
  9
$DIMTXSTY
  7
STANDARD
  9
$DIMAUNIT
 70
     0
  9
$DIMADEC
 70
     0
  9
$DIMALTRND
 40
0.0
  9
$DIMAZIN
 70
     2
  9
$DIMDSEP
 70
    46
  9
$DIMATFIT
 70
     3
  9
$DIMFRAC
 70
     0
  9
$DIMLDRBLK
  1

  9
$DIMLUNIT
 70
     2
  9
$DIMLWD
 70
    -1
  9
$DIMLWE
 70
    -1
  9
$DIMTMOVE
 70
     0
  9
$DIMFXL
 40
1.0
  9
$DIMFXLON
 70
     0
  9
$DIMJOGANG
 40
0.7853981633974483
  9
$DIMTFILL
 70
     0
  9
$DIMTFILLCLR
 70
     0
  9
$DIMARCSYM
 70
     1
  9
$DIMLTYPE
  6
BYBLOCK
  9
$DIMLTEX1
  6
BYBLOCK
  9
$DIMLTEX2
  6
BYBLOCK
  9
$LUNITS
 70
     2
  9
$LUPREC
 70
     4
  9
$SKETCHINC
 40
0.1
  9
$FILLETRAD
 40
0.0
  9
$AUNITS
 70
     0
  9
$AUPREC
 70
     0
  9
$MENU
  1
.
  9
$ELEVATION
 40
0.0
  9
$PELEVATION
 40
0.0
  9
$THICKNESS
 40
0.0
  9
$LIMCHECK
 70
     0
  9
$CHAMFERA
 40
0.0
  9
$CHAMFERB
 40
0.0
  9
$CHAMFERC
 40
0.0
  9
$CHAMFERD
 40
0.0
  9
$SKPOLY
 70
     0
  9
$TDCREATE
 40
2456511.647555833
  9
$TDUCREATE
 40
2456511.314222500
  9
$TDUPDATE
 40
2456511.652729167
  9
$TDUUPDATE
 40
2456511.319395833
  9
$TDINDWG
 40
0.0037182060
  9
$TDUSRTIMER
 40
0.0037182060
  9
$USRTIMER
 70
     1
  9
$ANGBASE
 50
0.0
  9
$ANGDIR
 70
     0
  9
$PDMODE
 70
     3
  9
$PDSIZE
 40
7.9375
  9
$PLINEWID
 40
0.0
  9
$SPLFRAME
 70
     0
  9
$SPLINETYPE
 70
     6
  9
$SPLINESEGS
 70
     8
  9
$HANDSEED
  5
685B
  9
$SURFTAB1
 70
     6
  9
$SURFTAB2
 70
     6
  9
$SURFTYPE
 70
     6
  9
$SURFU
 70
     6
  9
$SURFV
 70
     6
  9
$UCSBASE
  2

  9
$UCSNAME
  2

  9
$UCSORG
 10
0.0
 20
0.0
 30
0.0
  9
$UCSXDIR
 10
1.0
 20
0.0
 30
0.0
  9
$UCSYDIR
 10
0.0
 20
1.0
 30
0.0
  9
$UCSORTHOREF
  2

  9
$UCSORTHOVIEW
 70
     0
  9
$UCSORGTOP
 10
0.0
 20
0.0
 30
0.0
  9
$UCSORGBOTTOM
 10
0.0
 20
0.0
 30
0.0
  9
$UCSORGLEFT
 10
0.0
 20
0.0
 30
0.0
  9
$UCSORGRIGHT
 10
0.0
 20
0.0
 30
0.0
  9
$UCSORGFRONT
 10
0.0
 20
0.0
 30
0.0
  9
$UCSORGBACK
 10
0.0
 20
0.0
 30
0.0
  9
$PUCSBASE
  2

  9
$PUCSNAME
  2

  9
$PUCSORG
 10
0.0
 20
0.0
 30
0.0
  9
$PUCSXDIR
 10
1.0
 20
0.0
 30
0.0
  9
$PUCSYDIR
 10
0.0
 20
1.0
 30
0.0
  9
$PUCSORTHOREF
  2

  9
$PUCSORTHOVIEW
 70
     0
  9
$PUCSORGTOP
 10
0.0
 20
0.0
 30
0.0
  9
$PUCSORGBOTTOM
 10
0.0
 20
0.0
 30
0.0
  9
$PUCSORGLEFT
 10
0.0
 20
0.0
 30
0.0
  9
$PUCSORGRIGHT
 10
0.0
 20
0.0
 30
0.0
  9
$PUCSORGFRONT
 10
0.0
 20
0.0
 30
0.0
  9
$PUCSORGBACK
 10
0.0
 20
0.0
 30
0.0
  9
$USERI1
 70
     0
  9
$USERI2
 70
     0
  9
$USERI3
 70
     0
  9
$USERI4
 70
     0
  9
$USERI5
 70
     0
  9
$USERR1
 40
0.0
  9
$USERR2
 40
0.0
  9
$USERR3
 40
0.0
  9
$USERR4
 40
0.0
  9
$USERR5
 40
0.0
  9
$WORLDVIEW
 70
     1
  9
$SHADEDGE
 70
     3
  9
$SHADEDIF
 70
    70
  9
$TILEMODE
 70
     1
  9
$MAXACTVP
 70
    64
  9
$PINSBASE
 10
0.0
 20
0.0
 30
0.0
  9
$PLIMCHECK
 70
     0
  9
$PEXTMIN
 10
1.000000000000000E+20
 20
1.000000000000000E+20
 30
1.000000000000000E+20
  9
$PEXTMAX
 10
-1.000000000000000E+20
 20
-1.000000000000000E+20
 30
-1.000000000000000E+20
  9
$PLIMMIN
 10
0.0
 20
0.0
  9
$PLIMMAX
 10
12.0
 20
9.0
  9
$UNITMODE
 70
     0
  9
$VISRETAIN
 70
     1
  9
$PLINEGEN
 70
     0
  9
$PSLTSCALE
 70
     1
  9
$TREEDEPTH
 70
  3020
  9
$CMLSTYLE
  2
Standard
  9
$CMLJUST
 70
     0
  9
$CMLSCALE
 40
1.0
  9
$PROXYGRAPHICS
 70
     1
  9
$MEASUREMENT
 70
     1
  9
$CELWEIGHT
370
    -1
  9
$ENDCAPS
280
     0
  9
$JOINSTYLE
280
     0
  9
$LWDISPLAY
290
     0
  9
$INSUNITS
 70
     4
  9
$HYPERLINKBASE
  1

  9
$STYLESHEET
  1

  9
$XEDIT
290
     1
  9
$CEPSNTYPE
380
     0
  9
$PSTYLEMODE
290
     1
  9
$FINGERPRINTGUID
  2
{52CFFF8F-25A9-40E3-AE94-2D0732F5D0F7}
  9
$VERSIONGUID
  2
{55CEC67D-52B2-431E-AD22-0ACE986B2E10}
  9
$EXTNAMES
290
     1
  9
$PSVPSCALE
 40
0.0
  9
$OLESTARTUP
290
     0
  9
$SORTENTS
280
   127
  9
$INDEXCTL
280
     0
  9
$HIDETEXT
280
     1
  9
$XCLIPFRAME
290
     0
  9
$HALOGAP
280
     0
  9
$OBSCOLOR
 70
   257
  9
$OBSLTYPE
280
     0
  9
$INTERSECTIONDISPLAY
280
     0
  9
$INTERSECTIONCOLOR
 70
   257
  9
$DIMASSOC
280
     2
  9
$PROJECTNAME
  1

  9
$CAMERADISPLAY
290
     0
  9
$LENSLENGTH
 40
50.0
  9
$CAMERAHEIGHT
 40
0.0
  9
$STEPSPERSEC
 40
2.0
  9
$STEPSIZE
 40
6.0
  9
$3DDWFPREC
 40
2.0
  9
$PSOLWIDTH
 40
0.25
  9
$PSOLHEIGHT
 40
4.0
  9
$LOFTANG1
 40
1.570796326794896
  9
$LOFTANG2
 40
1.570796326794896
  9
$LOFTMAG1
 40
0.0
  9
$LOFTMAG2
 40
0.0
  9
$LOFTPARAM
 70
     7
  9
$LOFTNORMALS
280
     1
  9
$LATITUDE
 40
37.795
  9
$LONGITUDE
 40
-122.394
  9
$NORTHDIRECTION
 40
0.0
  9
$TIMEZONE
 70
 -8000
  9
$LIGHTGLYPHDISPLAY
280
     1
  9
$TILEMODELIGHTSYNCH
280
     1
  9
$CMATERIAL
347
671B
  9
$SOLIDHIST
280
     1
  9
$SHOWHIST
280
     1
  9
$DWFFRAME
280
     2
  9
$DGNFRAME
280
     0
  9
$REALWORLDSCALE
290
     1
  9
$INTERFERECOLOR
 62
     1
  9
$INTERFEREOBJVS
345
673D
  9
$INTERFEREVPVS
346
673A
  9
$CSHADOW
280
     0
  9
$SHADOWPLANELOCATION
 40
0.0
  0
ENDSEC
  0
SECTION
  2
CLASSES
  0
CLASS
  1
ACDBDICTIONARYWDFLT
  2
AcDbDictionaryWithDefault
  3
ObjectDBX Classes
 90
        0
 91
        1
280
     0
281
     0
  0
CLASS
  1
TABLESTYLE
  2
AcDbTableStyle
  3
ObjectDBX Classes
 90
     4095
 91
        2
280
     0
281
     0
  0
CLASS
  1
ACAD_TABLE
  2
AcDbTable
  3
ObjectDBX Classes
 90
     1025
 91
        0
280
     0
281
     1
  0
CLASS
  1
MATERIAL
  2
AcDbMaterial
  3
ObjectDBX Classes
 90
     1153
 91
        3
280
     0
281
     0
  0
CLASS
  1
VISUALSTYLE
  2
AcDbVisualStyle
  3
ObjectDBX Classes
 90
     4095
 91
       19
280
     0
281
     0
  0
CLASS
  1
SCALE
  2
AcDbScale
  3
ObjectDBX Classes
 90
     1153
 91
       17
280
     0
281
     0
  0
CLASS
  1
MLEADERSTYLE
  2
AcDbMLeaderStyle
  3
ACDB_MLEADERSTYLE_CLASS
 90
     4095
 91
        1
280
     0
281
     0
  0
CLASS
  1
CELLSTYLEMAP
  2
AcDbCellStyleMap
  3
ObjectDBX Classes
 90
     1152
 91
        6
280
     0
281
     0
  0
CLASS
  1
DICTIONARYVAR
  2
AcDbDictionaryVar
  3
ObjectDBX Classes
 90
        0
 91
        4
280
     0
281
     0
  0
CLASS
  1
ACME_DOCUMENT
  2
AcMeDbDoc
  3
AcMeServices
 90
     1024
 91
        2
280
     0
281
     0
  0
CLASS
  1
AMGSETTINGSOBJ
  2
AmgSettingsObj
  3
"AcadM|Product Description: AutoCAD Mechanical|Company: Autodesk, Inc."
 90
     1024
 91
        2
280
     0
281
     0
  0
CLASS
  1
ACMESCOPE
  2
AcMeScope
  3
AcMeServices
 90
     1024
 91
        1
280
     0
281
     0
  0
CLASS
  1
ACMECOMMANDHISTORY
  2
AcMeCommandHistory
  3
AcMeServices
 90
     1024
 91
        1
280
     0
281
     0
  0
CLASS
  1
ACIMSYSVARMAN
  2
AcImSysVarManager
  3
AcMeServices
 90
     1024
 91
        5
280
     0
281
     0
  0
CLASS
  1
ACIMINTSYSVAR
  2
AcImIntSysVar
  3
AcMeServices
 90
     1024
 91
       27
280
     0
281
     0
  0
CLASS
  1
ACMEDRAWINGMAN
  2
AcMeDrawingMan
  3
AcMeServices
 90
     1024
 91
        1
280
     0
281
     0
  0
CLASS
  1
ACMEVIEW
  2
AcMeView
  3
AcMeServices
 90
     1024
 91
        1
280
     0
281
     0
  0
CLASS
  1
ACDBENTITYCACHE
  2
AcMeEntityCache
  3
AcMeServices
 90
     1024
 91
        1
280
     0
281
     0
  0
CLASS
  1
GSMANAGER
  2
AcMeGSManager
  3
AcMeServices
 90
     1024
 91
        1
280
     0
281
     0
  0
CLASS
  1
AMDTINTERNALREACTOR
  2
AmdtInternalReactor
  3
AcMeServices
 90
     1024
 91
        2
280
     0
281
     0
  0
CLASS
  1
ACMESTATEMGR
  2
AcMeStateMgr
  3
AcMeServices
 90
     1024
 91
        1
280
     0
281
     0
  0
CLASS
  1
ACGREFMASTER
  2
AcGrefMaster
  3
AcAttribServices
 90
     1024
 91
        1
280
     0
281
     0
  0
CLASS
  1
AM_DRAWING_MGR
  2
AcDmDwgMgr
  3
AcMechDwgViewMgmt
 90
     1024
 91
        1
280
     0
281
     0
  0
CLASS
  1
AM_DWG_DOCUMENT
  2
AcDmDwgDocument
  3
AcMechDwgViewMgmt
 90
     1024
 91
        1
280
     0
281
     0
  0
CLASS
  1
AM_DWG_SHEET
  2
AcDmSheet
  3
AcMechDwgViewMgmt
 90
     1024
 91
        1
280
     0
281
     0
  0
CLASS
  1
AM_VIEWDIMPARMAP
  2
AcDmViewDimParMap
  3
AcMechDwgViewMgmt
 90
     1024
 91
        1
280
     0
281
     0
  0
CLASS
  1
ACIMREALSYSVAR
  2
AcImRealSysVar
  3
AcMeServices
 90
     1024
 91
        1
280
     0
281
     0
  0
CLASS
  1
AM_DWGMGR_NAME
  2
AcDmDwgMgrName
  3
AcMechDwgViewMgmt
 90
     1024
 91
        1
280
     0
281
     0
  0
CLASS
  1
ACME_DATABASE
  2
AcMeDbDatabase
  3
AcMeServices
 90
     1024
 91
        1
280
     0
281
     0
  0
CLASS
  1
ACRFINSADJUSTERMGR
  2
AcRfInsAdjusterMgr
  3
AcMeServices
 90
     1024
 91
        1
280
     0
281
     0
  0
CLASS
  1
ACGREFACADMASTER
  2
AcGrefacadMaster
  3
AcGrefServices
 90
     1024
 91
        1
280
     0
281
     0
  0
CLASS
  1
AMDTMENUSTATEMGR
  2
AmdtMenuStateMgr
  3
McadcomServices
 90
     1024
 91
        1
280
     0
281
     0
  0
CLASS
  1
AMDTMCOMMENUSTATE
  2
AmdtMcomMenuState
  3
McadcomServices
 90
     1024
 91
        1
280
     0
281
     0
  0
CLASS
  1
AMIMASTER
  2
AmiMaster
  3
AmiServices
 90
     1024
 91
        1
280
     0
281
     0
  0
CLASS
  1
MAPIAMMOUDLE
  2
MApiAmModule
  3
MApiAmServices
 90
     1024
 91
        1
280
     0
281
     0
  0
CLASS
  1
ACIMSTRSYSVAR
  2
AcImStrSysVar
  3
AcMeServices
 90
     1024
 91
        5
280
     0
281
     0
  0
CLASS
  1
AMDTADMENUSTATE
  2
AmdtAdMenuState
  3
DesignerServices
 90
     1024
 91
        1
280
     0
281
     0
  0
CLASS
  1
ADAPPL
  2
AcAdAppl
  3
DesignerServices
 90
     1024
 91
        1
280
     0
281
     0
  0
CLASS
  1
DEPMGR
  2
AcAdDepMgr
  3
DesignerServices
 90
     1024
 91
        1
280
     0
281
     0
  0
CLASS
  1
PARAMMGR
  2
AcAdParamMgr
  3
DesignerServices
 90
     1024
 91
        1
280
     0
281
     0
  0
CLASS
  1
PARAMSCOPE
  2
AcAdParamScope
  3
DesignerServices
 90
     1024
 91
        1
280
     0
281
     0
  0
CLASS
  1
NAMEDAPPL
  2
AcAdNamedAppl
  3
DesignerServices
 90
     1024
 91
        1
280
     0
281
     0
  0
CLASS
  1
AMDTDMMENUSTATE
  2
AmdtDmMenuState
  3
AcMechDwgViewMgmt
 90
     1024
 91
        1
280
     0
281
     0
  0
CLASS
  1
AMDTAMMENUSTATE
  2
AmdtAmMenuState
  3
DesignerAssemblies
 90
     1024
 91
        1
280
     0
281
     0
  0
CLASS
  1
ACAMPROJECT
  2
AcAmProject
  3
DesignerAssemblies
 90
     1024
 91
        1
280
     0
281
     0
  0
CLASS
  1
ACAMGRCOMPDEF
  2
AcAmGrCompDef
  3
DesignerAssemblies
 90
     1024
 91
        1
280
     0
281
     0
  0
CLASS
  1
ACCMCONTEXT
  2
AcCmContext
  3
DesignerAssemblies
 90
     1024
 91
        1
280
     0
281
     0
  0
CLASS
  1
ACAMCOMPDEF
  2
AcAmCompDef
  3
DesignerAssemblies
 90
     1024
 91
        1
280
     0
281
     0
  0
CLASS
  1
ACAMCOMPDEFMGR
  2
AcAmCompDefMgr
  3
DesignerAssemblies
 90
     1024
 91
        1
280
     0
281
     0
  0
CLASS
  1
AMCONTEXTMGR
  2
AcAmContextMgr
  3
DesignerAssemblies
 90
     1024
 91
        1
280
     0
281
     0
  0
CLASS
  1
ACAMCONTEXTMODELER
  2
AcAmContextModeler
  3
DesignerAssemblies
 90
     1024
 91
        1
280
     0
281
     0
  0
CLASS
  1
ACMDATADICTIONARY
  2
AcmDataDictionary
  3
"AcmSymBB|Product Description: AutoCAD Mechanical|Company: Autodesk, Inc."
 90
     1024
 91
        1
280
     0
281
     0
  0
CLASS
  1
CATALOGSTATE
  2
AcAmCatalogState
  3
DesignerAssemblies
 90
     1024
 91
        1
280
     0
281
     0
  0
CLASS
  1
ACAMGRCOMPDEFSET
  2
AcAmGrCompDefSet
  3
DesignerAssemblies
 90
     1024
 91
        1
280
     0
281
     0
  0
CLASS
  1
AMDTBROWSERDBTAB
  2
AmdtBrowserDbTab
  3
McadcomServices
 90
     1024
 91
        1
280
     0
281
     0
  0
CLASS
  1
CBROWSERAPPOBJECT
  2
CBrowserAppObject
  3
McadcomServices
 90
     1024
 91
        3
280
     0
281
     0
  0
CLASS
  1
DM_PLACEHOLDER
  2
AcDmSelsetPlaceholder
  3
AcMechDwgViewMgmt
 90
     1024
 91
        1
280
     0
281
     0
  0
CLASS
  1
EXACXREFPANELOBJECT
  2
ExAcXREFPanelObject
  3
EXAC_ESW
 90
     1025
 91
        1
280
     0
281
     0
  0
CLASS
  1
NPOCOLLECTION
  2
AcDbImpNonPersistentObjectsCollection
  3
ObjectDBX Classes
 90
     1153
 91
        1
280
     0
281
     0
  0
CLASS
  1
ACMSTANDARDISO
  2
AcmStandardISO
  3
"Amdt_StdImp|Product Description: AutoCAD Mechanical|Company: Autodesk, Inc."
 90
     1024
 91
        1
280
     0
281
     0
  0
CLASS
  1
AMDTEDGESTANDARDISO13715
  2
AmdtEdgeStdISO13715
  3
"Amdt_StdImp|Product Description: AutoCAD Mechanical|Company: Autodesk, Inc."
 90
     1024
 91
        1
280
     0
281
     0
  0
CLASS
  1
ACMSURFSTANDARDISO2002
  2
AcmSurfTextStdISO2002
  3
"Amdt_StdImp|Product Description: AutoCAD Mechanical|Company: Autodesk, Inc."
 90
     1024
 91
        1
280
     0
281
     0
  0
CLASS
  1
ACMFCFSTANDARDISO
  2
AcmFCFStdISO
  3
"Amdt_StdImp|Product Description: AutoCAD Mechanical|Company: Autodesk, Inc."
 90
     1024
 91
        1
280
     0
281
     0
  0
CLASS
  1
ACMWELDSTANDARDISO
  2
AcmWeldingStdISO
  3
"Amdt_StdImp|Product Description: AutoCAD Mechanical|Company: Autodesk, Inc."
 90
     1024
 91
        1
280
     0
281
     0
  0
CLASS
  1
ACMIDSTANDARDISO
  2
AcmIdStdISO
  3
"Amdt_StdImp|Product Description: AutoCAD Mechanical|Company: Autodesk, Inc."
 90
     1024
 91
        1
280
     0
281
     0
  0
CLASS
  1
ACMDATUMSTANDARDISO
  2
AcmDatumStdISO
  3
"Amdt_StdImp|Product Description: AutoCAD Mechanical|Company: Autodesk, Inc."
 90
     1024
 91
        1
280
     0
281
     0
  0
CLASS
  1
ACMBOMSTANDARDISO
  2
AcmBOMStdISO
  3
"Amdt_StdImp|Product Description: AutoCAD Mechanical|Company: Autodesk, Inc."
 90
     1024
 91
        1
280
     0
281
     0
  0
CLASS
  1
ACMDETAILSTANDARDISO
  2
AmdtDetailSymStdISO
  3
"Amdt_StdImp|Product Description: AutoCAD Mechanical|Company: Autodesk, Inc."
 90
     1024
 91
        1
280
     0
281
     0
  0
CLASS
  1
ACMSECTIONSTANDARDISO2001
  2
AmdtSectionSymStdISO2001
  3
"Amdt_StdImp|Product Description: AutoCAD Mechanical|Company: Autodesk, Inc."
 90
     1024
 91
        1
280
     0
281
     0
  0
CLASS
  1
ACMCENTERLINESTANDARDISO
  2
AmdtCenterLineStdISO
  3
"Amdt_StdImp|Product Description: AutoCAD Mechanical|Company: Autodesk, Inc."
 90
     1024
 91
        1
280
     0
281
     0
  0
CLASS
  1
ACMTHREADLINESTANDARDISO
  2
AmdtThreadLineStdISO
  3
"Amdt_StdImp|Product Description: AutoCAD Mechanical|Company: Autodesk, Inc."
 90
     1024
 91
        1
280
     0
281
     0
  0
CLASS
  1
ACMNOTESTANDARDISO
  2
AmdtNoteStdISO
  3
"Amdt_StdImp|Product Description: AutoCAD Mechanical|Company: Autodesk, Inc."
 90
     1024
 91
        1
280
     0
281
     0
  0
CLASS
  1
ACMTAPERSTANDARDISO
  2
AcmTaperStdISO
  3
"Amdt_StdImp|Product Description: AutoCAD Mechanical|Company: Autodesk, Inc."
 90
     1024
 91
        1
280
     0
281
     0
  0
CLASS
  1
ACMANOOTATIONVIEWSTANDARDISO
  2
AmdtAnViewStdISO
  3
"Amdt_StdImp|Product Description: AutoCAD Mechanical|Company: Autodesk, Inc."
 90
     1024
 91
        1
280
     0
281
     0
  0
CLASS
  1
ACAMGLAYSTD
  2
AcAmgLayStd
  3
"AmgLay|Product Description: AutoCAD Mechanical|Company: Autodesk, Inc."
 90
     1024
 91
        1
280
     0
281
     0
  0
CLASS
  1
ACAMGDIMSTD
  2
AcAmgDimStd
  3
"AmgDim|Product Description: AutoCAD Mechanical|Company: Autodesk, Inc."
 90
     1024
 91
        1
280
     0
281
     0
  0
CLASS
  1
AMGOBJPROPCFG
  2
AmgObjPropCfg
  3
"AmgLay|Product Description: AutoCAD Mechanical|Company: Autodesk, Inc."
 90
     1025
 91
        1
280
     0
281
     0
  0
CLASS
  1
ACAMGHOLECHARTSTDISO
  2
AcAmgHoleChartStdISO
  3
AmgDim|Product Description: AutoCAD Mechanical|Company: Autodesk, Inc.
 90
     1024
 91
        1
280
     0
281
     0
  0
CLASS
  1
ACAMGTITLESTD
  2
AcAmgTitleStd
  3
"AmgTitle|Product Description: AutoCAD Mechanical|Company: Autodesk, Inc."
 90
     4095
 91
        1
280
     0
281
     0
  0
CLASS
  1
AMDTNOTETEMPLATEDB
  2
AmdtNoteTemplateDB
  3
AcmSymBB|Product Description: AutoCAD Mechanical|Company: Autodesk, Inc.
 90
     1024
 91
        6
280
     0
281
     0
  0
CLASS
  1
ACAMGFILTERDAT
  2
AcAmgFilterDat
  3
"AcadM|Product Description: AutoCAD Mechanical|Company: Autodesk, Inc."
 90
     1024
 91
        6
280
     0
281
     0
  0
CLASS
  1
CAMSSTRUCTBTNSTATE
  2
StructBtnState
  3
DesignerAssemblies
 90
     1024
 91
        1
280
     0
281
     0
  0
ENDSEC
  0
SECTION
  2
TABLES
  0
TABLE
  2
VPORT
  5
8
330
0
100
AcDbSymbolTable
 70
     1
  0
VPORT
  5
1F4
330
8
100
AcDbSymbolTableRecord
100
AcDbViewportTableRecord
  2
*ACTIVE
 70
     0
 10
0.0
 20
0.0
 11
1.0
 21
1.0
 12
556.5402914994447
 22
343.2359116619656
 13
0.0
 23
0.0
 14
1.0
 24
1.0
 15
0.0
 25
0.0
 16
0.0
 26
0.0
 36
1.0
 17
0.0
 27
0.0
 37
0.0
 40
1961.907607435968
 41
1.843230403800474
 42
50.0
 43
0.0
 44
0.0
 50
0.0
 51
0.0
 71
     0
 72
   100
 73
     1
 74
     1
 75
     0
 76
     0
 77
     0
 78
     0
281
     0
 65
     1
110
0.0
120
0.0
130
0.0
111
1.0
121
0.0
131
0.0
112
0.0
122
1.0
132
0.0
 79
     0
146
0.0
348
6739
 60
     3
 61
     5
292
     1
282
     1
141
0.0
142
0.0
 63
   250
421
  3355443
  0
ENDTAB
  0
TABLE
  2
LTYPE
  5
5
330
0
100
AcDbSymbolTable
 70
    17
  0
LTYPE
  5
14
330
5
100
AcDbSymbolTableRecord
100
AcDbLinetypeTableRecord
  2
BYBLOCK
 70
     0
  3

 72
    65
 73
     0
 40
0.0
  0
LTYPE
  5
15
330
5
100
AcDbSymbolTableRecord
100
AcDbLinetypeTableRecord
  2
BYLAYER
 70
     0
  3

 72
    65
 73
     0
 40
0.0
  0
LTYPE
  5
16
330
5
100
AcDbSymbolTableRecord
100
AcDbLinetypeTableRecord
  2
CONTINUOUS
 70
     0
  3
Solid line
 72
    65
 73
     0
 40
0.0
  0
LTYPE
  5
1F5
330
5
100
AcDbSymbolTableRecord
100
AcDbLinetypeTableRecord
  2
CENTER
 70
     0
  3
____ _ ____ _ ____ _ ____ _ ____ _ ____ _ ____
 72
    65
 73
     4
 40
0.6
 49
0.375
 74
     0
 49
-0.075
 74
     0
 49
0.075
 74
     0
 49
-0.075
 74
     0
  0
LTYPE
  5
1F6
330
5
100
AcDbSymbolTableRecord
100
AcDbLinetypeTableRecord
  2
HIDDEN
 70
     0
  3
- - - - - - - - - - - - - - - - - - - -
 72
    65
 73
     2
 40
0.2
 49
0.1
 74
     0
 49
-0.1
 74
     0
  0
LTYPE
  5
1F7
330
5
100
AcDbSymbolTableRecord
100
AcDbLinetypeTableRecord
  2
PHANTOM
 70
     0
  3
_____ _ _ _____ _ _ _____ _ _ _____
 72
    65
 73
     6
 40
0.8
 49
0.45
 74
     0
 49
-0.05
 74
     0
 49
0.1
 74
     0
 49
-0.05
 74
     0
 49
0.1
 74
     0
 49
-0.05
 74
     0
  0
LTYPE
  5
1F8
330
5
100
AcDbSymbolTableRecord
100
AcDbLinetypeTableRecord
  2
DOT
 70
     0
  3
. . . . . . . . . . . . . . . . . . . .
 72
    65
 73
     2
 40
0.2
 49
0.1
 74
     0
 49
-0.1
 74
     0
  0
LTYPE
  5
1F9
330
5
100
AcDbSymbolTableRecord
100
AcDbLinetypeTableRecord
  2
DASHED
 70
     0
  3
- - - - - - - - - - - - - - - - - - - -
 72
    65
 73
     2
 40
0.2
 49
0.1
 74
     0
 49
-0.1
 74
     0
  0
LTYPE
  5
67C5
330
5
100
AcDbSymbolTableRecord
100
AcDbLinetypeTableRecord
  2
PHANTOM2
 70
     0
  3
Phantom (.5x) ___ _ _ ___ _ _ ___ _ _ ___ _ _
 72
    65
 73
     6
 40
31.75
 49
15.875
 74
     0
 49
-3.174999999999999
 74
     0
 49
3.174999999999999
 74
     0
 49
-3.174999999999999
 74
     0
 49
3.174999999999999
 74
     0
 49
-3.174999999999999
 74
     0
  0
LTYPE
  5
680D
330
5
100
AcDbSymbolTableRecord
100
AcDbLinetypeTableRecord
  2
AM_ISO02W050
 70
     0
  3
__ __ __ __ __ __ __ __ __ __ __ __ __ __ __
 72
    65
 73
     2
 40
7.5
 49
6.0
 74
     0
 49
-1.5
 74
     0
  0
LTYPE
  5
680E
330
5
100
AcDbSymbolTableRecord
100
AcDbLinetypeTableRecord
  2
AM_ISO08W050
 70
     0
  3
____ . ____ . ____ . ____ . ____ . ____ . ____
 72
    65
 73
     4
 40
18.0
 49
12.0
 74
     0
 49
-1.5
 74
     0
 49
3.0
 74
     0
 49
-1.5
 74
     0
  0
LTYPE
  5
680F
330
5
100
AcDbSymbolTableRecord
100
AcDbLinetypeTableRecord
  2
AM_ISO09W050
 70
     0
  3
_____ . . _____ . . _____ . . ____ .. ____
 72
    65
 73
     6
 40
22.5
 49
12.0
 74
     0
 49
-1.5
 74
     0
 49
3.0
 74
     0
 49
-1.5
 74
     0
 49
3.0
 74
     0
 49
-1.5
 74
     0
  0
LTYPE
  5
6810
330
5
100
AcDbSymbolTableRecord
100
AcDbLinetypeTableRecord
  2
Amconstr
 70
     0
  3
_______________________
 72
    65
 73
     2
 40
9999.0
 49
9999.0
 74
     0
 49
0.0
 74
     0
  0
LTYPE
  5
6811
330
5
100
AcDbSymbolTableRecord
100
AcDbLinetypeTableRecord
  2
AM_ISO08W050x2
 70
     0
  3
__ . __ . __ . __ . __ . __
 72
    65
 73
     4
 40
9.0
 49
6.0
 74
     0
 49
-0.75
 74
     0
 49
1.5
 74
     0
 49
-0.75
 74
     0
  0
LTYPE
  5
6812
330
5
100
AcDbSymbolTableRecord
100
AcDbLinetypeTableRecord
  2
AM_ISO02W050x2
 70
     0
  3
 _ _ _ _ _ _ _ _ _ _ _ _
 72
    65
 73
     2
 40
3.75
 49
3.0
 74
     0
 49
-0.75
 74
     0
  0
LTYPE
  5
6815
330
5
100
AcDbSymbolTableRecord
100
AcDbLinetypeTableRecord
  2
Amzigzag
 70
     0
  3
/\/-/\/-/\/-/\/-/\/-/\/
 72
    65
 73
     2
 40
11.0001
 49
0.0001
 74
     4
 75
   136
340
6814
 46
0.04
 50
0.0
 44
0.0
 45
0.0
 49
-11.0
 74
     0
  0
LTYPE
  5
6824
330
5
100
AcDbSymbolTableRecord
100
AcDbLinetypeTableRecord
  2
ACISOWELD
 70
     0
  3
_ _ _ _ _
 72
    65
 73
     2
 40
2.0
 49
2.0
 74
     0
 49
-1.0
 74
     0
  0
LTYPE
  5
6825
330
5
100
AcDbSymbolTableRecord
100
AcDbLinetypeTableRecord
  2
ACISOTGB
 70
     0
  3
__ . . __ . .
 72
    65
 73
     6
 40
9.0
 49
4.0
 74
     0
 49
-1.0
 74
     0
 49
1.0
 74
     0
 49
-1.0
 74
     0
 49
1.0
 74
     0
 49
-1.0
 74
     0
  0
LTYPE
  5
6826
330
5
100
AcDbSymbolTableRecord
100
AcDbLinetypeTableRecord
  2
ACISOTGL
 70
     0
  3
_ _ _ _ _
 72
    65
 73
     2
 40
3.0
 49
2.0
 74
     0
 49
-1.0
 74
     0
  0
ENDTAB
  0
TABLE
  2
LAYER
  5
2
330
0
100
AcDbSymbolTable
 70
    64
  0
LAYER
  5
10
330
2
100
AcDbSymbolTableRecord
100
AcDbLayerTableRecord
  2
0
 70
     0
 62
     7
  6
CONTINUOUS
370
    -3
390
F
347
672B
  0
LAYER
  5
1FA
330
2
100
AcDbSymbolTableRecord
100
AcDbLayerTableRecord
  2
DEFAULT_1
 70
     0
 62
     7
  6
CENTER
370
    -3
390
F
347
672B
  0
LAYER
  5
1FB
330
2
100
AcDbSymbolTableRecord
100
AcDbLayerTableRecord
  2
DEFAULT_2
 70
     0
 62
     8
  6
HIDDEN
370
    -3
390
F
347
672B
  0
LAYER
  5
1FC
330
2
100
AcDbSymbolTableRecord
100
AcDbLayerTableRecord
  2
DEFAULT_3
 70
     0
 62
     7
  6
PHANTOM
370
    -3
390
F
347
672B
  0
LAYER
  5
1FD
330
2
100
AcDbSymbolTableRecord
100
AcDbLayerTableRecord
  2
01_ALL_DTM_PLN
 70
     0
 62
     7
  6
CONTINUOUS
370
    -3
390
F
347
672B
  0
LAYER
  5
1FE
330
2
100
AcDbSymbolTableRecord
100
AcDbLayerTableRecord
  2
01__ASM_ALL_DTM_PLN
 70
     0
 62
     7
  6
CONTINUOUS
370
    -3
390
F
347
672B
  0
LAYER
  5
1FF
330
2
100
AcDbSymbolTableRecord
100
AcDbLayerTableRecord
  2
01__ASM_DEF_DTM_PLN
 70
     0
 62
     7
  6
CONTINUOUS
370
    -3
390
F
347
672B
  0
LAYER
  5
200
330
2
100
AcDbSymbolTableRecord
100
AcDbLayerTableRecord
  2
01___PRT_ALL_DTM_PLN
 70
     0
 62
     7
  6
CONTINUOUS
370
    -3
390
F
347
672B
  0
LAYER
  5
201
330
2
100
AcDbSymbolTableRecord
100
AcDbLayerTableRecord
  2
01___PRT_DEF_DTM_PLN
 70
     0
 62
     7
  6
CONTINUOUS
370
    -3
390
F
347
672B
  0
LAYER
  5
202
330
2
100
AcDbSymbolTableRecord
100
AcDbLayerTableRecord
  2
02_ALL_AXES
 70
     0
 62
     7
  6
CONTINUOUS
370
    -3
390
F
347
672B
  0
LAYER
  5
203
330
2
100
AcDbSymbolTableRecord
100
AcDbLayerTableRecord
  2
02__ASM_ALL_AXES
 70
     0
 62
     7
  6
CONTINUOUS
370
    -3
390
F
347
672B
  0
LAYER
  5
204
330
2
100
AcDbSymbolTableRecord
100
AcDbLayerTableRecord
  2
02___PRT_ALL_AXES
 70
     0
 62
     7
  6
CONTINUOUS
370
    -3
390
F
347
672B
  0
LAYER
  5
205
330
2
100
AcDbSymbolTableRecord
100
AcDbLayerTableRecord
  2
03_ALL_CURVES
 70
     0
 62
     7
  6
CONTINUOUS
370
    -3
390
F
347
672B
  0
LAYER
  5
206
330
2
100
AcDbSymbolTableRecord
100
AcDbLayerTableRecord
  2
03__ASM_ALL_CURVES
 70
     0
 62
     7
  6
CONTINUOUS
370
    -3
390
F
347
672B
  0
LAYER
  5
207
330
2
100
AcDbSymbolTableRecord
100
AcDbLayerTableRecord
  2
03___PRT_ALL_CURVES
 70
     0
 62
     7
  6
CONTINUOUS
370
    -3
390
F
347
672B
  0
LAYER
  5
208
330
2
100
AcDbSymbolTableRecord
100
AcDbLayerTableRecord
  2
04_ALL_DTM_PNT
 70
     0
 62
     7
  6
CONTINUOUS
370
    -3
390
F
347
672B
  0
LAYER
  5
209
330
2
100
AcDbSymbolTableRecord
100
AcDbLayerTableRecord
  2
04__ASM_ALL_DTM_PNT
 70
     0
 62
     7
  6
CONTINUOUS
370
    -3
390
F
347
672B
  0
LAYER
  5
20A
330
2
100
AcDbSymbolTableRecord
100
AcDbLayerTableRecord
  2
04___PRT_ALL_DTM_PNT
 70
     0
 62
     7
  6
CONTINUOUS
370
    -3
390
F
347
672B
  0
LAYER
  5
20B
330
2
100
AcDbSymbolTableRecord
100
AcDbLayerTableRecord
  2
05_ALL_DTM_CSYS
 70
     0
 62
     7
  6
CONTINUOUS
370
    -3
390
F
347
672B
  0
LAYER
  5
20C
330
2
100
AcDbSymbolTableRecord
100
AcDbLayerTableRecord
  2
05__ASM_ALL_DTM_CSYS
 70
     0
 62
     7
  6
CONTINUOUS
370
    -3
390
F
347
672B
  0
LAYER
  5
20D
330
2
100
AcDbSymbolTableRecord
100
AcDbLayerTableRecord
  2
05__ASM_DEF_DTM_CSYS
 70
     0
 62
     7
  6
CONTINUOUS
370
    -3
390
F
347
672B
  0
LAYER
  5
20E
330
2
100
AcDbSymbolTableRecord
100
AcDbLayerTableRecord
  2
05___PRT_ALL_DTM_CSYS
 70
     0
 62
     7
  6
CONTINUOUS
370
    -3
390
F
347
672B
  0
LAYER
  5
20F
330
2
100
AcDbSymbolTableRecord
100
AcDbLayerTableRecord
  2
05___PRT_DEF_DTM_CSYS
 70
     0
 62
     7
  6
CONTINUOUS
370
    -3
390
F
347
672B
  0
LAYER
  5
210
330
2
100
AcDbSymbolTableRecord
100
AcDbLayerTableRecord
  2
06_ALL_SURFS
 70
     0
 62
     7
  6
CONTINUOUS
370
    -3
390
F
347
672B
  0
LAYER
  5
211
330
2
100
AcDbSymbolTableRecord
100
AcDbLayerTableRecord
  2
06__ASM_ALL_SURFS
 70
     0
 62
     7
  6
CONTINUOUS
370
    -3
390
F
347
672B
  0
LAYER
  5
212
330
2
100
AcDbSymbolTableRecord
100
AcDbLayerTableRecord
  2
06___PRT_ALL_SURFS
 70
     0
 62
     7
  6
CONTINUOUS
370
    -3
390
F
347
672B
  0
LAYER
  5
213
330
2
100
AcDbSymbolTableRecord
100
AcDbLayerTableRecord
  2
07__ASM_ALL_SKELETONS
 70
     0
 62
     7
  6
CONTINUOUS
370
    -3
390
F
347
672B
  0
LAYER
  5
214
330
2
100
AcDbSymbolTableRecord
100
AcDbLayerTableRecord
  2
11
 70
     0
 62
     7
  6
CONTINUOUS
370
    -3
390
F
347
672B
  0
LAYER
  5
215
330
2
100
AcDbSymbolTableRecord
100
AcDbLayerTableRecord
  2
1_ALL_PLANES
 70
     0
 62
     7
  6
CONTINUOUS
370
    -3
390
F
347
672B
  0
LAYER
  5
216
330
2
100
AcDbSymbolTableRecord
100
AcDbLayerTableRecord
  2
2_ALL_CSYS
 70
     0
 62
     7
  6
CONTINUOUS
370
    -3
390
F
347
672B
  0
LAYER
  5
217
330
2
100
AcDbSymbolTableRecord
100
AcDbLayerTableRecord
  2
3_ALL_AXES
 70
     0
 62
     7
  6
CONTINUOUS
370
    -3
390
F
347
672B
  0
LAYER
  5
218
330
2
100
AcDbSymbolTableRecord
100
AcDbLayerTableRecord
  2
4_ALL_POINTS
 70
     0
 62
     7
  6
CONTINUOUS
370
    -3
390
F
347
672B
  0
LAYER
  5
219
330
2
100
AcDbSymbolTableRecord
100
AcDbLayerTableRecord
  2
5_ALL_CURVES
 70
     0
 62
     7
  6
CONTINUOUS
370
    -3
390
F
347
672B
  0
LAYER
  5
21A
330
2
100
AcDbSymbolTableRecord
100
AcDbLayerTableRecord
  2
6_ALL_SURFS
 70
     0
 62
     7
  6
CONTINUOUS
370
    -3
390
F
347
672B
  0
LAYER
  5
21B
330
2
100
AcDbSymbolTableRecord
100
AcDbLayerTableRecord
  2
7_ALL_FEATURES
 70
     0
 62
     7
  6
CONTINUOUS
370
    -3
390
F
347
672B
  0
LAYER
  5
21C
330
2
100
AcDbSymbolTableRecord
100
AcDbLayerTableRecord
  2
AXIS
 70
     0
 62
     7
  6
CONTINUOUS
370
    -3
390
F
347
672B
  0
LAYER
  5
21D
330
2
100
AcDbSymbolTableRecord
100
AcDbLayerTableRecord
  2
CSYS
 70
     0
 62
     7
  6
CONTINUOUS
370
    -3
390
F
347
672B
  0
LAYER
  5
21E
330
2
100
AcDbSymbolTableRecord
100
AcDbLayerTableRecord
  2
CURVE
 70
     0
 62
     7
  6
CONTINUOUS
370
    -3
390
F
347
672B
  0
LAYER
  5
21F
330
2
100
AcDbSymbolTableRecord
100
AcDbLayerTableRecord
  2
DATUMS
 70
     0
 62
     7
  6
CONTINUOUS
370
    -3
390
F
347
672B
  0
LAYER
  5
220
330
2
100
AcDbSymbolTableRecord
100
AcDbLayerTableRecord
  2
DATUM_AXIS
 70
     0
 62
     7
  6
CONTINUOUS
370
    -3
390
F
347
672B
  0
LAYER
  5
221
330
2
100
AcDbSymbolTableRecord
100
AcDbLayerTableRecord
  2
DATUM_CSYS
 70
     0
 62
     7
  6
CONTINUOUS
370
    -3
390
F
347
672B
  0
LAYER
  5
222
330
2
100
AcDbSymbolTableRecord
100
AcDbLayerTableRecord
  2
DATUM_PLANE
 70
     0
 62
     7
  6
CONTINUOUS
370
    -3
390
F
347
672B
  0
LAYER
  5
223
330
2
100
AcDbSymbolTableRecord
100
AcDbLayerTableRecord
  2
DATUM_POINT
 70
     0
 62
     7
  6
CONTINUOUS
370
    -3
390
F
347
672B
  0
LAYER
  5
224
330
2
100
AcDbSymbolTableRecord
100
AcDbLayerTableRecord
  2
DIM
 70
     0
 62
     7
  6
CONTINUOUS
370
    -3
390
F
347
672B
  0
LAYER
  5
225
330
2
100
AcDbSymbolTableRecord
100
AcDbLayerTableRecord
  2
DTM
 70
     0
 62
     7
  6
CONTINUOUS
370
    -3
390
F
347
672B
  0
LAYER
  5
226
330
2
100
AcDbSymbolTableRecord
100
AcDbLayerTableRecord
  2
DTM_MAIN
 70
     0
 62
     7
  6
CONTINUOUS
370
    -3
390
F
347
672B
  0
LAYER
  5
227
330
2
100
AcDbSymbolTableRecord
100
AcDbLayerTableRecord
  2
INTFCLR_1
 70
     0
 62
     7
  6
CONTINUOUS
370
    -3
390
F
347
672B
  0
LAYER
  5
228
330
2
100
AcDbSymbolTableRecord
100
AcDbLayerTableRecord
  2
INTF_1
 70
     0
 62
     7
  6
CONTINUOUS
370
    -3
390
F
347
672B
  0
LAYER
  5
229
330
2
100
AcDbSymbolTableRecord
100
AcDbLayerTableRecord
  2
INTF_2
 70
     0
 62
     7
  6
CONTINUOUS
370
    -3
390
F
347
672B
  0
LAYER
  5
22A
330
2
100
AcDbSymbolTableRecord
100
AcDbLayerTableRecord
  2
INTF_3
 70
     0
 62
     7
  6
CONTINUOUS
370
    -3
390
F
347
672B
  0
LAYER
  5
22B
330
2
100
AcDbSymbolTableRecord
100
AcDbLayerTableRecord
  2
INTF_6
 70
     0
 62
     7
  6
CONTINUOUS
370
    -3
390
F
347
672B
  0
LAYER
  5
22C
330
2
100
AcDbSymbolTableRecord
100
AcDbLayerTableRecord
  2
LAY0001
 70
     0
 62
     7
  6
CONTINUOUS
370
    -3
390
F
347
672B
  0
LAYER
  5
22D
330
2
100
AcDbSymbolTableRecord
100
AcDbLayerTableRecord
  2
RGB____0____0____0__
 70
     0
 62
     7
  6
CONTINUOUS
370
    -3
390
F
347
672B
  0
LAYER
  5
22E
330
2
100
AcDbSymbolTableRecord
100
AcDbLayerTableRecord
  2
SURFACE
 70
     0
 62
     7
  6
CONTINUOUS
370
    -3
390
F
347
672B
  0
LAYER
  5
22F
330
2
100
AcDbSymbolTableRecord
100
AcDbLayerTableRecord
  2
SURS
 70
     0
 62
     7
  6
CONTINUOUS
370
    -3
390
F
347
672B
  0
LAYER
  5
230
330
2
100
AcDbSymbolTableRecord
100
AcDbLayerTableRecord
  2
XSEC_DATUMS
 70
     0
 62
     7
  6
CONTINUOUS
370
    -3
390
F
347
672B
  0
LAYER
  5
231
330
2
100
AcDbSymbolTableRecord
100
AcDbLayerTableRecord
  2
_CURVE
 70
     0
 62
     7
  6
CONTINUOUS
370
    -3
390
F
347
672B
  0
LAYER
  5
232
330
2
100
AcDbSymbolTableRecord
100
AcDbLayerTableRecord
  2
_SURFACE
 70
     0
 62
     7
  6
CONTINUOUS
370
    -3
390
F
347
672B
  0
LAYER
  5
233
330
2
100
AcDbSymbolTableRecord
100
AcDbLayerTableRecord
  2
__REF_CURVE
 70
     0
 62
     7
  6
CONTINUOUS
370
    -3
390
F
347
672B
  0
LAYER
  5
234
330
2
100
AcDbSymbolTableRecord
100
AcDbLayerTableRecord
  2
__REF_SURFACE
 70
     0
 62
     7
  6
CONTINUOUS
370
    -3
390
F
347
672B
  0
LAYER
  5
235
330
2
100
AcDbSymbolTableRecord
100
AcDbLayerTableRecord
  2
___COSMETIC_THREAD
 70
     0
 62
     7
  6
CONTINUOUS
370
    -3
390
F
347
672B
  0
LAYER
  5
236
330
2
100
AcDbSymbolTableRecord
100
AcDbLayerTableRecord
  2
___NOTE
 70
     0
 62
     7
  6
CONTINUOUS
370
    -3
390
F
347
672B
  0
LAYER
  5
237
330
2
100
AcDbSymbolTableRecord
100
AcDbLayerTableRecord
  2
___SHELL
 70
     0
 62
     7
  6
CONTINUOUS
370
    -3
390
F
347
672B
  0
LAYER
  5
238
330
2
100
AcDbSymbolTableRecord
100
AcDbLayerTableRecord
  2
___SYMBOL
 70
     0
 62
     7
  6
CONTINUOUS
370
    -3
390
F
347
672B
  0
ENDTAB
  0
TABLE
  2
STYLE
  5
3
330
0
100
AcDbSymbolTable
 70
    22
  0
STYLE
  5
11
330
3
100
AcDbSymbolTableRecord
100
AcDbTextStyleTableRecord
  2
STANDARD
 70
     0
 40
0.0
 41
0.8
 50
0.0
 71
     0
 42
0.2
  3
txt
  4

  0
STYLE
  5
239
330
3
100
AcDbSymbolTableRecord
100
AcDbTextStyleTableRecord
  2
TEXTSTYLE_1
 70
     0
 40
0.0
 41
0.8
 50
0.0
 71
     0
 42
0.2
  3
gdt
  4

  0
STYLE
  5
23A
330
3
100
AcDbSymbolTableRecord
100
AcDbTextStyleTableRecord
  2
TEXTSTYLE_2
 70
     0
 40
0.0
 41
1.04
 50
0.0
 71
     0
 42
0.2
  3
txt
  4

  0
STYLE
  5
23B
330
3
100
AcDbSymbolTableRecord
100
AcDbTextStyleTableRecord
  2
TEXTSTYLE_3
 70
     0
 40
0.0
 41
0.9399999999999998
 50
0.0
 71
     0
 42
0.2
  3
txt
  4

  0
STYLE
  5
23C
330
3
100
AcDbSymbolTableRecord
100
AcDbTextStyleTableRecord
  2
TEXTSTYLE_4
 70
     0
 40
0.0
 41
1.0
 50
0.0
 71
     0
 42
0.2
  3
txt
  4

  0
STYLE
  5
23D
330
3
100
AcDbSymbolTableRecord
100
AcDbTextStyleTableRecord
  2
TEXTSTYLE_5
 70
     0
 40
0.0
 41
1.199999999999999
 50
0.0
 71
     0
 42
0.2
  3
txt
  4

  0
STYLE
  5
23E
330
3
100
AcDbSymbolTableRecord
100
AcDbTextStyleTableRecord
  2
TEXTSTYLE_6
 70
     0
 40
0.0
 41
1.02
 50
0.0
 71
     0
 42
0.2
  3
txt
  4

  0
STYLE
  5
23F
330
3
100
AcDbSymbolTableRecord
100
AcDbTextStyleTableRecord
  2
TEXTSTYLE_7
 70
     0
 40
0.0
 41
0.925
 50
0.0
 71
     0
 42
0.2
  3
txt
  4

  0
STYLE
  5
240
330
3
100
AcDbSymbolTableRecord
100
AcDbTextStyleTableRecord
  2
TEXTSTYLE_8
 70
     0
 40
0.0
 41
0.85
 50
0.0
 71
     0
 42
0.2
  3
txt
  4

  0
STYLE
  5
241
330
3
100
AcDbSymbolTableRecord
100
AcDbTextStyleTableRecord
  2
TEXTSTYLE_9
 70
     0
 40
0.0
 41
1.05
 50
0.0
 71
     0
 42
0.2
  3
txt
  4

  0
STYLE
  5
242
330
3
100
AcDbSymbolTableRecord
100
AcDbTextStyleTableRecord
  2
TEXTSTYLE_10
 70
     0
 40
0.0
 41
1.09
 50
0.0
 71
     0
 42
0.2
  3
txt
  4

  0
STYLE
  5
243
330
3
100
AcDbSymbolTableRecord
100
AcDbTextStyleTableRecord
  2
TEXTSTYLE_11
 70
     0
 40
0.0
 41
0.99
 50
0.0
 71
     0
 42
0.2
  3
txt
  4

  0
STYLE
  5
244
330
3
100
AcDbSymbolTableRecord
100
AcDbTextStyleTableRecord
  2
TEXTSTYLE_12
 70
     0
 40
0.0
 41
1.07
 50
0.0
 71
     0
 42
0.2
  3
txt
  4

  0
STYLE
  5
245
330
3
100
AcDbSymbolTableRecord
100
AcDbTextStyleTableRecord
  2
TEXTSTYLE_13
 70
     0
 40
0.0
 41
1.229999999999999
 50
0.0
 71
     0
 42
0.2
  3
txt
  4

  0
STYLE
  5
246
330
3
100
AcDbSymbolTableRecord
100
AcDbTextStyleTableRecord
  2
TEXTSTYLE_14
 70
     0
 40
0.0
 41
1.01
 50
0.0
 71
     0
 42
0.2
  3
txt
  4

  0
STYLE
  5
247
330
3
100
AcDbSymbolTableRecord
100
AcDbTextStyleTableRecord
  2
TEXTSTYLE_15
 70
     0
 40
0.0
 41
1.03
 50
0.0
 71
     0
 42
0.2
  3
txt
  4

  0
STYLE
  5
248
330
3
100
AcDbSymbolTableRecord
100
AcDbTextStyleTableRecord
  2
TEXTSTYLE_16
 70
     0
 40
0.0
 41
0.9700055556
 50
0.0
 71
     0
 42
0.2
  3
txt
  4

  0
STYLE
  5
249
330
3
100
AcDbSymbolTableRecord
100
AcDbTextStyleTableRecord
  2
TEXTSTYLE_17
 70
     0
 40
0.0
 41
1.379999999999999
 50
0.0
 71
     0
 42
0.2
  3
txt
  4

  0
STYLE
  5
24A
330
3
100
AcDbSymbolTableRecord
100
AcDbTextStyleTableRecord
  2
TEXTSTYLE_18
 70
     0
 40
0.0
 41
0.95
 50
0.0
 71
     0
 42
0.2
  3
txt
  4

  0
STYLE
  5
6814
330
3
100
AcDbSymbolTableRecord
100
AcDbTextStyleTableRecord
  2

 70
     1
 40
0.0
 41
1.0
 50
0.0
 71
     0
 42
0.2
  3
genltshp.shx
  4

  0
STYLE
  5
6822
330
3
100
AcDbSymbolTableRecord
100
AcDbTextStyleTableRecord
  2
ACISOTS
 70
     0
 40
1.0
 41
1.0
 50
0.0
 71
     0
 42
0.2
  3
isocp.shx
  4
gbcbig.shx
  0
STYLE
  5
6823
330
3
100
AcDbSymbolTableRecord
100
AcDbTextStyleTableRecord
  2
ACISOGDT
 70
     0
 40
0.0
 41
1.0
 50
0.0
 71
     0
 42
0.2
  3
amgdt.shx
  4

  0
ENDTAB
  0
TABLE
  2
VIEW
  5
6
330
0
100
AcDbSymbolTable
 70
     0
  0
ENDTAB
  0
TABLE
  2
UCS
  5
7
330
0
100
AcDbSymbolTable
 70
     0
  0
ENDTAB
  0
TABLE
  2
APPID
  5
9
330
0
100
AcDbSymbolTable
 70
     9
  0
APPID
  5
24B
330
9
100
AcDbSymbolTableRecord
100
AcDbRegAppTableRecord
  2
ACAD
 70
     0
  0
APPID
  5
6787
330
9
100
AcDbSymbolTableRecord
100
AcDbRegAppTableRecord
  2
ACAD_MLEADERVER
 70
     0
  0
APPID
  5
6798
330
9
100
AcDbSymbolTableRecord
100
AcDbRegAppTableRecord
  2
MCAD_NO_VIS
 70
     0
  0
APPID
  5
6799
330
9
100
AcDbSymbolTableRecord
100
AcDbRegAppTableRecord
  2
ACAD_TEMP_GRAPHIC
 70
     0
  0
APPID
  5
67C7
330
9
100
AcDbSymbolTableRecord
100
AcDbRegAppTableRecord
  2
AD_DRAW
 70
     0
  0
APPID
  5
67CA
330
9
100
AcDbSymbolTableRecord
100
AcDbRegAppTableRecord
  2
ACATTRIBSERVICES
 70
     0
  0
APPID
  5
67EB
330
9
100
AcDbSymbolTableRecord
100
AcDbRegAppTableRecord
  2
DESIGNERASSEMBLIES
 70
     0
  0
APPID
  5
67F1
330
9
100
AcDbSymbolTableRecord
100
AcDbRegAppTableRecord
  2
ACADM_DIM_EDIT
 70
     0
  0
APPID
  5
67F2
330
9
100
AcDbSymbolTableRecord
100
AcDbRegAppTableRecord
  2
AMDT_DM_ADJ
 70
     0
  0
ENDTAB
  0
TABLE
  2
DIMSTYLE
  5
A
330
0
100
AcDbSymbolTable
 70
    14
100
AcDbDimStyleTable
 71
     1
340
680B
  0
DIMSTYLE
105
262
330
A
100
AcDbSymbolTableRecord
100
AcDbDimStyleTableRecord
  2
STANDARD
 70
     0
 41
4.7625
 42
1.587499999999999
 44
3.174999999999999
 47
0.01
 48
0.01
 71
     1
 78
     8
140
3.96875
147
0.625
271
     3
272
     3
284
     8
340
11
341
24E
342
24E
343
24E
344
24E
  0
DIMSTYLE
105
263
330
A
100
AcDbSymbolTableRecord
100
AcDbDimStyleTableRecord
  2
DIMSTYLE_1
 70
     0
 41
4.7625
 42
1.587499999999999
 44
3.174999999999999
 47
10.0
 48
10.0
 71
     1
 78
     8
140
3.96875
144
3.333333333299999
147
1.984375
271
     0
272
     0
284
     8
340
11
341
24E
342
24E
343
24E
344
24E
  0
DIMSTYLE
105
264
330
A
100
AcDbSymbolTableRecord
100
AcDbDimStyleTableRecord
  2
DIMSTYLE_2
 70
     0
 41
4.7625
 42
1.587499999999999
 44
3.174999999999999
 47
5.0
 48
10.0
 71
     1
 78
     8
140
3.96875
144
3.333333333299999
147
1.984375
271
     0
272
     0
284
     8
340
11
341
24E
342
24E
343
24E
344
24E
  0
DIMSTYLE
105
265
330
A
100
AcDbSymbolTableRecord
100
AcDbDimStyleTableRecord
  2
DIMSTYLE_3
 70
     0
 41
4.7625
 42
1.587499999999999
 44
3.174999999999999
 47
0.0000000001
 48
0.0000000001
 78
     8
140
3.96875
144
3.333333333299999
147
1.984375
271
     0
272
     0
284
     8
340
11
341
24E
342
24E
343
24E
344
24E
  0
DIMSTYLE
105
266
330
A
100
AcDbSymbolTableRecord
100
AcDbDimStyleTableRecord
  2
DIMSTYLE_4
 70
     0
 41
4.7625
 42
1.587499999999999
 44
3.174999999999999
 47
0.0000000001
 48
0.0000000001
 78
     8
140
3.96875
144
3.333333333299999
147
1.984375
271
    10
272
    10
284
     8
340
11
341
24E
342
24E
343
24E
344
24E
  0
DIMSTYLE
105
267
330
A
100
AcDbSymbolTableRecord
100
AcDbDimStyleTableRecord
  2
DIMSTYLE_5
 70
     0
 41
4.7625
 42
1.587499999999999
 44
3.174999999999999
 47
0.01
 48
0.01
 78
     8
140
3.96875
144
3.333333333299999
147
1.984375
271
     3
272
     3
284
     8
340
11
341
24E
342
24E
343
24E
344
24E
  0
DIMSTYLE
105
268
330
A
100
AcDbSymbolTableRecord
100
AcDbDimStyleTableRecord
  2
DIMSTYLE_6
 70
     0
 41
4.7625
 42
1.587499999999999
 44
3.174999999999999
 47
0.0000000001
 48
0.0000000001
 78
     8
140
3.96875
144
3.333333333299999
147
1.984375
271
    11
272
    11
284
     8
340
11
341
24E
342
24E
343
24E
344
24E
  0
DIMSTYLE
105
680B
102
{ACAD_REACTORS
330
67FA
102
}
330
A
100
AcDbSymbolTableRecord
100
AcDbDimStyleTableRecord
  2
AM_ISO
 70
     0
  4
"
 41
3.5
 42
1.0
 43
10.0
 44
1.0
 47
0.1
 48
0.1
 73
     0
 74
     0
 77
     1
 78
     8
 79
     2
 90
     1
140
3.5
141
0.0
143
0.0393701
146
0.71
147
1.5
172
     1
176
   256
177
   256
178
   140
271
     2
272
     3
274
     4
283
     0
284
     8
340
11
345
14
346
14
347
14
371
    -1
372
    -1
  0
DIMSTYLE
105
6816
330
A
100
AcDbSymbolTableRecord
100
AcDbDimStyleTableRecord
  2
AM_ISO$3
 70
     0
  4
"
 41
3.5
 42
1.0
 43
10.0
 44
1.0
 47
0.1
 48
0.1
 73
     0
 77
     1
 78
     8
 79
     2
 90
     1
140
3.5
141
0.0
143
0.0393701
146
0.71
147
1.5
176
   256
177
   256
178
   140
271
     2
272
     3
274
     4
283
     0
284
     8
288
     1
289
     0
340
11
345
14
346
14
347
14
371
    -1
372
    -1
  0
DIMSTYLE
105
6817
330
A
100
AcDbSymbolTableRecord
100
AcDbDimStyleTableRecord
  2
AM_ISO$4
 70
     0
  4
"
 41
3.5
 42
1.0
 43
10.0
 44
1.0
 47
0.1
 48
0.1
 73
     0
 74
     0
 77
     1
 78
     8
 79
     2
 90
     1
140
3.5
141
0.0
143
0.0393701
146
0.71
147
1.5
172
     1
176
   256
177
   256
178
   140
271
     2
272
     3
274
     4
283
     0
284
     8
340
11
345
14
346
14
347
14
371
    -1
372
    -1
  0
DIMSTYLE
105
6818
330
A
100
AcDbSymbolTableRecord
100
AcDbDimStyleTableRecord
  2
AM_ISO$6
 70
     0
  4
"
 41
3.5
 42
1.0
 43
10.0
 44
1.0
 47
0.1
 48
0.1
 73
     0
 74
     0
 78
     8
 79
     2
 90
     1
140
3.5
141
0.0
143
0.0393701
146
0.71
147
1.5
172
     1
176
   256
177
   256
178
   140
271
     2
272
     3
274
     4
283
     0
284
     8
340
11
345
14
346
14
347
14
371
    -1
372
    -1
  0
DIMSTYLE
105
6819
330
A
100
AcDbSymbolTableRecord
100
AcDbDimStyleTableRecord
  2
AM_ISO$7
 70
     0
  4
"
 41
3.5
 42
1.0
 43
10.0
 44
1.0
 47
0.1
 48
0.1
 73
     0
 74
     0
 77
     1
 78
     8
 79
     2
 90
     1
140
3.5
141
0.0
143
0.0393701
146
0.71
147
1.5
172
     1
176
   256
177
   256
178
   140
271
     2
272
     3
274
     4
283
     0
284
     8
340
11
345
14
346
14
347
14
371
    -1
372
    -1
  0
DIMSTYLE
105
681A
330
A
100
AcDbSymbolTableRecord
100
AcDbDimStyleTableRecord
  2
AM_ISO$SF
 70
     0
  4
"
 41
3.5
 42
1.0
 43
10.0
 44
1.0
 47
0.1
 48
0.1
 73
     0
 74
     0
 75
     1
 76
     1
 77
     1
 78
     8
 79
     2
 90
     1
140
3.5
141
0.0
143
0.0393701
146
0.71
147
1.5
172
     1
176
   256
177
   256
178
   140
271
     2
272
     3
274
     4
283
     0
284
     8
340
11
345
14
346
14
347
14
371
    -1
372
    -1
  0
DIMSTYLE
105
681F
330
A
100
AcDbSymbolTableRecord
100
AcDbDimStyleTableRecord
  2
AM_ISO$SH
 70
     0
  4
"
 41
3.5
 42
1.0
 43
10.0
 44
1.0
 47
0.1
 48
0.1
 73
     0
 74
     0
 75
     1
 76
     1
 77
     1
 78
     8
 79
     2
 90
     1
140
3.5
141
0.0
143
0.0393701
144
2.0
146
0.71
147
1.5
172
     1
173
     1
176
   256
177
   256
178
   140
271
     2
272
     3
274
     4
283
     0
284
     8
340
11
343
681B
345
14
346
14
347
14
371
    -1
372
    -1
  0
ENDTAB
  0
TABLE
  2
BLOCK_RECORD
  5
1
330
0
100
AcDbSymbolTable
 70
    20
  0
BLOCK_RECORD
  5
24C
330
1
100
AcDbSymbolTableRecord
100
AcDbBlockTableRecord
  2
*Model_Space
340
6714
 70
     0
280
     1
281
     0
  0
BLOCK_RECORD
  5
24D
330
1
100
AcDbSymbolTableRecord
100
AcDbBlockTableRecord
  2
*Paper_Space
340
6715
 70
     0
280
     1
281
     0
  0
BLOCK_RECORD
  5
24E
330
1
100
AcDbSymbolTableRecord
100
AcDbBlockTableRecord
  2
_FILLED
340
0
102
{BLKREFS
331
2BE
331
2BF
331
2C6
331
2C7
331
2CE
331
2CF
331
2D6
331
2D7
331
2E0
331
2E1
331
2E8
331
2E9
331
2F0
331
2F1
331
2F9
331
2FA
331
301
331
302
102
}
 70
     0
280
     1
281
     0
  0
BLOCK_RECORD
  5
258
330
1
100
AcDbSymbolTableRecord
100
AcDbBlockTableRecord
  2
SYMBOL_6_BL7
340
0
 70
     0
280
     1
281
     0
  0
BLOCK_RECORD
  5
259
330
1
100
AcDbSymbolTableRecord
100
AcDbBlockTableRecord
  2
SYMBOL_5_BL6
340
0
 70
     0
280
     1
281
     0
  0
BLOCK_RECORD
  5
25A
330
1
100
AcDbSymbolTableRecord
100
AcDbBlockTableRecord
  2
SYMBOL_4_BL5
340
0
 70
     0
280
     1
281
     0
  0
BLOCK_RECORD
  5
25B
330
1
100
AcDbSymbolTableRecord
100
AcDbBlockTableRecord
  2
SYMBOL_3_BL4
340
0
 70
     0
280
     1
281
     0
  0
BLOCK_RECORD
  5
25C
330
1
100
AcDbSymbolTableRecord
100
AcDbBlockTableRecord
  2
SYMBOL_4_BL3
340
0
 70
     0
280
     1
281
     0
  0
BLOCK_RECORD
  5
25D
330
1
100
AcDbSymbolTableRecord
100
AcDbBlockTableRecord
  2
SYMBOL_3_BL2
340
0
 70
     0
280
     1
281
     0
  0
BLOCK_RECORD
  5
25E
330
1
100
AcDbSymbolTableRecord
100
AcDbBlockTableRecord
  2
SYMBOL_2_BL1
340
0
 70
     0
280
     1
281
     0
  0
BLOCK_RECORD
  5
25F
330
1
100
AcDbSymbolTableRecord
100
AcDbBlockTableRecord
  2
SYMBOL_1_BL0
340
0
 70
     0
280
     1
281
     0
  0
BLOCK_RECORD
  5
681B
330
1
100
AcDbSymbolTableRecord
100
AcDbBlockTableRecord
  2
GENAXEH
340
0
 70
     0
280
     1
281
     0
  0
ENDTAB
  0
ENDSEC
  0
SECTION
  2
BLOCKS
  0
BLOCK
  5
20
330
24C
100
AcDbEntity
  8
0
100
AcDbBlockBegin
  2
*Model_Space
 70
     0
 10
0.0
 20
0.0
 30
0.0
  3
*Model_Space
  1

  0
ENDBLK
  5
21
330
24C
100
AcDbEntity
  8
0
100
AcDbBlockEnd
  0
BLOCK
  5
1C
330
24D
100
AcDbEntity
 67
     1
  8
0
100
AcDbBlockBegin
  2
*Paper_Space
 70
     0
 10
0.0
 20
0.0
 30
0.0
  3
*Paper_Space
  1

  0
ENDBLK
  5
1D
330
24D
100
AcDbEntity
 67
     1
  8
0
100
AcDbBlockEnd
  0
BLOCK
  5
2B6
330
24E
100
AcDbEntity
  8
0
100
AcDbBlockBegin
  2
_FILLED
 70
     0
 10
0.0
 20
0.0
 30
0.0
  3
_FILLED
  1

  0
SOLID
  5
2B7
330
24E
100
AcDbEntity
  8
0
  6
ByBlock
 62
     0
100
AcDbTrace
 10
0.0
 20
0.0
 30
0.0
 11
-1.0
 21
0.1666666667
 31
0.0
 12
-1.0
 22
-0.1666666667
 32
0.0
 13
-1.0
 23
-0.1666666667
 33
0.0
  0
ENDBLK
  5
2B8
330
24E
100
AcDbEntity
  8
0
  6
ByBlock
 62
     0
100
AcDbBlockEnd
  0
BLOCK
  5
269
330
258
100
AcDbEntity
  8
___SYMBOL
  6
Continuous
 62
     2
100
AcDbBlockBegin
  2
SYMBOL_6_BL7
 70
     0
 10
792.5283251764
 20
369.5234087959
 30
0.0
  3
SYMBOL_6_BL7
  1

  0
LWPOLYLINE
  5
26A
330
258
100
AcDbEntity
  8
___SYMBOL
  6
Continuous
 62
     2
100
AcDbPolyline
 90
        4
 70
     0
 43
0.381
 10
793.0524115723
 20
371.0767142334
 10
793.0524115723
 20
375.0454766357
 10
791.6633242675999
 20
372.068904834
 10
793.4492741699
 20
372.068904834
  0
LINE
  5
26B
330
258
100
AcDbEntity
  8
___SYMBOL
  6
Continuous
 62
     7
100
AcDbLine
 10
789.0993230014998
 20
376.3814131458
 30
0.0
 11
789.0993230014998
 21
362.665404446
 31
0.0
  0
LINE
  5
26C
330
258
100
AcDbEntity
  8
___SYMBOL
  6
Continuous
 62
     7
100
AcDbLine
 10
789.0993230014998
 20
362.665404446
 30
0.0
 11
795.9573273513999
 21
362.665404446
 31
0.0
  0
LINE
  5
26D
330
258
100
AcDbEntity
  8
___SYMBOL
  6
Continuous
 62
     7
100
AcDbLine
 10
789.0993230014998
 20
369.5234087959
 30
0.0
 11
795.9573273513999
 21
369.5234087959
 31
0.0
  0
LINE
  5
26E
330
258
100
AcDbEntity
  8
___SYMBOL
  6
Continuous
 62
     7
100
AcDbLine
 10
789.0993230014998
 20
376.3814131458
 30
0.0
 11
795.9573273513999
 21
376.3814131458
 31
0.0
  0
LINE
  5
26F
330
258
100
AcDbEntity
  8
___SYMBOL
  6
Continuous
 62
     7
100
AcDbLine
 10
795.9573273513999
 20
362.665404446
 30
0.0
 11
795.9573273513999
 21
376.3814131458
 31
0.0
  0
ENDBLK
  5
270
330
258
100
AcDbEntity
  8
0
  6
ByBlock
 62
     0
100
AcDbBlockEnd
  0
BLOCK
  5
271
330
259
100
AcDbEntity
  8
___SYMBOL
  6
Continuous
 62
     2
100
AcDbBlockBegin
  2
SYMBOL_5_BL6
 70
     0
 10
792.7811604671001
 20
383.6821850742
 30
0.0
  3
SYMBOL_5_BL6
  1

  0
LWPOLYLINE
  5
272
330
259
100
AcDbEntity
  8
___SYMBOL
  6
Continuous
 62
     2
100
AcDbPolyline
 90
       18
 70
     0
 43
0.381
 10
792.1146207519999
 20
388.8734915039
 10
792.5114833496
 20
389.2042217041001
 10
792.9083459472999
 20
389.2042217041001
 10
793.3052085449
 20
388.8734915039
 10
793.5036398437
 20
388.5427954102
 10
793.5036398437
 20
388.21206521
 10
793.3052085449
 20
387.8813350098
 10
792.9083459472999
 20
387.5506048096
 10
793.3052085449
 20
387.2198746094
 10
793.5036398437
 20
386.8891444092
 10
793.7020711425999
 20
386.558414209
 10
793.7020711425999
 20
386.2276840088
 10
793.5036398437
 20
385.8969538086
 10
793.3052085449
 20
385.5662236084
 10
792.9083459472999
 20
385.2354934082
 10
792.5114833496
 20
385.2354934082
 10
792.1146207519999
 20
385.5662236084
 10
791.9161212402
 20
385.8969538086
  0
LWPOLYLINE
  5
273
330
259
100
AcDbEntity
  8
___SYMBOL
  6
Continuous
 62
     2
100
AcDbPolyline
 90
        2
 70
     0
 43
0.381
 10
792.5114833496
 20
387.5506048096
 10
792.9083459472999
 20
387.5506048096
  0
LINE
  5
274
330
259
100
AcDbEntity
  8
___SYMBOL
  6
Continuous
 62
     7
100
AcDbLine
 10
789.3521582922
 20
390.540189424
 30
0.0
 11
789.3521582922
 21
376.8241807243
 31
0.0
  0
LINE
  5
275
330
259
100
AcDbEntity
  8
___SYMBOL
  6
Continuous
 62
     7
100
AcDbLine
 10
789.3521582922
 20
376.8241807243
 30
0.0
 11
796.2101626421
 21
376.8241807243
 31
0.0
  0
LINE
  5
276
330
259
100
AcDbEntity
  8
___SYMBOL
  6
Continuous
 62
     7
100
AcDbLine
 10
789.3521582922
 20
383.6821850742
 30
0.0
 11
796.2101626421
 21
383.6821850742
 31
0.0
  0
LINE
  5
277
330
259
100
AcDbEntity
  8
___SYMBOL
  6
Continuous
 62
     7
100
AcDbLine
 10
789.3521582922
 20
390.540189424
 30
0.0
 11
796.2101626421
 21
390.540189424
 31
0.0
  0
LINE
  5
278
330
259
100
AcDbEntity
  8
___SYMBOL
  6
Continuous
 62
     7
100
AcDbLine
 10
796.2101626421
 20
376.8241807243
 30
0.0
 11
796.2101626421
 21
390.540189424
 31
0.0
  0
ENDBLK
  5
279
330
259
100
AcDbEntity
  8
0
  6
ByBlock
 62
     0
100
AcDbBlockEnd
  0
BLOCK
  5
27A
330
25A
100
AcDbEntity
  8
___SYMBOL
  6
Continuous
 62
     2
100
AcDbBlockBegin
  2
SYMBOL_4_BL5
 70
     0
 10
792.2754898857999
 20
397.3352907711
 30
0.0
  3
SYMBOL_4_BL5
  1

  0
LWPOLYLINE
  5
27B
330
25A
100
AcDbEntity
  8
___SYMBOL
  6
Continuous
 62
     2
100
AcDbPolyline
 90
       13
 70
     0
 43
0.381
 10
791.410459082
 20
402.1958783202999
 10
791.6088903809
 20
402.5266085205
 10
792.0058211913999
 20
402.8573387207
 10
792.4026837891
 20
402.8573387207
 10
792.7995463867
 20
402.5266085205
 10
792.9979776855
 20
402.1958783202999
 10
792.9979776855
 20
401.5344179198999
 10
792.7995463867
 20
401.2036877196999
 10
792.4026837891
 20
400.8729575194999
 10
792.0058211913999
 20
400.5422273193
 10
791.6088903809
 20
399.8807669189
 10
791.410459082
 20
398.8885763183999
 10
792.9979776855
 20
398.8885763183999
  0
LINE
  5
27C
330
25A
100
AcDbEntity
  8
___SYMBOL
  6
Continuous
 62
     7
100
AcDbLine
 10
788.8464877108
 20
404.1932951208999
 30
0.0
 11
788.8464877108
 21
390.4772864212
 31
0.0
  0
LINE
  5
27D
330
25A
100
AcDbEntity
  8
___SYMBOL
  6
Continuous
 62
     7
100
AcDbLine
 10
788.8464877108
 20
390.4772864212
 30
0.0
 11
795.7044920607001
 21
390.4772864212
 31
0.0
  0
LINE
  5
27E
330
25A
100
AcDbEntity
  8
___SYMBOL
  6
Continuous
 62
     7
100
AcDbLine
 10
788.8464877108
 20
397.3352907711
 30
0.0
 11
795.7044920607001
 21
397.3352907711
 31
0.0
  0
LINE
  5
27F
330
25A
100
AcDbEntity
  8
___SYMBOL
  6
Continuous
 62
     7
100
AcDbLine
 10
788.8464877108
 20
404.1932951208999
 30
0.0
 11
795.7044920607001
 21
404.1932951208999
 31
0.0
  0
LINE
  5
280
330
25A
100
AcDbEntity
  8
___SYMBOL
  6
Continuous
 62
     7
100
AcDbLine
 10
795.7044920607001
 20
390.4772864212
 30
0.0
 11
795.7044920607001
 21
404.1932951208999
 31
0.0
  0
ENDBLK
  5
281
330
25A
100
AcDbEntity
  8
0
  6
ByBlock
 62
     0
100
AcDbBlockEnd
  0
BLOCK
  5
282
330
25B
100
AcDbEntity
  8
___SYMBOL
  6
Continuous
 62
     2
100
AcDbBlockBegin
  2
SYMBOL_3_BL4
 70
     0
 10
639.8525991138
 20
154.5944459819
 30
0.0
  3
SYMBOL_3_BL4
  1

  0
LWPOLYLINE
  5
283
330
25B
100
AcDbEntity
  8
___SYMBOL
  6
Continuous
 62
     2
100
AcDbPolyline
 90
        2
 70
     0
 43
0.381
 10
639.7813205565999
 20
160.1164979858
 10
639.7813205565999
 20
156.1477526367
  0
LINE
  5
284
330
25B
100
AcDbEntity
  8
___SYMBOL
  6
Continuous
 62
     7
100
AcDbLine
 10
636.4235969389
 20
161.4524503318
 30
0.0
 11
636.4235969389
 21
147.736441632
 31
0.0
  0
LINE
  5
285
330
25B
100
AcDbEntity
  8
___SYMBOL
  6
Continuous
 62
     7
100
AcDbLine
 10
636.4235969389
 20
147.736441632
 30
0.0
 11
643.2816012887
 21
147.736441632
 31
0.0
  0
LINE
  5
286
330
25B
100
AcDbEntity
  8
___SYMBOL
  6
Continuous
 62
     7
100
AcDbLine
 10
636.4235969389
 20
154.5944459819
 30
0.0
 11
643.2816012887
 21
154.5944459819
 31
0.0
  0
LINE
  5
287
330
25B
100
AcDbEntity
  8
___SYMBOL
  6
Continuous
 62
     7
100
AcDbLine
 10
636.4235969389
 20
161.4524503318
 30
0.0
 11
643.2816012887
 21
161.4524503318
 31
0.0
  0
LINE
  5
288
330
25B
100
AcDbEntity
  8
___SYMBOL
  6
Continuous
 62
     7
100
AcDbLine
 10
643.2816012887
 20
147.736441632
 30
0.0
 11
643.2816012887
 21
161.4524503318
 31
0.0
  0
ENDBLK
  5
289
330
25B
100
AcDbEntity
  8
0
  6
ByBlock
 62
     0
100
AcDbBlockEnd
  0
BLOCK
  5
28A
330
25C
100
AcDbEntity
  8
DEFAULT_2
  6
HIDDEN
 62
     8
100
AcDbBlockBegin
  2
SYMBOL_4_BL3
 70
     0
 10
1109.6718621485
 20
431.8
 30
0.0
  3
SYMBOL_4_BL3
  1

  0
LINE
  5
28B
330
25C
100
AcDbEntity
  8
DEFAULT_2
  6
HIDDEN
 62
     8
100
AcDbLine
 10
1104.9093621485
 20
431.8
 30
0.0
 11
1109.6718621486
 21
429.4187499999999
 31
0.0
  0
LINE
  5
28C
330
25C
100
AcDbEntity
  8
DEFAULT_2
  6
HIDDEN
 62
     8
100
AcDbLine
 10
1104.9093621485
 20
431.8
 30
0.0
 11
1109.6718621486
 21
434.1812499999999
 31
0.0
  0
LINE
  5
28D
330
25C
100
AcDbEntity
  8
DEFAULT_2
  6
HIDDEN
 62
     8
100
AcDbLine
 10
1109.6718621486
 20
432.3953125
 30
0.0
 11
1109.6718621486
 21
434.1812499999999
 31
0.0
  0
LINE
  5
28E
330
25C
100
AcDbEntity
  8
DEFAULT_2
  6
HIDDEN
 62
     8
100
AcDbLine
 10
1114.4343621486
 20
432.3953125
 30
0.0
 11
1109.6718621486
 21
432.3953125
 31
0.0
  0
LINE
  5
28F
330
25C
100
AcDbEntity
  8
DEFAULT_2
  6
HIDDEN
 62
     8
100
AcDbLine
 10
1114.4343621486
 20
432.3953125
 30
0.0
 11
1114.4343621486
 21
431.2046875
 31
0.0
  0
LINE
  5
290
330
25C
100
AcDbEntity
  8
DEFAULT_2
  6
HIDDEN
 62
     8
100
AcDbLine
 10
1109.6718621486
 20
431.2046875
 30
0.0
 11
1114.4343621486
 21
431.2046875
 31
0.0
  0
LINE
  5
291
330
25C
100
AcDbEntity
  8
DEFAULT_2
  6
HIDDEN
 62
     8
100
AcDbLine
 10
1109.6718621486
 20
429.4187499999999
 30
0.0
 11
1109.6718621486
 21
431.2046875
 31
0.0
  0
LWPOLYLINE
  5
292
330
25C
100
AcDbEntity
  8
DEFAULT_2
  6
HIDDEN
 62
     8
100
AcDbPolyline
 90
        8
 70
     0
 43
0.0
 10
1104.9093621485
 20
431.8
 10
1109.6718621486
 20
434.1812499999999
 10
1109.6718621486
 20
432.3953125
 10
1114.4343621486
 20
432.3953125
 10
1114.4343621486
 20
431.2046875
 10
1109.6718621486
 20
431.2046875
 10
1109.6718621486
 20
429.4187499999999
 10
1104.9093621485
 20
431.8
  0
HATCH
  5
293
330
25C
100
AcDbEntity
  8
DEFAULT_2
  6
HIDDEN
 62
     8
100
AcDbHatch
 10
0.0
 20
0.0
 30
0.0
210
0.0
220
0.0
230
1.0
  2
SOLID
 70
     1
 71
     1
 91
        1
 92
        1
 93
        7
 72
     1
 10
1104.9093621485
 20
431.8
 11
1109.6718621486
 21
434.1812499999999
 72
     1
 10
1109.6718621486
 20
434.1812499999999
 11
1109.6718621486
 21
432.3953125
 72
     1
 10
1109.6718621486
 20
432.3953125
 11
1114.4343621486
 21
432.3953125
 72
     1
 10
1114.4343621486
 20
432.3953125
 11
1114.4343621486
 21
431.2046875
 72
     1
 10
1114.4343621486
 20
431.2046875
 11
1109.6718621486
 21
431.2046875
 72
     1
 10
1109.6718621486
 20
431.2046875
 11
1109.6718621486
 21
429.4187499999999
 72
     1
 10
1109.6718621486
 20
429.4187499999999
 11
1104.9093621485
 21
431.8
 97
        1
330
292
 75
     0
 76
     1
 98
        1
 10
0.0
 20
0.0
450
        0
451
        0
460
0.0
461
0.0
452
        0
462
0.0
453
        0
470

  0
ENDBLK
  5
294
330
25C
100
AcDbEntity
  8
0
  6
ByBlock
 62
     0
100
AcDbBlockEnd
  0
BLOCK
  5
295
330
25D
100
AcDbEntity
  8
DEFAULT_2
  6
HIDDEN
 62
     8
100
AcDbBlockBegin
  2
SYMBOL_3_BL2
 70
     0
 10
558.8
 20
7.9375
 30
0.0
  3
SYMBOL_3_BL2
  1

  0
LINE
  5
296
330
25D
100
AcDbEntity
  8
DEFAULT_2
  6
HIDDEN
 62
     8
100
AcDbLine
 10
558.8
 20
12.7
 30
0.0
 11
556.41875
 21
7.9375
 31
0.0
  0
LINE
  5
297
330
25D
100
AcDbEntity
  8
DEFAULT_2
  6
HIDDEN
 62
     8
100
AcDbLine
 10
558.8
 20
12.7
 30
0.0
 11
561.18125
 21
7.9375
 31
0.0
  0
LINE
  5
298
330
25D
100
AcDbEntity
  8
DEFAULT_2
  6
HIDDEN
 62
     8
100
AcDbLine
 10
559.3953125
 20
7.9375
 30
0.0
 11
561.18125
 21
7.9375
 31
0.0
  0
LINE
  5
299
330
25D
100
AcDbEntity
  8
DEFAULT_2
  6
HIDDEN
 62
     8
100
AcDbLine
 10
559.3953125
 20
3.174999999999999
 30
0.0
 11
559.3953125
 21
7.9375
 31
0.0
  0
LINE
  5
29A
330
25D
100
AcDbEntity
  8
DEFAULT_2
  6
HIDDEN
 62
     8
100
AcDbLine
 10
559.3953125
 20
3.174999999999999
 30
0.0
 11
558.2046874999999
 21
3.174999999999999
 31
0.0
  0
LINE
  5
29B
330
25D
100
AcDbEntity
  8
DEFAULT_2
  6
HIDDEN
 62
     8
100
AcDbLine
 10
558.2046874999999
 20
7.9375
 30
0.0
 11
558.2046874999999
 21
3.174999999999999
 31
0.0
  0
LINE
  5
29C
330
25D
100
AcDbEntity
  8
DEFAULT_2
  6
HIDDEN
 62
     8
100
AcDbLine
 10
556.41875
 20
7.9375
 30
0.0
 11
558.2046874999999
 21
7.9375
 31
0.0
  0
LWPOLYLINE
  5
29D
330
25D
100
AcDbEntity
  8
DEFAULT_2
  6
HIDDEN
 62
     8
100
AcDbPolyline
 90
        8
 70
     0
 43
0.0
 10
558.8
 20
12.7
 10
561.18125
 20
7.9375
 10
559.3953125
 20
7.9375
 10
559.3953125
 20
3.174999999999999
 10
558.2046874999999
 20
3.174999999999999
 10
558.2046874999999
 20
7.9375
 10
556.41875
 20
7.9375
 10
558.8
 20
12.7
  0
HATCH
  5
29E
330
25D
100
AcDbEntity
  8
DEFAULT_2
  6
HIDDEN
 62
     8
100
AcDbHatch
 10
0.0
 20
0.0
 30
0.0
210
0.0
220
0.0
230
1.0
  2
SOLID
 70
     1
 71
     1
 91
        1
 92
        1
 93
        7
 72
     1
 10
558.8
 20
12.7
 11
561.18125
 21
7.9375
 72
     1
 10
561.18125
 20
7.9375
 11
559.3953125
 21
7.9375
 72
     1
 10
559.3953125
 20
7.9375
 11
559.3953125
 21
3.174999999999999
 72
     1
 10
559.3953125
 20
3.174999999999999
 11
558.2046874999999
 21
3.174999999999999
 72
     1
 10
558.2046874999999
 20
3.174999999999999
 11
558.2046874999999
 21
7.9375
 72
     1
 10
558.2046874999999
 20
7.9375
 11
556.41875
 21
7.9375
 72
     1
 10
556.41875
 20
7.9375
 11
558.8
 21
12.7
 97
        1
330
29D
 75
     0
 76
     1
 98
        1
 10
0.0
 20
0.0
450
        0
451
        0
460
0.0
461
0.0
452
        0
462
0.0
453
        0
470

  0
ENDBLK
  5
29F
330
25D
100
AcDbEntity
  8
0
  6
ByBlock
 62
     0
100
AcDbBlockEnd
  0
BLOCK
  5
2A0
330
25E
100
AcDbEntity
  8
DEFAULT_2
  6
HIDDEN
 62
     8
100
AcDbBlockBegin
  2
SYMBOL_2_BL1
 70
     0
 10
7.925231411499999
 20
431.8
 30
0.0
  3
SYMBOL_2_BL1
  1

  0
LINE
  5
2A1
330
25E
100
AcDbEntity
  8
DEFAULT_2
  6
HIDDEN
 62
     8
100
AcDbLine
 10
12.6877314115
 20
431.8
 30
0.0
 11
7.925231411499999
 21
434.1812499999999
 31
0.0
  0
LINE
  5
2A2
330
25E
100
AcDbEntity
  8
DEFAULT_2
  6
HIDDEN
 62
     8
100
AcDbLine
 10
12.6877314115
 20
431.8
 30
0.0
 11
7.925231411499999
 21
429.4187499999999
 31
0.0
  0
LINE
  5
2A3
330
25E
100
AcDbEntity
  8
DEFAULT_2
  6
HIDDEN
 62
     8
100
AcDbLine
 10
7.925231411499999
 20
431.2046875
 30
0.0
 11
7.925231411499999
 21
429.4187499999999
 31
0.0
  0
LINE
  5
2A4
330
25E
100
AcDbEntity
  8
DEFAULT_2
  6
HIDDEN
 62
     8
100
AcDbLine
 10
3.162731411499999
 20
431.2046875
 30
0.0
 11
7.925231411499999
 21
431.2046875
 31
0.0
  0
LINE
  5
2A5
330
25E
100
AcDbEntity
  8
DEFAULT_2
  6
HIDDEN
 62
     8
100
AcDbLine
 10
3.162731411499999
 20
431.2046875
 30
0.0
 11
3.162731411499999
 21
432.3953125
 31
0.0
  0
LINE
  5
2A6
330
25E
100
AcDbEntity
  8
DEFAULT_2
  6
HIDDEN
 62
     8
100
AcDbLine
 10
7.925231411499999
 20
432.3953125
 30
0.0
 11
3.162731411499999
 21
432.3953125
 31
0.0
  0
LINE
  5
2A7
330
25E
100
AcDbEntity
  8
DEFAULT_2
  6
HIDDEN
 62
     8
100
AcDbLine
 10
7.925231411499999
 20
434.1812499999999
 30
0.0
 11
7.925231411499999
 21
432.3953125
 31
0.0
  0
LWPOLYLINE
  5
2A8
330
25E
100
AcDbEntity
  8
DEFAULT_2
  6
HIDDEN
 62
     8
100
AcDbPolyline
 90
        8
 70
     0
 43
0.0
 10
12.6877314115
 20
431.8
 10
7.925231411499999
 20
429.4187499999999
 10
7.925231411499999
 20
431.2046875
 10
3.162731411499999
 20
431.2046875
 10
3.162731411499999
 20
432.3953125
 10
7.925231411499999
 20
432.3953125
 10
7.925231411499999
 20
434.1812499999999
 10
12.6877314115
 20
431.8
  0
HATCH
  5
2A9
330
25E
100
AcDbEntity
  8
DEFAULT_2
  6
HIDDEN
 62
     8
100
AcDbHatch
 10
0.0
 20
0.0
 30
0.0
210
0.0
220
0.0
230
1.0
  2
SOLID
 70
     1
 71
     1
 91
        1
 92
        1
 93
        7
 72
     1
 10
12.6877314115
 20
431.8
 11
7.925231411499999
 21
429.4187499999999
 72
     1
 10
7.925231411499999
 20
429.4187499999999
 11
7.925231411499999
 21
431.2046875
 72
     1
 10
7.925231411499999
 20
431.2046875
 11
3.1627314115
 21
431.2046875
 72
     1
 10
3.162731411499999
 20
431.2046875
 11
3.162731411499999
 21
432.3953125
 72
     1
 10
3.162731411499999
 20
432.3953125
 11
7.925231411499998
 21
432.3953125
 72
     1
 10
7.925231411499999
 20
432.3953125
 11
7.925231411499999
 21
434.1812499999999
 72
     1
 10
7.925231411499999
 20
434.1812499999999
 11
12.6877314115
 21
431.8
 97
        1
330
2A8
 75
     0
 76
     1
 98
        1
 10
0.0
 20
0.0
450
        0
451
        0
460
0.0
461
0.0
452
        0
462
0.0
453
        0
470

  0
ENDBLK
  5
2AA
330
25E
100
AcDbEntity
  8
0
  6
ByBlock
 62
     0
100
AcDbBlockEnd
  0
BLOCK
  5
2AB
330
25F
100
AcDbEntity
  8
DEFAULT_2
  6
HIDDEN
 62
     8
100
AcDbBlockBegin
  2
SYMBOL_1_BL0
 70
     0
 10
558.8
 20
855.6625
 30
0.0
  3
SYMBOL_1_BL0
  1

  0
LINE
  5
2AC
330
25F
100
AcDbEntity
  8
DEFAULT_2
  6
HIDDEN
 62
     8
100
AcDbLine
 10
558.8
 20
850.9
 30
0.0
 11
561.18125
 21
855.6625
 31
0.0
  0
LINE
  5
2AD
330
25F
100
AcDbEntity
  8
DEFAULT_2
  6
HIDDEN
 62
     8
100
AcDbLine
 10
558.8
 20
850.9
 30
0.0
 11
556.41875
 21
855.6625
 31
0.0
  0
LINE
  5
2AE
330
25F
100
AcDbEntity
  8
DEFAULT_2
  6
HIDDEN
 62
     8
100
AcDbLine
 10
558.2046874999999
 20
855.6625
 30
0.0
 11
556.41875
 21
855.6625
 31
0.0
  0
LINE
  5
2AF
330
25F
100
AcDbEntity
  8
DEFAULT_2
  6
HIDDEN
 62
     8
100
AcDbLine
 10
558.2046874999999
 20
860.425
 30
0.0
 11
558.2046874999999
 21
855.6625
 31
0.0
  0
LINE
  5
2B0
330
25F
100
AcDbEntity
  8
DEFAULT_2
  6
HIDDEN
 62
     8
100
AcDbLine
 10
558.2046874999999
 20
860.425
 30
0.0
 11
559.3953125
 21
860.425
 31
0.0
  0
LINE
  5
2B1
330
25F
100
AcDbEntity
  8
DEFAULT_2
  6
HIDDEN
 62
     8
100
AcDbLine
 10
559.3953125
 20
855.6625
 30
0.0
 11
559.3953125
 21
860.425
 31
0.0
  0
LINE
  5
2B2
330
25F
100
AcDbEntity
  8
DEFAULT_2
  6
HIDDEN
 62
     8
100
AcDbLine
 10
561.18125
 20
855.6625
 30
0.0
 11
559.3953125
 21
855.6625
 31
0.0
  0
LWPOLYLINE
  5
2B3
330
25F
100
AcDbEntity
  8
DEFAULT_2
  6
HIDDEN
 62
     8
100
AcDbPolyline
 90
        8
 70
     0
 43
0.0
 10
558.8
 20
850.9
 10
556.41875
 20
855.6625
 10
558.2046874999999
 20
855.6625
 10
558.2046874999999
 20
860.425
 10
559.3953125
 20
860.425
 10
559.3953125
 20
855.6625
 10
561.18125
 20
855.6625
 10
558.8
 20
850.9
  0
HATCH
  5
2B4
330
25F
100
AcDbEntity
  8
DEFAULT_2
  6
HIDDEN
 62
     8
100
AcDbHatch
 10
0.0
 20
0.0
 30
0.0
210
0.0
220
0.0
230
1.0
  2
SOLID
 70
     1
 71
     1
 91
        1
 92
        1
 93
        7
 72
     1
 10
558.8
 20
850.9
 11
556.41875
 21
855.6625
 72
     1
 10
556.41875
 20
855.6625
 11
558.2046874999999
 21
855.6625
 72
     1
 10
558.2046874999999
 20
855.6625
 11
558.2046874999999
 21
860.425
 72
     1
 10
558.2046874999999
 20
860.425
 11
559.3953125
 21
860.425
 72
     1
 10
559.3953125
 20
860.425
 11
559.3953125
 21
855.6625
 72
     1
 10
559.3953125
 20
855.6625
 11
561.18125
 21
855.6625
 72
     1
 10
561.18125
 20
855.6625
 11
558.8
 21
850.9
 97
        1
330
2B3
 75
     0
 76
     1
 98
        1
 10
0.0
 20
0.0
450
        0
451
        0
460
0.0
461
0.0
452
        0
462
0.0
453
        0
470

  0
ENDBLK
  5
2B5
330
25F
100
AcDbEntity
  8
0
  6
ByBlock
 62
     0
100
AcDbBlockEnd
  0
BLOCK
  5
681D
330
681B
100
AcDbEntity
  8
0
100
AcDbBlockBegin
  2
GENAXEH
 70
     0
 10
0.0
 20
0.0
 30
0.0
  3
GENAXEH
  1

  0
LINE
  5
681C
330
681B
100
AcDbEntity
  8
0
100
AcDbLine
 10
-1.0
 20
0.0
 30
0.0
 11
1.0
 21
0.0
 31
0.0
  0
ENDBLK
  5
681E
330
681B
100
AcDbEntity
  8
0
100
AcDbBlockEnd
  0
ENDSEC
  0
SECTION
  2
ENTITIES
  0
LINE
  5
3493
330
24C
100
AcDbEntity
  8
0
  6
Continuous
 62
     7
100
AcDbLine
 10
-775.2942881504699
 20
4.515987252141712
 30
0.0
 11
-775.2942881504699
 21
469.5159872474914
 31
0.0
  0
LINE
  5
3494
330
24C
100
AcDbEntity
  8
0
  6
Continuous
 62
     7
100
AcDbLine
 10
-765.2942881505699
 20
3.230745382154964
 30
0.0
 11
-765.2981073792366
 21
469.508686215825
 31
0.0
  0
LINE
  5
3495
330
24C
100
AcDbEntity
  8
0
  6
Continuous
 62
     7
100
AcDbLine
 10
-765.2942881505699
 20
469.508686215825
 30
0.0
 11
-765.2942881505699
 21
473.5159872474518
 31
0.0
  0
LINE
  5
3496
330
24C
100
AcDbEntity
  8
0
  6
Continuous
 62
     7
100
AcDbLine
 10
-765.2942881505699
 20
3.230745382154964
 30
0.0
 11
-765.2942881505699
 21
-1.48401274779826
 31
0.0
  0
LINE
  5
3497
330
24C
100
AcDbEntity
  8
0
  6
Continuous
 62
     7
100
AcDbLine
 10
-760.2942881506199
 20
-5.484012747758242
 30
0.0
 11
-760.2942881506199
 21
-26.48401274754815
 31
0.0
  0
LINE
  5
3498
330
24C
100
AcDbEntity
  8
0
  6
Continuous
 62
     7
100
AcDbLine
 10
-756.2942881506598
 20
-1.48401274779826
 30
0.0
 11
-756.2942881506598
 21
-26.48401274754815
 31
0.0
  0
LINE
  5
3499
330
24C
100
AcDbEntity
  8
0
  6
Continuous
 62
     7
100
AcDbLine
 10
-748.2942881507399
 20
473.5159872474518
 30
0.0
 11
-748.2942881507399
 21
475.5159872474319
 31
0.0
  0
LINE
  5
349A
330
24C
100
AcDbEntity
  8
0
  6
Continuous
 62
     7
100
AcDbLine
 10
-775.9991760481296
 20
512.5333698307286
 30
0.0
 11
-775.9996818697961
 21
512.5188849947289
 31
0.0
  0
LINE
  5
349B
330
24C
100
AcDbEntity
  8
0
  6
Continuous
 62
     7
100
AcDbLine
 10
-777.29185153245
 20
475.5159872474319
 30
0.0
 11
-776.0022659917962
 21
512.4448854180623
 31
0.0
  0
LINE
  5
349C
330
24C
100
AcDbEntity
  8
0
  6
Continuous
 62
     7
100
AcDbLine
 10
-767.29794326255
 20
475.5159872474319
 30
0.0
 11
-766.014217555896
 21
512.2770817910645
 31
0.0
  0
LINE
  5
349D
330
24C
100
AcDbEntity
  8
0
  6
Continuous
 62
     7
100
AcDbLine
 10
-775.9980726347962
 20
512.5629256347283
 30
0.0
 11
-775.9991507201296
 21
512.5340951257284
 31
0.0
  0
LINE
  5
349E
330
24C
100
AcDbEntity
  8
0
  6
Continuous
 62
     7
100
AcDbLine
 10
-775.9965336441296
 20
512.5988786143944
 30
0.0
 11
-775.9980726347962
 21
512.5629256347283
 31
0.0
  0
LINE
  5
349F
330
24C
100
AcDbEntity
  8
0
  6
Continuous
 62
     7
100
AcDbLine
 10
-775.9930968011297
 20
512.6657397313933
 30
0.0
 11
-775.9984562011295
 21
512.5530515657279
 31
0.0
  0
LINE
  5
34A0
330
24C
100
AcDbEntity
  8
0
  6
Continuous
 62
     7
100
AcDbLine
 10
-775.9931531251297
 20
512.6647501280603
 30
0.0
 11
-775.9946398434629
 21
512.6374963657272
 31
0.0
  0
LINE
  5
34A1
330
24C
100
AcDbEntity
  8
0
  6
Continuous
 62
     7
100
AcDbLine
 10
-775.9914697907963
 20
512.6931782587266
 30
0.0
 11
-775.9931531251297
 21
512.6647501280603
 31
0.0
  0
LINE
  5
34A2
330
24C
100
AcDbEntity
  8
0
  6
Continuous
 62
     7
100
AcDbLine
 10
-775.9895757524629
 20
512.7227385833926
 30
0.0
 11
-775.9914697907963
 21
512.6931782587266
 31
0.0
  0
LINE
  5
34A3
330
24C
100
AcDbEntity
  8
0
  6
Continuous
 62
     7
100
AcDbLine
 10
-775.9874549657963
 20
512.7534180953926
 30
0.0
 11
-775.9895757524629
 21
512.7227385833926
 31
0.0
  0
LINE
  5
34A4
330
24C
100
AcDbEntity
  8
0
  6
Continuous
 62
     7
100
AcDbLine
 10
-775.9850905057963
 20
512.7852098490588
 30
0.0
 11
-775.9874549657963
 21
512.7534180953926
 31
0.0
  0
LINE
  5
34A5
330
24C
100
AcDbEntity
  8
0
  6
Continuous
 62
     7
100
AcDbLine
 10
-775.982464355463
 20
512.8181136930589
 30
0.0
 11
-775.9850905057963
 21
512.7852098490588
 31
0.0
  0
LINE
  5
34A6
330
24C
100
AcDbEntity
  8
0
  6
Continuous
 62
     7
100
AcDbLine
 10
-775.9795579117965
 20
512.8521283910585
 30
0.0
 11
-775.982464355463
 21
512.8181136930589
 31
0.0
  0
LINE
  5
34A7
330
24C
100
AcDbEntity
  8
0
  6
Continuous
 62
     7
100
AcDbLine
 10
-775.9763528101298
 20
512.8872431173913
 30
0.0
 11
-775.9795579117965
 21
512.8521283910585
 31
0.0
  0
LINE
  5
34A8
330
24C
100
AcDbEntity
  8
0
  6
Continuous
 62
     7
100
AcDbLine
 10
-775.9728316317964
 20
512.9234332233913
 30
0.0
 11
-775.9763528101298
 21
512.8872431173913
 31
0.0
  0
LINE
  5
34A9
330
24C
100
AcDbEntity
  8
0
  6
Continuous
 62
     7
100
AcDbLine
 10
-775.9689795184631
 20
512.960649298057
 30
0.0
 11
-775.9728316317964
 21
512.9234332233913
 31
0.0
  0
LINE
  5
34AA
330
24C
100
AcDbEntity
  8
0
  6
Continuous
 62
     7
100
AcDbLine
 10
-769.9222266775237
 20
518.1405206930057
 30
0.0
 11
-769.9215542055236
 21
518.146835860672
 31
0.0
  0
LINE
  5
34AB
330
24C
100
AcDbEntity
  8
0
  6
Continuous
 62
     7
100
AcDbLine
 10
-775.96477998713
 20
512.9988615453899
 30
0.0
 11
-775.9689795184631
 21
512.960649298057
 31
0.0
  0
LINE
  5
34AC
330
24C
100
AcDbEntity
  8
0
  6
Continuous
 62
     7
100
AcDbLine
 10
-775.9602187654633
 20
513.0380229573898
 30
0.0
 11
-775.96477998713
 21
512.9988615453899
 31
0.0
  0
LINE
  5
34AD
330
24C
100
AcDbEntity
  8
0
  6
Continuous
 62
     7
100
AcDbLine
 10
-775.9552772197967
 20
513.0781261807228
 30
0.0
 11
-775.9602187654633
 21
513.0380229573898
 31
0.0
  0
LINE
  5
34AE
330
24C
100
AcDbEntity
  8
0
  6
Continuous
 62
     7
100
AcDbLine
 10
-775.9499362014634
 20
513.1191648390559
 30
0.0
 11
-775.9552772197967
 21
513.0781261807228
 31
0.0
  0
LINE
  5
34AF
330
24C
100
AcDbEntity
  8
0
  6
Continuous
 62
     7
100
AcDbLine
 10
-775.9441754154634
 20
513.1611377517219
 30
0.0
 11
-775.9499362014634
 21
513.1191648390559
 31
0.0
  0
LWPOLYLINE
  5
34B0
330
24C
100
AcDbEntity
  8
0
  6
Continuous
 62
     7
100
AcDbPolyline
 90
       14
 70
     0
 43
0.0
 10
-769.9215542055236
 20
518.146835860672
 10
-769.9210622551903
 20
518.1503111103388
 10
-769.9206640495236
 20
518.1539977476723
 10
-769.9203577325237
 20
518.1578938320053
 10
-769.9197912388569
 20
518.1619865493389
 10
-769.9193128265236
 20
518.1662777670053
 10
-769.9190358051903
 20
518.1707656176723
 10
-769.9183900415237
 20
518.1754316883384
 10
-769.917824726857
 20
518.1802777123388
 10
-769.9175651481904
 20
518.1853019560053
 10
-769.9168360995237
 20
518.1904808030053
 10
-769.9156931868571
 20
518.1958063810047
 10
-769.9149645971904
 20
518.2012865620049
 10
-769.9151079311904
 20
518.2069213463383
  0
LINE
  5
34B1
330
24C
100
AcDbEntity
  8
0
  6
Continuous
 62
     7
100
AcDbLine
 10
-775.9379742201302
 20
513.2040422113886
 30
0.0
 11
-775.9441754154634
 21
513.1611377517219
 31
0.0
  0
LINE
  5
34B2
330
24C
100
AcDbEntity
  8
0
  6
Continuous
 62
     7
100
AcDbLine
 10
-775.9313116044636
 20
513.2478743920546
 30
0.0
 11
-775.9379742201302
 21
513.2040422113886
 31
0.0
  0
LINE
  5
34B3
330
24C
100
AcDbEntity
  8
0
  6
Continuous
 62
     7
100
AcDbLine
 10
-775.9241657381303
 20
513.2926322813873
 30
0.0
 11
-775.9313116044636
 21
513.2478743920546
 31
0.0
  0
LINE
  5
34B4
330
24C
100
AcDbEntity
  8
0
  6
Continuous
 62
     7
100
AcDbLine
 10
-775.916515581797
 20
513.3383057823866
 30
0.0
 11
-775.9241657381303
 21
513.2926322813873
 31
0.0
  0
LINE
  5
34B5
330
24C
100
AcDbEntity
  8
0
  6
Continuous
 62
     7
100
AcDbLine
 10
-775.9083406601305
 20
513.3848797020532
 30
0.0
 11
-775.916515581797
 21
513.3383057823866
 31
0.0
  0
LINE
  5
34B6
330
24C
100
AcDbEntity
  8
0
  6
Continuous
 62
     7
100
AcDbLine
 10
-775.8996230587972
 20
513.4323242240525
 30
0.0
 11
-775.9083406601305
 21
513.3848797020532
 31
0.0
  0
LINE
  5
34B7
330
24C
100
AcDbEntity
  8
0
  6
Continuous
 62
     7
100
AcDbLine
 10
-775.8903456407972
 20
513.4806071610519
 30
0.0
 11
-775.8996230587972
 21
513.4323242240525
 31
0.0
  0
LINE
  5
34B8
330
24C
100
AcDbEntity
  8
0
  6
Continuous
 62
     7
100
AcDbLine
 10
-775.8804899657973
 20
513.5297047587182
 30
0.0
 11
-775.8903456407972
 21
513.4806071610519
 31
0.0
  0
LINE
  5
34B9
330
24C
100
AcDbEntity
  8
0
  6
Continuous
 62
     7
100
AcDbLine
 10
-775.8700397791308
 20
513.5795837787177
 30
0.0
 11
-775.8804899657973
 21
513.5297047587182
 31
0.0
  0
LWPOLYLINE
  5
34BA
330
24C
100
AcDbEntity
  8
0
  6
Continuous
 62
     7
100
AcDbPolyline
 90
       11
 70
     0
 43
0.0
 10
-769.9260625201902
 20
518.1213068186726
 10
-769.9255777798569
 20
518.1219143563389
 10
-769.925320559857
 20
518.122825970006
 10
-769.9251448965236
 20
518.1239421910058
 10
-769.924636637857
 20
518.1252614930058
 10
-769.9243323195237
 20
518.1267937586722
 10
-769.9241190145236
 20
518.128540750672
 10
-769.9236687041903
 20
518.1305007066721
 10
-769.9233086838569
 20
518.1326782196724
 10
-769.9230447281903
 20
518.1350751933386
 10
-769.9222266775237
 20
518.1405206930057
  0
LWPOLYLINE
  5
34BB
330
24C
100
AcDbEntity
  8
0
  6
Continuous
 62
     7
100
AcDbPolyline
 90
       13
 70
     0
 43
0.0
 10
-769.8910538708574
 20
518.2302156086716
 10
-769.8866216888573
 20
518.2349645610043
 10
-769.8830077235241
 20
518.2401365023379
 10
-769.8798632225241
 20
518.2457011073374
 10
-769.8742946481908
 20
518.2515434456709
 10
-769.8698797771908
 20
518.257691634004
 10
-769.8672627445241
 20
518.2641175560043
 10
-769.8608756481911
 20
518.270621932671
 10
-769.8559507848576
 20
518.2772344013374
 10
-769.8541578908577
 20
518.2839253243373
 10
-769.8468347058577
 20
518.2904065123375
 10
-769.8417095055244
 20
518.2967437666702
 10
-769.8413066025245
 20
518.3028712856703
  0
LINE
  5
34BC
330
24C
100
AcDbEntity
  8
0
  6
Continuous
 62
     7
100
AcDbLine
 10
-647.2942881517499
 20
-26.48401274754815
 30
0.0
 11
-647.2942881517499
 21
-29.48401274751814
 31
0.0
  0
LINE
  5
34BD
330
24C
100
AcDbEntity
  8
0
  6
Continuous
 62
     7
100
AcDbLine
 10
-607.2942881521498
 20
-26.48401274754815
 30
0.0
 11
-607.2942881521498
 21
-29.48401274751814
 31
0.0
  0
LWPOLYLINE
  5
34BE
330
24C
100
AcDbEntity
  8
0
  6
Continuous
 62
     7
100
AcDbPolyline
 90
        5
 70
     0
 43
0.0
 10
-769.8413066025245
 20
518.3028712856703
 10
-769.8250028931913
 20
518.3131204486703
 10
-769.8252692575247
 20
518.317242092004
 10
-769.8192209625247
 20
518.3199424806702
 10
-769.8065407625247
 20
518.3209796393371
  0
LINE
  5
35D2
330
24C
100
AcDbEntity
  8
0
  6
Continuous
 62
     7
100
AcDbLine
 10
-430.2942881539199
 20
-28.48401274752814
 30
0.0
 11
-430.2942881539199
 21
-41.48401274739808
 31
0.0
  0
LINE
  5
360E
330
24C
100
AcDbEntity
  8
0
  6
Continuous
 62
     7
100
AcDbLine
 10
-380.29428815442
 20
-28.48401274752814
 30
0.0
 11
-380.29428815442
 21
-41.48401274739808
 31
0.0
  0
LINE
  5
360F
330
24C
100
AcDbEntity
  8
0
  6
Continuous
 62
     7
100
AcDbLine
 10
-375.8950207567973
 20
512.3617293197298
 30
0.0
 11
-375.8950207567973
 21
518.1523323400056
 31
0.0
  0
LWPOLYLINE
  5
3610
330
24C
100
AcDbEntity
  8
0
  6
Continuous
 62
     7
100
AcDbPolyline
 90
        8
 70
     0
 43
0.0
 10
-769.9151080798571
 20
518.2069213483382
 10
-769.9113395905238
 20
518.2084231580047
 10
-769.9089377565237
 20
518.2103241303384
 10
-769.9069948058571
 20
518.212624265338
 10
-769.9044116631905
 20
518.2153177456716
 10
-769.9010216805239
 20
518.2184103883383
 10
-769.8975286305238
 20
518.2219196463384
 10
-769.8910538708574
 20
518.2302156086716
  0
LINE
  5
3634
330
24C
100
AcDbEntity
  8
0
  6
Continuous
 62
     7
100
AcDbLine
 10
-430.2939952239199
 20
-41.48401274739808
 30
0.0
 11
-380.2945810840867
 21
-41.48401274739808
 31
0.0
  0
LINE
  5
3635
330
24C
100
AcDbEntity
  8
0
  6
Continuous
 62
     7
100
AcDbLine
 10
-47.29399522774997
 20
-41.48401274739808
 30
0.0
 11
2.705418912083359
 21
-41.48401274739808
 31
0.0
  0
LINE
  5
3636
330
24C
100
AcDbEntity
  8
0
  6
Continuous
 62
     7
100
AcDbLine
 10
477.706004767
 20
-41.48401274739808
 30
0.0
 11
527.7054189068333
 21
-41.48401274739808
 31
0.0
  0
LINE
  5
3637
330
24C
100
AcDbEntity
  8
0
  6
Continuous
 62
     7
100
AcDbLine
 10
907.7057118326999
 20
-29.48401274751814
 30
0.0
 11
897.7057118328
 21
-29.48401274751814
 31
0.0
  0
LINE
  5
3638
330
24C
100
AcDbEntity
  8
0
  6
Continuous
 62
     7
100
AcDbLine
 10
-647.2942881517499
 20
-29.48401274751814
 30
0.0
 11
-607.2942881521498
 21
-29.48401274751814
 31
0.0
  0
LINE
  5
3639
330
24C
100
AcDbEntity
  8
0
  6
Continuous
 62
     7
100
AcDbLine
 10
27.70571184149981
 20
-29.48401274751814
 30
0.0
 11
67.70571184109986
 21
-29.48401274751814
 31
0.0
  0
LINE
  5
363A
330
24C
100
AcDbEntity
  8
0
  6
Continuous
 62
     7
100
AcDbLine
 10
777.7057118340001
 20
-29.48401274751814
 30
0.0
 11
817.7057118336
 21
-29.48401274751814
 31
0.0
  0
LINE
  5
363B
330
24C
100
AcDbEntity
  8
0
  6
Continuous
 62
     7
100
AcDbLine
 10
-430.2942881539199
 20
-28.48401274752814
 30
0.0
 11
-380.29428815442
 21
-28.48401274752814
 31
0.0
  0
LINE
  5
363C
330
24C
100
AcDbEntity
  8
0
  6
Continuous
 62
     7
100
AcDbLine
 10
-47.29428815775008
 20
-28.48401274752814
 30
0.0
 11
2.705711841749916
 21
-28.48401274752814
 31
0.0
  0
LINE
  5
363D
330
24C
100
AcDbEntity
  8
0
  6
Continuous
 62
     7
100
AcDbLine
 10
477.7057118369998
 20
-28.48401274752814
 30
0.0
 11
527.7057118364998
 21
-28.48401274752814
 31
0.0
  0
LINE
  5
363E
330
24C
100
AcDbEntity
  8
0
  6
Continuous
 62
     7
100
AcDbLine
 10
911.7057118326597
 20
-26.48401274754815
 30
0.0
 11
-760.2942881506199
 21
-26.48401274754815
 31
0.0
  0
LINE
  5
363F
330
24C
100
AcDbEntity
  8
0
  6
Continuous
 62
     7
100
AcDbLine
 10
914.5057118326318
 20
-22.18401274759117
 30
0.0
 11
911.7057118326597
 21
-22.18401274759117
 31
0.0
  0
LINE
  5
3640
330
24C
100
AcDbEntity
  8
0
  6
Continuous
 62
     7
100
AcDbLine
 10
914.5057118326318
 20
-14.1840127476712
 30
0.0
 11
911.7057118326597
 21
-14.1840127476712
 31
0.0
  0
LINE
  5
3642
330
24C
100
AcDbEntity
  8
0
  6
Continuous
 62
     7
100
AcDbLine
 10
911.7057118326597
 20
-5.484012747758242
 30
0.0
 11
-760.2942881506199
 21
-5.484012747758242
 31
0.0
  0
LINE
  5
3643
330
24C
100
AcDbEntity
  8
0
  6
Continuous
 62
     7
100
AcDbLine
 10
-769.2942881505299
 20
-1.48401274779826
 30
0.0
 11
920.70571183257
 21
-1.48401274779826
 31
0.0
  0
LINE
  5
3649
330
24C
100
AcDbEntity
  8
0
  6
Continuous
 62
     7
100
AcDbLine
 10
-765.2942881505699
 20
3.230745382154964
 30
0.0
 11
916.7099784989432
 21
3.230745382154964
 31
0.0
  0
LINE
  5
364A
330
24C
100
AcDbEntity
  8
0
  6
Continuous
 62
     7
100
AcDbLine
 10
-769.928258462857
 20
518.1213359330058
 30
0.0
 11
-769.9269683365236
 21
518.1204370336722
 31
0.0
  0
LINE
  5
3687
330
24C
100
AcDbEntity
  8
0
  6
Continuous
 62
     7
100
AcDbLine
 10
-47.29428815775008
 20
-28.48401274752814
 30
0.0
 11
-47.29428815775008
 21
-41.48401274739808
 31
0.0
  0
LINE
  5
3694
330
24C
100
AcDbEntity
  8
0
  6
Continuous
 62
     7
100
AcDbLine
 10
2.705711841749916
 20
-28.48401274752814
 30
0.0
 11
2.705711841749916
 21
-41.48401274739808
 31
0.0
  0
LINE
  5
3695
330
24C
100
AcDbEntity
  8
0
  6
Continuous
 62
     7
100
AcDbLine
 10
27.70571184149981
 20
-26.48401274754815
 30
0.0
 11
27.70571184149981
 21
-29.48401274751814
 31
0.0
  0
LINE
  5
36B2
330
24C
100
AcDbEntity
  8
0
  6
Continuous
 62
     7
100
AcDbLine
 10
67.70571184109986
 20
-26.48401274754815
 30
0.0
 11
67.70571184109986
 21
-29.48401274751814
 31
0.0
  0
LWPOLYLINE
  5
36E2
330
24C
100
AcDbEntity
  8
0
  6
Continuous
 62
     7
100
AcDbPolyline
 90
       16
 70
     0
 43
0.0
 10
915.2470327242911
 20
518.1441451873388
 10
892.5519233778514
 20
517.5703761716781
 10
869.2440924460843
 20
517.1327548486824
 10
845.4507360966559
 20
516.9649226666833
 10
821.1358210582323
 20
517.0096941023502
 10
796.3134271284802
 20
517.1348904280157
 10
771.0001662674001
 20
517.2846527166807
 10
745.202173792992
 20
517.4387466170128
 10
718.9172606142545
 20
517.5877977323444
 10
692.1428877478554
 20
517.7261480433426
 10
664.8790659811282
 20
517.8496891740082
 10
637.1260844260723
 20
517.9551700810074
 10
608.881653115355
 20
518.0399615186733
 10
580.1450761506421
 20
518.1019828450062
 10
550.9172572112677
 20
518.1397316936722
 10
521.3109792342304
 20
518.1523323380056
  0
LINE
  5
36E3
330
24C
100
AcDbEntity
  8
0
  6
Continuous
 62
     7
100
AcDbLine
 10
916.7095505519432
 20
469.508686215825
 30
0.0
 11
-765.2981073792366
 21
469.508686215825
 31
0.0
  0
LINE
  5
36E4
330
24C
100
AcDbEntity
  8
0
  6
Continuous
 62
     7
100
AcDbLine
 10
922.7057118325499
 20
473.5159872474518
 30
0.0
 11
-771.29428815051
 21
473.5159872474518
 31
0.0
  0
LINE
  5
36E5
330
24C
100
AcDbEntity
  8
0
  6
Continuous
 62
     7
100
AcDbLine
 10
-777.29185153245
 20
475.5159872474319
 30
0.0
 11
922.7081500098831
 21
475.5159872474319
 31
0.0
  0
LINE
  5
36E6
330
24C
100
AcDbEntity
  8
0
  6
Continuous
 62
     7
100
AcDbLine
 10
521.3109792342304
 20
512.3617293197298
 30
0.0
 11
-375.8950207567973
 21
512.3617293197298
 31
0.0
  0
LINE
  5
36E7
330
24C
100
AcDbEntity
  8
0
  6
Continuous
 62
     7
100
AcDbLine
 10
-769.9027474388572
 20
518.3234697396706
 30
0.0
 11
-769.977219258523
 21
518.324249740337
 31
0.0
  0
LINE
  5
36E8
330
24C
100
AcDbEntity
  8
0
  6
Continuous
 62
     7
100
AcDbLine
 10
-769.9282654011903
 20
518.1213359320054
 30
0.0
 11
-769.9258570895235
 21
518.1213041036722
 31
0.0
  0
LINE
  5
36E9
330
24C
100
AcDbEntity
  8
0
  6
Continuous
 62
     7
100
AcDbLine
 10
-769.9151079311904
 20
518.2069213463383
 30
0.0
 11
-732.5612517938973
 21
517.6354275526773
 31
0.0
  0
LINE
  5
36EA
330
24C
100
AcDbEntity
  8
0
  6
Continuous
 62
     7
100
AcDbLine
 10
-769.8359540431911
 20
518.3219835433369
 30
0.0
 11
-769.9088119731904
 21
518.3235678583368
 31
0.0
  0
LINE
  5
36EB
330
24C
100
AcDbEntity
  8
_SURFACE
  6
Continuous
 62
     7
100
AcDbLine
 10
-761.9615558179366
 20
518.0852363010062
 30
0.0
 11
-762.790336820595
 21
518.1083975756723
 31
0.0
  0
LINE
  5
36EC
330
24C
100
AcDbEntity
  8
_SURFACE
  6
Continuous
 62
     7
100
AcDbLine
 10
-762.790336820595
 20
518.1083975756723
 30
0.0
 11
-763.6943656889193
 21
518.1344079916721
 31
0.0
  0
LINE
  5
36ED
330
24C
100
AcDbEntity
  8
0
  6
Continuous
 62
     7
100
AcDbLine
 10
-769.8138883278581
 20
518.3213290346702
 30
0.0
 11
-769.8400187141912
 21
518.3220952733372
 31
0.0
  0
LINE
  5
36EE
330
24C
100
AcDbEntity
  8
_SURFACE
  6
Continuous
 62
     7
100
AcDbLine
 10
-763.6943656889193
 20
518.1344079916721
 30
0.0
 11
-764.7731785522418
 21
518.1662012433385
 31
0.0
  0
LINE
  5
36EF
330
24C
100
AcDbEntity
  8
_SURFACE
  6
Continuous
 62
     7
100
AcDbLine
 10
-764.7731785522418
 20
518.1662012433385
 30
0.0
 11
-766.3783226142257
 21
518.214633178005
 31
0.0
  0
LINE
  5
36F0
330
24C
100
AcDbEntity
  8
_SURFACE
  6
Continuous
 62
     7
100
AcDbLine
 10
-765.3808737812357
 20
518.1843982400055
 30
0.0
 11
-765.7019372702325
 21
518.1940838403384
 31
0.0
  0
LINE
  5
36F1
330
24C
100
AcDbEntity
  8
_SURFACE
  6
Continuous
 62
     7
100
AcDbLine
 10
-766.0342779858958
 20
518.2041572793382
 30
0.0
 11
-767.4714684815482
 21
518.2482064286709
 31
0.0
  0
LINE
  5
36F2
330
24C
100
AcDbEntity
  8
_SURFACE
  6
Continuous
 62
     7
100
AcDbLine
 10
-769.4792737381947
 20
518.3108052236707
 30
0.0
 11
-769.8138828681914
 21
518.3213346860038
 31
0.0
  0
LINE
  5
36F3
330
24C
100
AcDbEntity
  8
_SURFACE
  6
Continuous
 62
     7
100
AcDbLine
 10
-767.4714684815482
 20
518.2482064286709
 30
0.0
 11
-769.4792737381947
 21
518.3108052236707
 31
0.0
  0
LWPOLYLINE
  5
36FB
330
24C
100
AcDbEntity
  8
0
  6
Continuous
 62
     7
100
AcDbPolyline
 90
      183
 70
     0
 43
0.0
 10
-769.977219258523
 20
518.324249740337
 10
-770.0452348395224
 20
518.3241544313368
 10
-770.1128598898551
 20
518.3232951963373
 10
-770.1800859821877
 20
518.3216851663368
 10
-770.246904982187
 20
518.3193374893371
 10
-770.3133189275197
 20
518.3162648113375
 10
-770.379320239519
 20
518.3124799703368
 10
-770.4449016151849
 20
518.3079958086709
 10
-770.5100658855179
 20
518.302824332004
 10
-770.5748062591838
 20
518.2969780576704
 10
-770.6391162051832
 20
518.2904694983371
 10
-770.7029992775158
 20
518.2833100013376
 10
-770.7664494151818
 20
518.2755117423376
 10
-770.8294608005147
 20
518.2670868833374
 10
-770.8920376445139
 20
518.2580461010047
 10
-770.95417456018
 20
518.2484012120044
 10
-771.0158663881793
 20
518.2381640103381
 10
-771.0771179325121
 20
518.2273444956713
 10
-771.1379244261782
 20
518.2159541096716
 10
-771.1982813161776
 20
518.2040042683383
 10
-771.2581939378436
 20
518.1915042876717
 10
-771.3176580928429
 20
518.1784652260053
 10
-771.3766697838425
 20
518.1648981113389
 10
-771.4352348201751
 20
518.1508115746724
 10
-771.4933495241746
 20
518.1362162850055
 10
-771.551010404174
 20
518.121122875339
 10
-771.6082236898401
 20
518.1055392943394
 10
-771.6649861761729
 20
518.089475816339
 10
-771.7212948338389
 20
518.0729426776728
 10
-771.7771562588384
 20
518.0559471480064
 10
-771.8325676765045
 20
518.0384991060064
 10
-771.8875264748374
 20
518.0206083903404
 10
-771.9420395678367
 20
518.0022815980069
 10
-771.9961045691696
 20
517.9835282133403
 10
-772.0497192438357
 20
517.9643576780072
 10
-772.1028907771685
 20
517.9447759260078
 10
-772.1556171318346
 20
517.9247920486741
 10
-772.2078964111674
 20
517.9044150946747
 10
-772.259736028167
 20
517.8836503453412
 10
-772.3111342571664
 20
517.8625065036749
 10
-772.3620895041658
 20
517.8409922296755
 10
-772.4126093678322
 20
517.8191121633422
 10
-772.4626924004983
 20
517.7968746263423
 10
-772.5123372761644
 20
517.774287895676
 10
-772.5615517404973
 20
517.7513559840094
 10
-772.6103345984967
 20
517.7280868336765
 10
-772.6586847524964
 20
517.7044883506765
 10
-772.7066100368293
 20
517.680563945677
 10
-772.7541102888286
 20
517.6563207713443
 10
-772.8011837921615
 20
517.631766776677
 10
-772.847836003161
 20
517.6069060973445
 10
-772.8940676951606
 20
517.5817451723446
 10
-772.9398766438269
 20
517.5562920660113
 10
-772.9852638468265
 20
517.5305530810114
 10
-773.0302289721592
 20
517.5045352346783
 10
-773.0747714424921
 20
517.4782456956791
 10
-773.118891986825
 20
517.4516908566793
 10
-773.1625903638246
 20
517.4248776726795
 10
-773.2058664208241
 20
517.3978130526793
 10
-773.2487211204905
 20
517.3705031973468
 10
-773.2911544658232
 20
517.3429548946805
 10
-773.3331665444896
 20
517.3151748856808
 10
-773.3747585374891
 20
517.2871691746808
 10
-773.415930678822
 20
517.2589443796814
 10
-773.4566832821549
 20
517.2305070686811
 10
-773.4970177328213
 20
517.2018630480147
 10
-773.5369344818209
 20
517.173018761015
 10
-773.5764340544871
 20
517.1439806006819
 10
-773.6155180268201
 20
517.1147541723494
 10
-773.6541870528196
 20
517.0853457426833
 10
-773.6924418574859
 20
517.0557615260167
 10
-773.7302841931522
 20
517.0260069260166
 10
-773.7677149038185
 20
516.9960880296839
 10
-773.8047349001515
 20
516.9660108726839
 10
-773.8413460984845
 20
516.9357806543508
 10
-773.8775495201507
 20
516.9054032820176
 10
-773.9133462494837
 20
516.8748846096851
 10
-773.9487383524833
 20
516.8442296333519
 10
-773.9837270048163
 20
516.8134440890189
 10
-774.0183134631493
 20
516.7825336390192
 10
-774.0524999668157
 20
516.7515030443524
 10
-774.0862875188154
 20
516.720358160353
 10
-774.1196778538151
 20
516.6891041686867
 10
-774.1526743304813
 20
516.6577446750202
 10
-774.1852780328144
 20
516.6262853806874
 10
-774.2174908491474
 20
516.5947312120206
 10
-774.2493173141469
 20
516.5630844200213
 10
-774.2807589488133
 20
516.5313501356881
 10
-774.3118173604798
 20
516.4995333986885
 10
-774.342497150146
 20
516.4676361090223
 10
-774.3727999278124
 20
516.4356631560226
 10
-774.4027273474788
 20
516.403619379023
 10
-774.4322840034786
 20
516.3715063940235
 10
-774.4614715644782
 20
516.3393288760239
 10
-774.4902917388112
 20
516.3070914496906
 10
-774.5187491041443
 20
516.2747954570245
 10
-774.5468453771441
 20
516.2424453640246
 10
-774.5745823118104
 20
516.2100455883583
 10
-774.6019644578102
 20
516.1775972063582
 10
-774.6289935708099
 20
516.1451044816922
 10
-774.655671441143
 20
516.1125716316928
 10
-774.6820025808094
 20
516.0799994760264
 10
-774.7079887761424
 20
516.0473920830263
 10
-774.7336318441422
 20
516.0147534756934
 10
-774.758936252142
 20
515.9820842266936
 10
-774.7839038078084
 20
515.9493882150273
 10
-774.8085363474747
 20
515.916669277361
 10
-774.8328382848078
 20
515.8839277470279
 10
-774.8568116704744
 20
515.851167006695
 10
-774.8804581201406
 20
515.8183910236953
 10
-774.9037813111405
 20
515.7856008583621
 10
-774.9267838098069
 20
515.7527990153625
 10
-774.94946675714
 20
515.7199900110295
 10
-774.9718316888065
 20
515.6871778326972
 10
-774.9938806758063
 20
515.6543656910303
 10
-775.0156155274727
 20
515.6215571736971
 10
-775.0370374561391
 20
515.5887567953641
 10
-775.0581484798056
 20
515.5559678693648
 10
-775.0789506381388
 20
515.5231936680316
 10
-775.0994452498052
 20
515.4904386123657
 10
-775.1196344158049
 20
515.4577059073658
 10
-775.1395202554715
 20
515.4249987163662
 10
-775.1591041888046
 20
515.3923213660332
 10
-775.178388393471
 20
515.3596769516998
 10
-775.1973750628041
 20
515.3270685280335
 10
-775.2160657124707
 20
515.2945003257005
 10
-775.2344625898039
 20
515.2619753300346
 10
-775.252567957137
 20
515.2294964857015
 10
-775.2703834191367
 20
515.1970679267015
 10
-775.2879112878034
 20
515.1646925287018
 10
-775.3051538874698
 20
515.1323731263687
 10
-775.3221129071363
 20
515.1001137560361
 10
-775.3387907171361
 20
515.0679171837027
 10
-775.355189699136
 20
515.0357861337034
 10
-775.3713116191359
 20
515.0037245450366
 10
-775.3871589004691
 20
514.9717350733708
 10
-775.4027339764689
 20
514.9398203340374
 10
-775.4180386844686
 20
514.9079841677048
 10
-775.4330754974684
 20
514.8762291177054
 10
-775.4478468921351
 20
514.8445576937056
 10
-775.4623547684682
 20
514.8129736470386
 10
-775.4766017578015
 20
514.7814791530395
 10
-775.4905902581347
 20
514.7500768717058
 10
-775.5043218844678
 20
514.7187712500395
 10
-775.5177993998011
 20
514.6875641593733
 10
-775.5310251671342
 20
514.6564583600402
 10
-775.5440003021341
 20
514.6254596127073
 10
-775.5567274558006
 20
514.5945701143745
 10
-775.5692092421338
 20
514.5637921180414
 10
-775.5814468424671
 20
514.5331314590416
 10
-775.5934429528003
 20
514.5025902893753
 10
-775.6052002684668
 20
514.4721707223757
 10
-775.6167200908
 20
514.441878524376
 10
-775.6280051731332
 20
514.4117157543759
 10
-775.6390582661331
 20
514.3816844317098
 10
-775.6498807841331
 20
514.3517902520434
 10
-775.6604755307996
 20
514.3220351800437
 10
-775.6708453051328
 20
514.2924211413774
 10
-775.6809916271326
 20
514.2629537577113
 10
-775.6909172491327
 20
514.2336351823778
 10
-775.7006251107991
 20
514.2044669643783
 10
-775.7101171047991
 20
514.1754537993783
 10
-775.719395822799
 20
514.1465983383791
 10
-775.7284644177989
 20
514.1179014373792
 10
-775.7373256627988
 20
514.089365058046
 10
-775.7459823571321
 20
514.0609910323796
 10
-775.7544373947987
 20
514.0327808150468
 10
-775.7626936784652
 20
514.0047357487137
 10
-775.7707540264651
 20
513.9768573860469
 10
-775.778621245465
 20
513.9491472457144
 10
-775.7862982001316
 20
513.921606564048
 10
-775.793787672465
 20
513.8942367903815
 10
-775.8010924317982
 20
513.8670393407151
 10
-775.8082153011314
 20
513.8400153490484
 10
-775.8151590234647
 20
513.8131661660491
 10
-775.8219263281314
 20
513.7864931090489
 10
-775.8285199934646
 20
513.7599972153825
 10
-775.8349427201312
 20
513.7336797397161
 10
-775.8411971947978
 20
513.7075419060502
 10
-775.8472861487978
 20
513.6815846580502
 10
-775.8532123294644
 20
513.6558087580506
 10
-775.8589782824643
 20
513.6302157413838
 10
-775.8700397791308
 20
513.5795837787177
  0
LWPOLYLINE
  5
36FC
330
24C
100
AcDbEntity
  8
0
  6
Continuous
 62
     7
100
AcDbPolyline
 90
       13
 70
     0
 43
0.0
 10
-375.8950207567973
 20
518.1523323400056
 10
-412.8512749670944
 20
518.1370501173387
 10
-449.1624997153978
 20
518.0905809166724
 10
-484.7059225993758
 20
518.0118977416732
 10
-519.4794748530281
 20
517.899328273008
 10
-553.4853490700213
 20
517.750457725343
 10
-586.7298288723556
 20
517.562735524345
 10
-619.215638911364
 20
517.3379177883471
 10
-650.9263486750469
 20
517.1208442953489
 10
-681.8365318040711
 20
517.119953665016
 10
-711.9951034177695
 20
517.3860688310132
 10
-741.4001905681423
 20
517.7425971810094
 10
-769.9256239675236
 20
518.1213009366724
  0
LINE
  5
36FD
330
24C
100
AcDbEntity
  8
0
  6
Continuous
 62
     7
100
AcDbLine
 10
521.3109792342304
 20
518.1523323396718
 30
0.0
 11
-375.8950207567973
 21
518.1523323396718
 31
0.0
  0
LINE
  5
3700
330
24C
100
AcDbEntity
  8
0
  6
Continuous
 62
     7
100
AcDbLine
 10
477.7057118369998
 20
-28.48401274752814
 30
0.0
 11
477.7057118369998
 21
-41.48401274739808
 31
0.0
  0
LINE
  5
3706
330
24C
100
AcDbEntity
  8
0
  6
Continuous
 62
     7
100
AcDbLine
 10
521.3109792342304
 20
512.3617293197298
 30
0.0
 11
521.3109792342304
 21
518.1523323396718
 31
0.0
  0
LINE
  5
3707
330
24C
100
AcDbEntity
  8
0
  6
Continuous
 62
     7
100
AcDbLine
 10
527.7057118364998
 20
-28.48401274752814
 30
0.0
 11
527.7057118364998
 21
-41.48401274739808
 31
0.0
  0
LINE
  5
3709
330
24C
100
AcDbEntity
  8
0
  6
Continuous
 62
     7
100
AcDbLine
 10
777.7057118340001
 20
-26.48401274754815
 30
0.0
 11
777.7057118340001
 21
-29.48401274751814
 31
0.0
  0
LINE
  5
370B
330
24C
100
AcDbEntity
  8
0
  6
Continuous
 62
     7
100
AcDbLine
 10
817.7057118336
 20
-26.48401274754815
 30
0.0
 11
817.7057118336
 21
-29.48401274751814
 31
0.0
  0
LINE
  5
370C
330
24C
100
AcDbEntity
  8
0
  6
Continuous
 62
     7
100
AcDbLine
 10
912.7142417396497
 20
475.5159872474319
 30
0.0
 11
911.4314944826626
 21
512.2490625243976
 31
0.0
  0
LINE
  5
370D
330
24C
100
AcDbEntity
  8
0
  6
Continuous
 62
     7
100
AcDbLine
 10
922.7081500098831
 20
475.5159872474319
 30
0.0
 11
921.4221829015626
 21
512.3412670680636
 31
0.0
  0
LINE
  5
370E
330
24C
100
AcDbEntity
  8
0
  6
Continuous
 62
     7
100
AcDbLine
 10
897.7057118328
 20
-29.48401274751814
 30
0.0
 11
897.7057118328
 21
-26.48401274754815
 31
0.0
  0
LINE
  5
370F
330
24C
100
AcDbEntity
  8
0
  6
Continuous
 62
     7
100
AcDbLine
 10
899.7057118327798
 20
473.5159872474518
 30
0.0
 11
899.7057118327798
 21
475.5159872474319
 31
0.0
  0
LINE
  5
3710
330
24C
100
AcDbEntity
  8
0
  6
Continuous
 62
     7
100
AcDbLine
 10
907.7057118326999
 20
-29.48401274751814
 30
0.0
 11
907.7057118326999
 21
-1.48401274779826
 31
0.0
  0
LINE
  5
3711
330
24C
100
AcDbEntity
  8
0
  6
Continuous
 62
     7
100
AcDbLine
 10
911.7057118326597
 20
-26.48401274754815
 30
0.0
 11
911.7057118326597
 21
-5.484012747758242
 31
0.0
  0
LINE
  5
3712
330
24C
100
AcDbEntity
  8
0
  6
Continuous
 62
     7
100
AcDbLine
 10
914.5057118326318
 20
-22.18401274759117
 30
0.0
 11
914.5057118326318
 21
-14.1840127476712
 31
0.0
  0
LINE
  5
3713
330
24C
100
AcDbEntity
  8
0
  6
Continuous
 62
     7
100
AcDbLine
 10
915.2057118326249
 20
-21.48401274759817
 30
0.0
 11
915.2057118326249
 21
-14.8840127476642
 31
0.0
  0
LINE
  5
3714
330
24C
100
AcDbEntity
  8
0
  6
Continuous
 62
     7
100
AcDbLine
 10
916.7057118326097
 20
3.230745382154964
 30
0.0
 11
916.7057158146098
 21
2.515987252161721
 31
0.0
  0
LINE
  5
3715
330
24C
100
AcDbEntity
  8
0
  6
Continuous
 62
     7
100
AcDbLine
 10
916.7057118326097
 20
469.508686215825
 30
0.0
 11
916.7057118326097
 21
473.5159872474518
 31
0.0
  0
LINE
  5
3716
330
24C
100
AcDbEntity
  8
0
  6
Continuous
 62
     7
100
AcDbLine
 10
916.7057158146098
 20
2.515987252161721
 30
0.0
 11
916.7057118326097
 21
-1.48401274779826
 31
0.0
  0
LINE
  5
3717
330
24C
100
AcDbEntity
  8
0
  6
Continuous
 62
     7
100
AcDbLine
 10
916.7095505519432
 20
469.508686215825
 30
0.0
 11
916.7099784989432
 21
3.230745382154964
 31
0.0
  0
LINE
  5
3718
330
24C
100
AcDbEntity
  8
0
  6
Continuous
 62
     7
100
AcDbLine
 10
926.7057118325098
 20
469.5159872474914
 30
0.0
 11
926.7057118325098
 21
4.515987252141712
 31
0.0
  0
LWPOLYLINE
  5
371C
330
24C
100
AcDbEntity
  8
0
  6
Continuous
 62
     7
100
AcDbPolyline
 90
       54
 70
     0
 43
0.0
 10
921.2230106928981
 20
513.6790566997169
 10
921.2120925402315
 20
513.7194313363834
 10
921.1738010795652
 20
513.853021908048
 10
921.1322899738988
 20
513.9861224717138
 10
921.0875656405658
 20
514.1186194720457
 10
921.0395691648997
 20
514.2505777417109
 10
920.9883008389004
 20
514.3818800397098
 10
920.9337696749008
 20
514.5124087830417
 10
920.875911273568
 20
514.6422111200404
 10
920.8147279122353
 20
514.7711696587057
 10
920.7502323945696
 20
514.8991617853717
 10
920.6823613959034
 20
515.0262088373701
 10
920.6111231142374
 20
515.1521878440357
 10
920.5365324462384
 20
515.2769775540341
 10
920.4585248969056
 20
515.4005837816994
 10
920.3771044385732
 20
515.5228940653651
 10
920.2922979642405
 20
515.643771623364
 10
920.2040691159082
 20
515.7631701026957
 10
920.1124355889094
 20
515.8809669383617
 10
920.0174241129102
 20
515.9970363553602
 10
919.9190103732444
 20
516.1113151386921
 10
919.8172226355787
 20
516.2236773923577
 10
919.712090376913
 20
516.3340026583568
 10
919.6035910479142
 20
516.4422247670227
 10
919.4917527885818
 20
516.5482241583545
 10
919.376616669583
 20
516.6518739640205
 10
919.2581810339177
 20
516.7530874960193
 10
919.1364625552523
 20
516.8517598726853
 10
919.0115259475867
 20
516.9477501810174
 10
918.883447724588
 20
517.0409163013496
 10
918.7522712222563
 20
517.1311455330156
 10
918.618052725924
 20
517.2183187686819
 10
918.4808976402587
 20
517.3022914460139
 10
918.3408620835935
 20
517.3829553790133
 10
918.1980057879284
 20
517.4602019340122
 10
918.0524487795967
 20
517.5338955080114
 10
917.9042168119313
 20
517.6039519610108
 10
917.7534137729326
 20
517.6702497656765
 10
917.6002877662678
 20
517.7326178613434
 10
917.4448737376023
 20
517.7909843903421
 10
917.2872829076041
 20
517.845247573342
 10
917.1278914972722
 20
517.8952325523414
 10
916.9667433572739
 20
517.9408891053408
 10
916.8039593336088
 20
517.9821434653404
 10
916.6400440396104
 20
518.0188469113404
 10
916.4752049462789
 20
518.050951485673
 10
916.3094040692804
 20
518.0784588123397
 10
916.1427833632822
 20
518.1013346630061
 10
915.9755618079508
 20
518.1195426486724
 10
915.807710215952
 20
518.1330758403391
 10
915.6390044009539
 20
518.1419204996723
 10
915.4694088612888
 20
518.146023284672
 10
915.2990755272906
 20
518.1453216483387
 10
915.2469521729576
 20
518.1441421936719
  0
ARC
  5
50D3
330
24C
100
AcDbEntity
  8
0
  6
Continuous
 62
     7
100
AcDbCircle
 10
-765.2828598502367
 20
81.46512297137224
 30
0.0
 40
78.23437842388431
100
AcDbArc
 50
269.2256716665007
 51
269.9916303624988
  0
ARC
  5
50D4
330
24C
100
AcDbEntity
  8
0
  6
Continuous
 62
     7
100
AcDbCircle
 10
-765.316342921903
 20
79.31752208239368
 30
0.0
 40
76.08652128990579
100
AcDbArc
 50
268.4504751679999
 51
269.2290279234001
  0
ARC
  5
50D5
330
24C
100
AcDbEntity
  8
0
  6
Continuous
 62
     7
100
AcDbCircle
 10
-765.6078629072335
 20
69.71601666748984
 30
0.0
 40
66.48065150533518
100
AcDbArc
 50
266.7648072890011
 51
268.477863580402
  0
ARC
  5
50D7
330
24C
100
AcDbEntity
  8
0
  6
Continuous
 62
     7
100
AcDbCircle
 10
-766.4752290708914
 20
54.64289248797422
 30
0.0
 40
51.38260221748617
100
AcDbArc
 50
264.9559404278014
 51
266.781907736899
  0
ARC
  5
50DA
330
24C
100
AcDbEntity
  8
0
  6
Continuous
 62
     7
100
AcDbCircle
 10
-770.0082047628561
 20
512.1200378623994
 30
0.0
 40
6.001794091273315
100
AcDbArc
 50
89.23684566240034
 51
177.9935176130993
  0
ARC
  5
50DB
330
24C
100
AcDbEntity
  8
0
  6
Continuous
 62
     7
100
AcDbCircle
 10
-770.0068940891894
 20
512.2076236693978
 30
0.0
 40
5.999999999939999
100
AcDbArc
 50
89.12347395219921
 51
178.0000000041972
  0
ARC
  5
50DC
330
24C
100
AcDbEntity
  8
0
  6
Continuous
 62
     7
100
AcDbCircle
 10
-769.2941282691966
 20
4.515987252141712
 30
0.0
 40
5.999999999939999
100
AcDbArc
 50
180.0
 51
269.9984732465984
  0
CIRCLE
  5
50DD
330
24C
100
AcDbEntity
  8
0
  6
Continuous
 62
     7
100
AcDbCircle
 10
-627.29428815195
 20
-18.18401274763118
 30
0.0
 40
3.999999999959999
  0
CIRCLE
  5
50DE
330
24C
100
AcDbEntity
  8
0
  6
Continuous
 62
     7
100
AcDbCircle
 10
47.70571184129994
 20
-18.18401274763118
 30
0.0
 40
3.999999999959999
  0
ARC
  5
50DF
330
24C
100
AcDbEntity
  8
0
  6
Continuous
 62
     7
100
AcDbCircle
 10
-764.2942881505799
 20
-5.484012747758242
 30
0.0
 40
3.999999999959999
100
AcDbArc
 50
0.0
 51
90.0
  0
ARC
  5
50E0
330
24C
100
AcDbEntity
  8
0
  6
Continuous
 62
     7
100
AcDbCircle
 10
-771.29428815051
 20
469.5159872474914
 30
0.0
 40
3.999999999959999
100
AcDbArc
 50
90.0
 51
180.0
  0
CIRCLE
  5
50E1
330
24C
100
AcDbEntity
  8
0
  6
Continuous
 62
     7
100
AcDbCircle
 10
-627.29428815195
 20
-18.18401274763118
 30
0.0
 40
3.299999999966999
  0
CIRCLE
  5
50E2
330
24C
100
AcDbEntity
  8
0
  6
Continuous
 62
     7
100
AcDbCircle
 10
47.70571184129994
 20
-18.18401274763118
 30
0.0
 40
3.299999999966999
  0
ARC
  5
50E3
330
24C
100
AcDbEntity
  8
0
  6
Continuous
 62
     7
100
AcDbCircle
 10
-427.2942881539499
 20
-28.48401274752814
 30
0.0
 40
2.999999999969999
100
AcDbArc
 50
138.1640315217983
 51
180.0
  0
ARC
  5
50E4
330
24C
100
AcDbEntity
  8
0
  6
Continuous
 62
     7
100
AcDbCircle
 10
-383.29428815439
 20
-28.48401274752814
 30
0.0
 40
2.999999999969999
100
AcDbArc
 50
0.0
 51
41.8359684782017
  0
ARC
  5
50E5
330
24C
100
AcDbEntity
  8
0
  6
Continuous
 62
     7
100
AcDbCircle
 10
-44.29428815777998
 20
-28.48401274752814
 30
0.0
 40
2.999999999969999
100
AcDbArc
 50
138.1640315217983
 51
180.0
  0
ARC
  5
50E6
330
24C
100
AcDbEntity
  8
0
  6
Continuous
 62
     7
100
AcDbCircle
 10
-0.2942881582200698
 20
-28.48401274752814
 30
0.0
 40
2.999999999969999
100
AcDbArc
 50
0.0
 51
41.8359684782017
  0
ARC
  5
50EB
330
24C
100
AcDbEntity
  8
0
  6
Continuous
 62
     7
100
AcDbCircle
 10
916.7023207172764
 20
80.37778511304987
 30
0.0
 40
77.1470972438952
100
AcDbArc
 50
270.0056872999001
 51
271.5478236767014
  0
ARC
  5
50ED
330
24C
100
AcDbEntity
  8
0
  6
Continuous
 62
     7
100
AcDbCircle
 10
915.4021722652899
 20
512.1287066173985
 30
0.0
 40
6.023762115606428
100
AcDbArc
 50
2.022249536702305
 51
14.92440846350177
  0
ARC
  5
50EE
330
24C
100
AcDbEntity
  8
0
  6
Continuous
 62
     7
100
AcDbCircle
 10
920.70571183257
 20
4.515987252141712
 30
0.0
 40
5.999999999939999
100
AcDbArc
 50
270.0
 51
0.0
  0
CIRCLE
  5
50EF
330
24C
100
AcDbEntity
  8
0
  6
Continuous
 62
     7
100
AcDbCircle
 10
797.7057118338
 20
-18.18401274763118
 30
0.0
 40
3.999999999959999
  0
ARC
  5
50F0
330
24C
100
AcDbEntity
  8
0
  6
Continuous
 62
     7
100
AcDbCircle
 10
915.70571183262
 20
-5.484012747758242
 30
0.0
 40
3.999999999959999
100
AcDbArc
 50
97.50000000000113
 51
180.0
  0
ARC
  5
50F1
330
24C
100
AcDbEntity
  8
0
  6
Continuous
 62
     7
100
AcDbCircle
 10
914.7057118326298
 20
477.5159872474119
 30
0.0
 40
3.999999999959999
100
AcDbArc
 50
210.084440185102
 51
260.0940255829009
  0
ARC
  5
50F2
330
24C
100
AcDbEntity
  8
0
  6
Continuous
 62
     7
100
AcDbCircle
 10
922.7054139002163
 20
469.5159872474914
 30
0.0
 40
3.999999999959999
100
AcDbArc
 50
0.0
 51
89.99573243459941
  0
CIRCLE
  5
50F3
330
24C
100
AcDbEntity
  8
0
  6
Continuous
 62
     7
100
AcDbCircle
 10
797.7057118338
 20
-18.18401274763118
 30
0.0
 40
3.299999999966999
  0
ARC
  5
50F4
330
24C
100
AcDbEntity
  8
0
  6
Continuous
 62
     7
100
AcDbCircle
 10
480.7057118369701
 20
-28.48401274752814
 30
0.0
 40
2.999999999969999
100
AcDbArc
 50
138.1640315217983
 51
180.0
  0
ARC
  5
50F5
330
24C
100
AcDbEntity
  8
0
  6
Continuous
 62
     7
100
AcDbCircle
 10
524.7057118365298
 20
-28.48401274752814
 30
0.0
 40
2.999999999969999
100
AcDbArc
 50
0.0
 51
41.8359684782017
  0
ARC
  5
50F6
330
24C
100
AcDbEntity
  8
0
  6
Continuous
 62
     7
100
AcDbCircle
 10
914.5057118326318
 20
-21.48401274759817
 30
0.0
 40
0.6999999999929999
100
AcDbArc
 50
270.0
 51
0.0
  0
ARC
  5
50F7
330
24C
100
AcDbEntity
  8
0
  6
Continuous
 62
     7
100
AcDbCircle
 10
914.5057118326318
 20
-14.8840127476642
 30
0.0
 40
0.6999999999929999
100
AcDbArc
 50
0.0
 51
90.0
  0
LINE
  5
5CD1
330
24C
100
AcDbEntity
  8
0
  6
Continuous
 62
     7
100
AcDbLine
 10
-769.8153024471914
 20
518.3212488240037
 30
0.0
 11
-769.8138896751913
 21
518.3213290080034
 31
0.0
  0
SPLINE
  5
5CD2
330
24C
100
AcDbEntity
  8
0
  6
Continuous
 62
     7
100
AcDbSpline
210
0.0
220
0.0
230
1.0
 70
     8
 71
     3
 72
    11
 73
     7
 74
     0
 42
0.0000000001
 43
0.0000000001
 40
0.0
 40
0.0
 40
0.0
 40
0.0
 40
0.2343844963
 40
0.4757339115
 40
0.7301193273000001
 40
1.0
 40
1.0
 40
1.0
 40
1.0
 10
915.2629184666244
 20
518.1445239980052
 30
0.0
 10
915.8870592409513
 20
518.1597113796719
 30
0.0
 10
917.1674659946052
 20
517.9900590980069
 30
0.0
 10
918.9481518985873
 20
517.1299272170158
 30
0.0
 10
920.4263391295729
 20
515.6705811840302
 30
0.0
 10
921.0373562828998
 20
514.3746568560431
 30
0.0
 10
921.2227315062314
 20
513.6800931410503
 30
0.0
  0
SPLINE
  5
5CD3
330
24C
100
AcDbEntity
  8
0
  6
Continuous
 62
     7
100
AcDbSpline
210
0.0
220
0.0
230
1.0
 70
     8
 71
     3
 72
     9
 73
     5
 74
     0
 42
0.0000000001
 43
0.0000000001
 40
0.0
 40
0.0
 40
0.0
 40
0.0
 40
0.3044051745
 40
1.0
 40
1.0
 40
1.0
 40
1.0
 10
-776.0062717911295
 20
512.33017434073
 30
0.0
 10
-776.0060122684628
 20
512.3376060997302
 30
0.0
 10
-775.9778802801297
 20
512.351065023397
 30
0.0
 10
-775.9572284537966
 20
512.3556039787299
 30
0.0
 10
-775.9406061101302
 20
512.35913202573
 30
0.0
  0
SPLINE
  5
5CD4
330
24C
100
AcDbEntity
  8
0
  6
Continuous
 62
     7
100
AcDbSpline
210
0.0
220
0.0
230
1.0
 70
     8
 71
     3
 72
    14
 73
    10
 74
     0
 42
0.0000000001
 43
0.0000000001
 40
0.0
 40
0.0
 40
0.0
 40
0.0
 40
0.0375781666
 40
0.1067964783
 40
0.2054677303
 40
0.330363696
 40
0.4773759254
 40
0.6416614807
 40
1.0
 40
1.0
 40
1.0
 40
1.0
 10
-775.9406061101302
 20
512.35913202573
 30
0.0
 10
-775.8189109621314
 20
512.3849614887294
 30
0.0
 10
-775.4641679541349
 20
512.4059550887295
 30
0.0
 10
-774.785769303475
 20
512.4358565783959
 30
0.0
 10
-773.8158726271514
 20
512.4478981607289
 30
0.0
 10
-772.5892557291635
 20
512.448949173729
 30
0.0
 10
-771.1451689958447
 20
512.4328172997293
 30
0.0
 10
-768.9287580292003
 20
512.3873451513964
 30
0.0
 10
-767.1994270235509
 20
512.3282508350635
 30
0.0
 10
-766.014217555896
 20
512.2770817883974
 30
0.0
  0
SPLINE
  5
5CD5
330
24C
100
AcDbEntity
  8
0
  6
Continuous
 62
     7
100
AcDbSpline
210
0.0
220
0.0
230
1.0
 70
     8
 71
     3
 72
    11
 73
     7
 74
     0
 42
0.0000000001
 43
0.0000000001
 40
0.0
 40
0.0
 40
0.0
 40
0.0
 40
0.1876440675
 40
0.4080258281000001
 40
0.6808433341
 40
1.0
 40
1.0
 40
1.0
 40
1.0
 10
-769.925874755857
 20
518.1213042846725
 30
0.0
 10
-769.4460410168617
 20
518.1147340846727
 30
0.0
 10
-768.3957200965388
 20
517.7934791393426
 30
0.0
 10
-767.1262766895515
 20
516.5312146636884
 30
0.0
 10
-766.2405568978938
 20
514.6156147507071
 30
0.0
 10
-766.0216754965627
 20
513.093263132056
 30
0.0
 10
-766.0145705085626
 20
512.2770865747306
 30
0.0
  0
SPLINE
  5
5CD6
330
24C
100
AcDbEntity
  8
0
  6
Continuous
 62
     7
100
AcDbSpline
210
0.0
220
0.0
230
1.0
 70
     8
 71
     3
 72
    17
 73
    13
 74
     0
 42
0.0000000001
 43
0.0000000001
 40
0.0
 40
0.0
 40
0.0
 40
0.0
 40
0.1250000477
 40
0.2500000928
 40
0.3750001338
 40
0.5000001680000001
 40
0.6250002002000001
 40
0.6875002209000001
 40
0.7500001173000001
 40
0.8124999843000001
 40
0.8749999797999999
 40
1.0
 40
1.0
 40
1.0
 40
1.0
 10
-375.8950207567973
 20
512.3617293197298
 30
0.0
 10
-392.1503360306348
 20
512.3617293837301
 30
0.0
 10
-424.660969526643
 20
512.3444677133971
 30
0.0
 10
-473.4268549614887
 20
512.261081034731
 30
0.0
 10
-522.1925864806677
 20
512.1113384437326
 30
0.0
 10
-570.95801581318
 20
511.8833029050684
 30
0.0
 10
-611.5954302694403
 20
511.6097955577379
 30
0.0
 10
-644.1050041107819
 20
511.35690839274
 30
0.0
 10
-668.4879456538713
 20
511.2457077150748
 30
0.0
 10
-692.8707970986274
 20
511.3858779427401
 30
0.0
 10
-725.3795140499691
 20
511.735656489403
 30
0.0
 10
-749.7603929227253
 20
512.057211552733
 30
0.0
 10
-766.014217555896
 20
512.2770817910645
 30
0.0
  0
SPLINE
  5
5CD7
330
24C
100
AcDbEntity
  8
0
  6
Continuous
 62
     7
100
AcDbSpline
210
0.0
220
0.0
230
1.0
 70
     8
 71
     3
 72
    11
 73
     7
 74
     0
 42
0.0000000001
 43
0.0000000001
 40
0.0
 40
0.0
 40
0.0
 40
0.0
 40
0.1874373331
 40
0.4076856596000001
 40
0.6805997636
 40
1.0
 40
1.0
 40
1.0
 40
1.0
 10
915.2462324462915
 20
518.1441233970054
 30
0.0
 10
914.7677498006293
 20
518.1311087710055
 30
0.0
 10
913.7241549686395
 20
517.7957551846757
 30
0.0
 10
912.4767106359852
 20
516.5159053830221
 30
0.0
 10
911.6224248929938
 20
514.5888753463745
 30
0.0
 10
911.4273930266625
 20
513.0647283967228
 30
0.0
 10
911.4325587326627
 20
512.2490908493978
 30
0.0
  0
SPLINE
  5
5CD8
330
24C
100
AcDbEntity
  8
0
  6
Continuous
 62
     7
100
AcDbSpline
210
0.0
220
0.0
230
1.0
 70
     8
 71
     3
 72
    16
 73
    12
 74
     0
 42
0.0000000001
 43
0.0000000001
 40
0.0
 40
0.0
 40
0.0
 40
0.0
 40
0.1249987177
 40
0.1874985356
 40
0.2499986172
 40
0.3749988446
 40
0.4999990777
 40
0.6249993077
 40
0.749999537
 40
0.8749997674999999
 40
1.0
 40
1.0
 40
1.0
 40
1.0
 10
911.4314944826626
 20
512.2490625243976
 30
0.0
 10
895.1818326701584
 20
511.8175712107354
 30
0.0
 10
870.8036945094022
 20
511.2265786344083
 30
0.0
 10
838.2919859190607
 20
511.1464201990752
 30
0.0
 10
805.7811753950522
 20
511.2779147884075
 30
0.0
 10
765.1429566927922
 20
511.5324273777377
 30
0.0
 10
716.3770515886133
 20
511.8186743280689
 30
0.0
 10
667.6108645204339
 20
512.0581496363997
 30
0.0
 10
618.8444069562554
 20
512.2338069357315
 30
0.0
 10
570.0777442497431
 20
512.3391767027296
 30
0.0
 10
537.5665659130679
 20
512.3617290390634
 30
0.0
 10
521.3109792342304
 20
512.3617293197298
 30
0.0
  0
SPLINE
  5
5CD9
330
24C
100
AcDbEntity
  8
0
  6
Continuous
 62
     7
100
AcDbSpline
210
0.0
220
0.0
230
1.0
 70
     8
 71
     3
 72
    21
 73
    17
 74
     0
 42
0.0000000001
 43
0.0000000001
 40
0.0
 40
0.0
 40
0.0
 40
0.0
 40
0.1948938361
 40
0.3822665852
 40
0.5549457754000001
 40
0.7063197185
 40
0.772168255
 40
0.8305936424
 40
0.8810361635999999
 40
0.9230134365999999
 40
0.9561266651
 40
0.9800679590999999
 40
0.9885325426999999
 40
0.9946422981000001
 40
0.9984120543999999
 40
1.0
 40
1.0
 40
1.0
 40
1.0
 10
911.4314944826626
 20
512.2490625247309
 30
0.0
 10
912.0804255923228
 20
512.2810444147307
 30
0.0
 10
913.353650187977
 20
512.3358000487305
 30
0.0
 10
915.2028027616252
 20
512.3938654160633
 30
0.0
 10
916.9074240652749
 20
512.4285672553956
 30
0.0
 10
918.2072288705949
 20
512.4403959807295
 30
0.0
 10
919.1261551355854
 20
512.4394243010624
 30
0.0
 10
919.7086155335798
 20
512.4344852787289
 30
0.0
 10
920.2113565539079
 20
512.4258331373957
 30
0.0
 10
920.6298776972372
 20
512.4140368233965
 30
0.0
 10
920.9592430802343
 20
512.3997918773966
 30
0.0
 10
921.1782397062318
 20
512.3852971017295
 30
0.0
 10
921.3046197335639
 20
512.3722064017297
 30
0.0
 10
921.3673921505636
 20
512.36275564273
 30
0.0
 10
921.4005396072295
 20
512.3551627100632
 30
0.0
 10
921.4219981525625
 20
512.3465575870632
 30
0.0
 10
921.4221829015626
 20
512.3412670680636
 30
0.0
  0
SPLINE
  5
5CDA
330
24C
100
AcDbEntity
  8
0
  6
Continuous
 62
     7
100
AcDbSpline
210
0.0
220
0.0
230
1.0
 70
     8
 71
     3
 72
     8
 73
     4
 74
     0
 42
0.0000000001
 43
0.0000000001
 40
0.0
 40
0.0
 40
0.0
 40
0.0
 40
1.0
 40
1.0
 40
1.0
 40
1.0
 10
-759.7907923299583
 20
475.509906655765
 30
0.0
 10
-760.4606362622848
 20
474.3562040834436
 30
0.0
 10
-761.9268560349369
 20
473.5159872474518
 30
0.0
 10
-763.2609176975902
 20
473.5159872474518
 30
0.0
  0
LINE
  5
5CDB
330
24C
100
AcDbEntity
  8
0
  6
Continuous
 62
     7
100
AcDbLine
 10
-765.2981073792366
 20
469.5086855631585
 30
0.0
 11
-769.3736201468625
 21
469.5093188131586
 31
0.0
  0
LINE
  5
5CDC
330
24C
100
AcDbEntity
  8
0
  6
Continuous
 62
     7
100
AcDbLine
 10
-769.3736201468625
 20
469.5093188131586
 30
0.0
 11
-771.1732834731779
 21
469.5100767391586
 31
0.0
  0
LINE
  5
5CDD
330
24C
100
AcDbEntity
  8
0
  6
Continuous
 62
     7
100
AcDbLine
 10
-771.1732834731779
 20
469.5100767391586
 30
0.0
 11
-772.725548459829
 21
469.5110970031582
 31
0.0
  0
LINE
  5
5CDE
330
24C
100
AcDbEntity
  8
0
  6
Continuous
 62
     7
100
AcDbLine
 10
-772.725548459829
 20
469.5110970031582
 30
0.0
 11
-775.2942875941366
 21
469.5159829901581
 31
0.0
  0
SPLINE
  5
5CDF
330
24C
100
AcDbEntity
  8
0
  6
Continuous
 62
     7
100
AcDbSpline
210
0.0
220
0.0
230
1.0
 70
     8
 71
     3
 72
    10
 73
     6
 74
     0
 42
0.0000000001
 43
0.0000000001
 40
0.0
 40
0.0
 40
0.0
 40
0.0
 40
0.0933993598
 40
0.2923535139
 40
1.0
 40
1.0
 40
1.0
 40
1.0
 10
-775.2942876821366
 20
4.515588725475026
 30
0.0
 10
-775.29445462947
 20
4.375024761476652
 30
0.0
 10
-774.8307030751411
 20
4.084869952145709
 30
0.0
 10
-773.4728586001548
 20
3.735200488483314
 30
0.0
 10
-772.0536682395022
 20
3.553803819818313
 30
0.0
 10
-770.9928786768462
 20
3.459275454152248
 30
0.0
  0
LINE
  5
5CE0
330
24C
100
AcDbEntity
  8
0
  6
Continuous
 62
     7
100
AcDbLine
 10
926.7057118325098
 20
469.5159872474914
 30
0.0
 11
920.782063921569
 21
469.5093178451584
 31
0.0
  0
LINE
  5
5CE1
330
24C
100
AcDbEntity
  8
0
  6
Continuous
 62
     7
100
AcDbLine
 10
920.782063921569
 20
469.5093178451584
 30
0.0
 11
918.7894260099225
 21
469.5088464508253
 31
0.0
  0
LINE
  5
5CE2
330
24C
100
AcDbEntity
  8
0
  6
Continuous
 62
     7
100
AcDbLine
 10
918.7894260099225
 20
469.5088464508253
 30
0.0
 11
917.755506587266
 21
469.5087268131583
 31
0.0
  0
LINE
  5
5CE3
330
24C
100
AcDbEntity
  8
0
  6
Continuous
 62
     7
100
AcDbLine
 10
917.755506587266
 20
469.5087268131583
 30
0.0
 11
916.7095505519432
 21
469.5086855598256
 31
0.0
  0
SPLINE
  5
5CE4
330
24C
100
AcDbEntity
  8
0
  6
Continuous
 62
     7
100
AcDbSpline
210
0.0
220
0.0
230
1.0
 70
     8
 71
     3
 72
     8
 73
     4
 74
     0
 42
0.0000000001
 43
0.0000000001
 40
0.0
 40
0.0
 40
0.0
 40
0.0
 40
1.0
 40
1.0
 40
1.0
 40
1.0
 10
918.7861667039223
 20
3.258836734154556
 30
0.0
 10
919.9931059572433
 20
3.291597914821068
 30
0.0
 10
921.2001534848981
 20
3.352003789153513
 30
0.0
 10
922.4027771368863
 20
3.459111249152556
 30
0.0
  0
SPLINE
  5
5CE5
330
24C
100
AcDbEntity
  8
0
  6
Continuous
 62
     7
100
AcDbSpline
210
0.0
220
0.0
230
1.0
 70
     8
 71
     3
 72
     8
 73
     4
 74
     0
 42
0.0000000001
 43
0.0000000001
 40
0.0
 40
0.0
 40
0.0
 40
0.0
 40
1.0
 40
1.0
 40
1.0
 40
1.0
 10
922.4027771368863
 20
3.459111249152556
 30
0.0
 10
922.9801823118803
 20
3.510535816818446
 30
0.0
 10
923.5569305452077
 20
3.572840302817894
 30
0.0
 10
924.1308272465353
 20
3.654594806150726
 30
0.0
  0
SPLINE
  5
5CE6
330
24C
100
AcDbEntity
  8
0
  6
Continuous
 62
     7
100
AcDbSpline
210
0.0
220
0.0
230
1.0
 70
     8
 71
     3
 72
     9
 73
     5
 74
     0
 42
0.0000000001
 43
0.0000000001
 40
0.0
 40
0.0
 40
0.0
 40
0.0
 40
0.706702415
 40
1.0
 40
1.0
 40
1.0
 40
1.0
 10
924.1308272465353
 20
3.654594806150726
 30
0.0
 10
924.7746570215293
 20
3.746311631482967
 30
0.0
 10
925.5007436221887
 20
3.887638091814551
 30
0.0
 10
926.7063383448435
 20
4.24608634214428
 30
0.0
 10
926.7057118325098
 20
4.515987252141712
 30
0.0
  0
ENDSEC
  0
SECTION
  2
OBJECTS
  0
DICTIONARY
  5
C
330
0
100
AcDbDictionary
281
     1
  3
ACAD_COLOR
350
6747
  3
ACAD_GROUP
350
D
  3
ACAD_LAYOUT
350
1A
  3
ACAD_MATERIAL
350
671A
  3
ACAD_MLEADERSTYLE
350
675A
  3
ACAD_MLINESTYLE
350
17
  3
ACAD_PLOTSETTINGS
350
19
  3
ACAD_PLOTSTYLENAME
350
E
  3
ACAD_SCALELIST
350
6748
  3
ACAD_TABLESTYLE
350
6713
  3
ACAD_VISUALSTYLE
350
6733
  3
ACDB_RECOMPOSE_DATA
350
6760
  3
AcDbVariableDictionary
350
6788
  3
AcmDictionary
350
67EC
  3
AMG
350
6793
  3
AMGSNAPSETTINGS
350
682D
  0
DICTIONARY
  5
6747
102
{ACAD_REACTORS
330
C
102
}
330
C
100
AcDbDictionary
281
     1
  0
DICTIONARY
  5
D
102
{ACAD_REACTORS
330
C
102
}
330
C
100
AcDbDictionary
281
     1
  0
DICTIONARY
  5
1A
102
{ACAD_REACTORS
330
C
102
}
330
C
100
AcDbDictionary
281
     1
  3
Layout1
350
6715
  3
Model
350
6714
  0
DICTIONARY
  5
671A
102
{ACAD_REACTORS
330
C
102
}
330
C
100
AcDbDictionary
281
     1
  3
ByBlock
350
6723
  3
ByLayer
350
671B
  3
Global
350
672B
  0
DICTIONARY
  5
675A
102
{ACAD_REACTORS
330
C
102
}
330
C
100
AcDbDictionary
281
     1
  3
Standard
350
675B
  0
DICTIONARY
  5
17
102
{ACAD_REACTORS
330
C
102
}
330
C
100
AcDbDictionary
281
     1
  3
Standard
350
18
  0
DICTIONARY
  5
19
102
{ACAD_REACTORS
330
C
102
}
330
C
100
AcDbDictionary
281
     1
  0
ACDBDICTIONARYWDFLT
  5
E
102
{ACAD_REACTORS
330
C
102
}
330
C
100
AcDbDictionary
281
     1
  3
Normal
350
F
100
AcDbDictionaryWithDefault
340
F
  0
DICTIONARY
  5
6748
102
{ACAD_REACTORS
330
C
102
}
330
C
100
AcDbDictionary
281
     1
  3
A0
350
6749
  3
A1
350
674A
  3
A2
350
674B
  3
A3
350
674C
  3
A4
350
674D
  3
A5
350
674E
  3
A6
350
674F
  3
A7
350
6750
  3
A8
350
6751
  3
A9
350
6752
  3
B0
350
6753
  3
B1
350
6754
  3
B2
350
6755
  3
B3
350
6756
  3
B4
350
6757
  3
B5
350
6758
  3
B6
350
6759
  0
DICTIONARY
  5
6713
330
C
100
AcDbDictionary
281
     1
  3
Standard
350
6716
  3
Standard1
350
6717
  0
DICTIONARY
  5
6733
102
{ACAD_REACTORS
330
C
102
}
330
C
100
AcDbDictionary
281
     1
  3
2dWireframe
350
6739
  3
3D Hidden
350
673B
  3
3dWireframe
350
673A
  3
Basic
350
6738
  3
Brighten
350
673F
  3
ColorChange
350
6743
  3
Conceptual
350
673C
  3
Dim
350
673E
  3
EdgeColorOff
350
6746
  3
Facepattern
350
6742
  3
Flat
350
6734
  3
FlatWithEdges
350
6735
  3
Gouraud
350
6736
  3
GouraudWithEdges
350
6737
  3
JitterOff
350
6744
  3
Linepattern
350
6741
  3
OverhangOff
350
6745
  3
Realistic
350
673D
  3
Thicken
350
6740
  0
XRECORD
  5
6760
102
{ACAD_REACTORS
330
C
102
}
330
C
100
AcDbXrecord
280
     1
 90
        1
330
6716
330
6717
  0
DICTIONARY
  5
6788
102
{ACAD_REACTORS
330
C
102
}
330
C
100
AcDbDictionary
281
     1
  3
CANNOSCALE
350
678B
  3
CMLEADERSTYLE
350
678A
  3
CTABLESTYLE
350
6789
  3
XCLIPFRAME
350
678C
  0
DICTIONARY
  5
67EC
102
{ACAD_REACTORS
330
C
102
}
330
C
100
AcDbDictionary
281
     1
  3
AcmStdDictionary
350
67F9
  0
DICTIONARY
  5
6793
102
{ACAD_REACTORS
330
C
102
}
330
C
100
AcDbDictionary
281
     1
  0
DICTIONARY
  5
682D
102
{ACAD_REACTORS
330
C
102
}
330
C
100
AcDbDictionary
281
     1
  0
LAYOUT
  5
6715
102
{ACAD_REACTORS
330
1A
102
}
330
1A
100
AcDbPlotSettings
  1

  2
none_device
  4
ANSI_E_(44.00_x_34.00_Inches)
  6

 40
0.0
 41
0.0
 42
0.0
 43
0.0
 44
1117.6
 45
863.6000000000001
 46
0.0
 47
0.0
 48
0.0
 49
0.0
140
0.0
141
0.0
142
1.0
143
1.0
 70
     0
 72
     1
 73
     0
 74
     0
  7

 75
     0
147
1.0
 76
     0
 77
     2
 78
   300
148
0.0
149
0.0
100
AcDbLayout
  1
Layout1
 70
     1
 71
     1
 10
0.0
 20
0.0
 11
12.0
 21
9.0
 12
0.0
 22
0.0
 32
0.0
 14
1.000000000000000E+20
 24
1.000000000000000E+20
 34
1.000000000000000E+20
 15
-1.000000000000000E+20
 25
-1.000000000000000E+20
 35
-1.000000000000000E+20
146
0.0
 13
0.0
 23
0.0
 33
0.0
 16
1.0
 26
0.0
 36
0.0
 17
0.0
 27
1.0
 37
0.0
 76
     0
330
24D
  0
LAYOUT
  5
6714
102
{ACAD_REACTORS
330
1A
102
}
330
1A
100
AcDbPlotSettings
  1

  2
none_device
  4
ANSI_E_(44.00_x_34.00_Inches)
  6

 40
0.0
 41
0.0
 42
0.0
 43
0.0
 44
1117.6
 45
863.6000000000001
 46
0.0
 47
0.0
 48
0.0
 49
0.0
140
0.0
141
0.0
142
1.0
143
1.0
 70
  1024
 72
     1
 73
     0
 74
     0
  7

 75
     0
147
1.0
 76
     0
 77
     2
 78
   300
148
0.0
149
0.0
100
AcDbLayout
  1
Model
 70
     0
 71
     0
 10
0.0
 20
0.0
 11
1117.6
 21
863.6000000000001
 12
0.0
 22
0.0
 32
0.0
 14
0.0
 24
0.0
 34
0.0
 15
0.0
 25
0.0
 35
0.0
146
0.0
 13
0.0
 23
0.0
 33
0.0
 16
1.0
 26
0.0
 36
0.0
 17
0.0
 27
1.0
 37
0.0
 76
     0
330
24C
331
1F4
  0
MATERIAL
  5
6723
102
{ACAD_XDICTIONARY
360
6724
102
}
102
{ACAD_REACTORS
330
671A
102
}
330
671A
100
AcDbMaterial
  1
ByBlock
 72
     0
 43
0.0008202099737533
 43
0.0
 43
0.0
 43
0.0
 43
0.0
 43
0.0008202099737533
 43
0.0
 43
0.0
 43
0.0
 43
0.0
 43
1.0
 43
0.0
 43
0.0
 43
0.0
 43
0.0
 43
1.0
 77
     0
 47
0.0008202099737533
 47
0.0
 47
0.0
 47
0.0
 47
0.0
 47
0.0008202099737533
 47
0.0
 47
0.0
 47
0.0
 47
0.0
 47
1.0
 47
0.0
 47
0.0
 47
0.0
 47
0.0
 47
1.0
171
     0
 49
0.0008202099737533
 49
0.0
 49
0.0
 49
0.0
 49
0.0
 49
0.0008202099737533
 49
0.0
 49
0.0
 49
0.0
 49
0.0
 49
1.0
 49
0.0
 49
0.0
 49
0.0
 49
0.0
 49
1.0
175
     0
142
0.0008202099737533
142
0.0
142
0.0
142
0.0
142
0.0
142
0.0008202099737533
142
0.0
142
0.0
142
0.0
142
0.0
142
1.0
142
0.0
142
0.0
142
0.0
142
0.0
142
1.0
179
     0
144
0.0008202099737533
144
0.0
144
0.0
144
0.0
144
0.0
144
0.0008202099737533
144
0.0
144
0.0
144
0.0
144
0.0
144
1.0
144
0.0
144
0.0
144
0.0
144
0.0
144
1.0
147
0.0008202099737533
147
0.0
147
0.0
147
0.0
147
0.0
147
0.0008202099737533
147
0.0
147
0.0
147
0.0
147
0.0
147
1.0
147
0.0
147
0.0
147
0.0
147
0.0
147
1.0
  0
MATERIAL
  5
671B
102
{ACAD_XDICTIONARY
360
671C
102
}
102
{ACAD_REACTORS
330
671A
102
}
330
671A
100
AcDbMaterial
  1
ByLayer
 72
     0
 43
0.0008202099737533
 43
0.0
 43
0.0
 43
0.0
 43
0.0
 43
0.0008202099737533
 43
0.0
 43
0.0
 43
0.0
 43
0.0
 43
1.0
 43
0.0
 43
0.0
 43
0.0
 43
0.0
 43
1.0
 77
     0
 47
0.0008202099737533
 47
0.0
 47
0.0
 47
0.0
 47
0.0
 47
0.0008202099737533
 47
0.0
 47
0.0
 47
0.0
 47
0.0
 47
1.0
 47
0.0
 47
0.0
 47
0.0
 47
0.0
 47
1.0
171
     0
 49
0.0008202099737533
 49
0.0
 49
0.0
 49
0.0
 49
0.0
 49
0.0008202099737533
 49
0.0
 49
0.0
 49
0.0
 49
0.0
 49
1.0
 49
0.0
 49
0.0
 49
0.0
 49
0.0
 49
1.0
175
     0
142
0.0008202099737533
142
0.0
142
0.0
142
0.0
142
0.0
142
0.0008202099737533
142
0.0
142
0.0
142
0.0
142
0.0
142
1.0
142
0.0
142
0.0
142
0.0
142
0.0
142
1.0
179
     0
144
0.0008202099737533
144
0.0
144
0.0
144
0.0
144
0.0
144
0.0008202099737533
144
0.0
144
0.0
144
0.0
144
0.0
144
1.0
144
0.0
144
0.0
144
0.0
144
0.0
144
1.0
147
0.0008202099737533
147
0.0
147
0.0
147
0.0
147
0.0
147
0.0008202099737533
147
0.0
147
0.0
147
0.0
147
0.0
147
1.0
147
0.0
147
0.0
147
0.0
147
0.0
147
1.0
  0
MATERIAL
  5
672B
102
{ACAD_XDICTIONARY
360
672C
102
}
102
{ACAD_REACTORS
330
671A
102
}
330
671A
100
AcDbMaterial
  1
Global
 72
     0
 43
0.0008202099737533
 43
0.0
 43
0.0
 43
0.0
 43
0.0
 43
0.0008202099737533
 43
0.0
 43
0.0
 43
0.0
 43
0.0
 43
1.0
 43
0.0
 43
0.0
 43
0.0
 43
0.0
 43
1.0
 77
     0
 47
0.0008202099737533
 47
0.0
 47
0.0
 47
0.0
 47
0.0
 47
0.0008202099737533
 47
0.0
 47
0.0
 47
0.0
 47
0.0
 47
1.0
 47
0.0
 47
0.0
 47
0.0
 47
0.0
 47
1.0
171
     0
 49
0.0008202099737533
 49
0.0
 49
0.0
 49
0.0
 49
0.0
 49
0.0008202099737533
 49
0.0
 49
0.0
 49
0.0
 49
0.0
 49
1.0
 49
0.0
 49
0.0
 49
0.0
 49
0.0
 49
1.0
175
     0
142
0.0008202099737533
142
0.0
142
0.0
142
0.0
142
0.0
142
0.0008202099737533
142
0.0
142
0.0
142
0.0
142
0.0
142
1.0
142
0.0
142
0.0
142
0.0
142
0.0
142
1.0
179
     0
144
0.0008202099737533
144
0.0
144
0.0
144
0.0
144
0.0
144
0.0008202099737533
144
0.0
144
0.0
144
0.0
144
0.0
144
1.0
144
0.0
144
0.0
144
0.0
144
0.0
144
1.0
147
0.0008202099737533
147
0.0
147
0.0
147
0.0
147
0.0
147
0.0008202099737533
147
0.0
147
0.0
147
0.0
147
0.0
147
1.0
147
0.0
147
0.0
147
0.0
147
0.0
147
1.0
  0
MLEADERSTYLE
  5
675B
102
{ACAD_REACTORS
330
675A
102
}
330
675A
100
AcDbMLeaderStyle
170
     2
171
     1
172
     0
 90
        2
 40
0.0
 41
0.0
173
     1
 91
-1056964608
340
14
 92
       -2
290
     1
 42
2.0
291
     1
 43
0.36
  3
Standard
 44
4.0
300

342
11
174
     1
178
     6
175
     1
176
     0
 93
-1056964608
 45
4.0
292
     0
297
     0
 46
4.0
 94
-1056964608
 47
1.0
 49
1.0
140
1.0
293
     1
141
0.0
294
     1
177
     0
142
1.0
295
     0
296
     0
143
0.125
1001
ACAD_MLEADERVER
1070
     2
  0
MLINESTYLE
  5
18
102
{ACAD_REACTORS
330
17
102
}
330
17
100
AcDbMlineStyle
  2
STANDARD
 70
     0
  3

 62
   256
 51
90.0
 52
90.0
 71
     2
 49
0.5
 62
   256
  6
BYLAYER
 49
-0.5
 62
   256
  6
BYLAYER
  0
ACDBPLACEHOLDER
  5
F
102
{ACAD_REACTORS
330
E
102
}
330
E
  0
SCALE
  5
6749
102
{ACAD_REACTORS
330
6748
102
}
330
6748
100
AcDbScale
 70
     0
300
1:1
140
1.0
141
1.0
290
     1
  0
SCALE
  5
674A
102
{ACAD_REACTORS
330
6748
102
}
330
6748
100
AcDbScale
 70
     0
300
1:2
140
1.0
141
2.0
290
     0
  0
SCALE
  5
674B
102
{ACAD_REACTORS
330
6748
102
}
330
6748
100
AcDbScale
 70
     0
300
1:4
140
1.0
141
4.0
290
     0
  0
SCALE
  5
674C
102
{ACAD_REACTORS
330
6748
102
}
330
6748
100
AcDbScale
 70
     0
300
1:5
140
1.0
141
5.0
290
     0
  0
SCALE
  5
674D
102
{ACAD_REACTORS
330
6748
102
}
330
6748
100
AcDbScale
 70
     0
300
1:8
140
1.0
141
8.0
290
     0
  0
SCALE
  5
674E
102
{ACAD_REACTORS
330
6748
102
}
330
6748
100
AcDbScale
 70
     0
300
1:10
140
1.0
141
10.0
290
     0
  0
SCALE
  5
674F
102
{ACAD_REACTORS
330
6748
102
}
330
6748
100
AcDbScale
 70
     0
300
1:16
140
1.0
141
16.0
290
     0
  0
SCALE
  5
6750
102
{ACAD_REACTORS
330
6748
102
}
330
6748
100
AcDbScale
 70
     0
300
1:20
140
1.0
141
20.0
290
     0
  0
SCALE
  5
6751
102
{ACAD_REACTORS
330
6748
102
}
330
6748
100
AcDbScale
 70
     0
300
1:30
140
1.0
141
30.0
290
     0
  0
SCALE
  5
6752
102
{ACAD_REACTORS
330
6748
102
}
330
6748
100
AcDbScale
 70
     0
300
1:40
140
1.0
141
40.0
290
     0
  0
SCALE
  5
6753
102
{ACAD_REACTORS
330
6748
102
}
330
6748
100
AcDbScale
 70
     0
300
1:50
140
1.0
141
50.0
290
     0
  0
SCALE
  5
6754
102
{ACAD_REACTORS
330
6748
102
}
330
6748
100
AcDbScale
 70
     0
300
1:100
140
1.0
141
100.0
290
     0
  0
SCALE
  5
6755
102
{ACAD_REACTORS
330
6748
102
}
330
6748
100
AcDbScale
 70
     0
300
2:1
140
2.0
141
1.0
290
     0
  0
SCALE
  5
6756
102
{ACAD_REACTORS
330
6748
102
}
330
6748
100
AcDbScale
 70
     0
300
4:1
140
4.0
141
1.0
290
     0
  0
SCALE
  5
6757
102
{ACAD_REACTORS
330
6748
102
}
330
6748
100
AcDbScale
 70
     0
300
8:1
140
8.0
141
1.0
290
     0
  0
SCALE
  5
6758
102
{ACAD_REACTORS
330
6748
102
}
330
6748
100
AcDbScale
 70
     0
300
10:1
140
10.0
141
1.0
290
     0
  0
SCALE
  5
6759
102
{ACAD_REACTORS
330
6748
102
}
330
6748
100
AcDbScale
 70
     0
300
100:1
140
100.0
141
1.0
290
     0
  0
TABLESTYLE
  5
6716
102
{ACAD_XDICTIONARY
360
675C
102
}
102
{ACAD_REACTORS
330
6713
102
}
330
6713
100
AcDbTableStyle
  3
Standard
 70
     0
 71
     0
 40
0.06
 41
0.06
280
     1
281
     1
  7
STANDARD
140
0.18
170
     1
 62
     0
 63
     7
283
     0
 90
      512
 91
        0
  1

274
    -2
284
     1
 64
     0
275
    -2
285
     1
 65
     0
276
    -2
286
     1
 66
     0
277
    -2
287
     1
 67
     0
278
    -2
288
     1
 68
     0
279
    -2
289
     1
 69
     0
  7
STANDARD
140
0.18
170
     1
 62
     0
 63
     7
283
     0
 90
      512
 91
        0
  1

274
    -2
284
     1
 64
     0
275
    -2
285
     1
 65
     0
276
    -2
286
     1
 66
     0
277
    -2
287
     1
 67
     0
278
    -2
288
     1
 68
     0
279
    -2
289
     1
 69
     0
  7
STANDARD
140
0.18
170
     1
 62
     0
 63
     7
283
     0
 90
      512
 91
        0
  1

274
    -2
284
     1
 64
     0
275
    -2
285
     1
 65
     0
276
    -2
286
     1
 66
     0
277
    -2
287
     1
 67
     0
278
    -2
288
     1
 68
     0
279
    -2
289
     1
 69
     0
  0
TABLESTYLE
  5
6717
102
{ACAD_XDICTIONARY
360
675E
102
}
102
{ACAD_REACTORS
330
6713
102
}
330
6713
100
AcDbTableStyle
  3
Standard1
 70
     1
 71
     0
 40
0.06
 41
0.06
280
     1
281
     1
  7
STANDARD
140
0.18
170
     1
 62
     0
 63
     7
283
     0
 90
      512
 91
        0
  1

274
    -2
284
     1
 64
     0
275
    -2
285
     1
 65
     0
276
    -2
286
     1
 66
     0
277
    -2
287
     1
 67
     0
278
    -2
288
     1
 68
     0
279
    -2
289
     1
 69
     0
  7
STANDARD
140
0.18
170
     1
 62
     0
 63
     7
283
     0
 90
      512
 91
        0
  1

274
    -2
284
     1
 64
     0
275
    -2
285
     1
 65
     0
276
    -2
286
     1
 66
     0
277
    -2
287
     1
 67
     0
278
    -2
288
     1
 68
     0
279
    -2
289
     1
 69
     0
  7
STANDARD
140
0.18
170
     1
 62
     0
 63
     7
283
     0
 90
      512
 91
        0
  1

274
    -2
284
     1
 64
     0
275
    -2
285
     1
 65
     0
276
    -2
286
     1
 66
     0
277
    -2
287
     1
 67
     0
278
    -2
288
     1
 68
     0
279
    -2
289
     1
 69
     0
  0
VISUALSTYLE
  5
6739
102
{ACAD_XDICTIONARY
360
676B
102
}
102
{ACAD_REACTORS
330
6733
102
}
330
6733
100
AcDbVisualStyle
  2
2dWireframe
 70
     4
 71
     0
 72
     2
 73
     0
 90
        0
 40
-0.6
 41
-30.0
 62
     5
 63
     7
421
 16777215
 74
     1
 91
        4
 64
     7
 65
   257
 75
     1
175
     1
 42
1.0
 92
        0
 66
   257
 43
1.0
 76
     1
 77
     6
 78
     2
 67
     7
 79
     5
170
     0
171
     0
290
     0
174
     0
 93
        1
 44
0.0
173
     0
291
     0
 45
0.0
  0
VISUALSTYLE
  5
673B
102
{ACAD_XDICTIONARY
360
676F
102
}
102
{ACAD_REACTORS
330
6733
102
}
330
6733
100
AcDbVisualStyle
  2
3D Hidden
 70
     6
 71
     1
 72
     2
 73
     2
 90
        0
 40
-0.6
 41
-30.0
 62
     5
 63
     7
421
 16777215
 74
     2
 91
        2
 64
     7
 65
   257
 75
     2
175
     1
 42
179.0
 92
        0
 66
   257
 43
1.0
 76
     1
 77
     6
 78
     2
 67
     7
 79
     3
170
     0
171
     0
290
     0
174
     0
 93
        1
 44
0.0
173
     0
291
     0
 45
0.0
  0
VISUALSTYLE
  5
673A
102
{ACAD_XDICTIONARY
360
676D
102
}
102
{ACAD_REACTORS
330
6733
102
}
330
6733
100
AcDbVisualStyle
  2
3dWireframe
 70
     5
 71
     0
 72
     2
 73
     0
 90
        0
 40
-0.6
 41
-30.0
 62
     5
 63
     7
421
 16777215
 74
     1
 91
        4
 64
     7
 65
   257
 75
     1
175
     1
 42
1.0
 92
        0
 66
   257
 43
1.0
 76
     1
 77
     6
 78
     2
 67
     7
 79
     5
170
     0
171
     0
290
     0
174
     0
 93
        1
 44
0.0
173
     0
291
     0
 45
0.0
  0
VISUALSTYLE
  5
6738
102
{ACAD_XDICTIONARY
360
6769
102
}
102
{ACAD_REACTORS
330
6733
102
}
330
6733
100
AcDbVisualStyle
  2
Basic
 70
     7
 71
     1
 72
     0
 73
     1
 90
        0
 40
-0.6
 41
-30.0
 62
     5
 63
     7
421
 16777215
 74
     0
 91
        4
 64
     7
 65
   257
 75
     1
175
     1
 42
1.0
 92
        8
 66
     7
 43
1.0
 76
     1
 77
     6
 78
     2
 67
     7
 79
     5
170
     0
171
     0
290
     0
174
     0
 93
        1
 44
0.0
173
     0
291
     1
 45
0.0
  0
VISUALSTYLE
  5
673F
102
{ACAD_XDICTIONARY
360
6777
102
}
102
{ACAD_REACTORS
330
6733
102
}
330
6733
100
AcDbVisualStyle
  2
Brighten
 70
    12
 71
     2
 72
     2
 73
     0
 90
        0
 40
-0.6
 41
-30.0
 62
     5
 63
     7
421
 16777215
 74
     1
 91
        4
 64
     7
 65
   257
 75
     1
175
     1
 42
1.0
 92
        8
 66
     7
 43
1.0
 76
     1
 77
     6
 78
     2
 67
     7
 79
     5
170
     0
171
     0
290
     0
174
     0
 93
        1
 44
50.0
173
     0
291
     1
 45
0.0
  0
VISUALSTYLE
  5
6743
102
{ACAD_XDICTIONARY
360
677F
102
}
102
{ACAD_REACTORS
330
6733
102
}
330
6733
100
AcDbVisualStyle
  2
ColorChange
 70
    16
 71
     2
 72
     2
 73
     3
 90
        0
 40
-0.6
 41
-30.0
 62
     5
 63
     8
421
  8421504
 74
     1
 91
        4
 64
     7
 65
   257
 75
     1
175
     1
 42
1.0
 92
        8
 66
     8
424
  8421504
 43
1.0
 76
     1
 77
     6
 78
     2
 67
     7
 79
     5
170
     0
171
     0
290
     0
174
     0
 93
        1
 44
0.0
173
     0
291
     1
 45
0.0
  0
VISUALSTYLE
  5
673C
102
{ACAD_XDICTIONARY
360
6771
102
}
102
{ACAD_REACTORS
330
6733
102
}
330
6733
100
AcDbVisualStyle
  2
Conceptual
 70
     9
 71
     3
 72
     2
 73
     0
 90
        0
 40
-0.6
 41
-30.0
 62
     5
 63
     7
421
 16777215
 74
     2
 91
        2
 64
     7
 65
   257
 75
     1
175
     1
 42
179.0
 92
        8
 66
     7
 43
1.0
 76
     1
 77
     6
 78
     2
 67
     7
 79
     3
170
     0
171
     0
290
     0
174
     0
 93
        1
 44
0.0
173
     0
291
     0
 45
0.0
  0
VISUALSTYLE
  5
673E
102
{ACAD_XDICTIONARY
360
6775
102
}
102
{ACAD_REACTORS
330
6733
102
}
330
6733
100
AcDbVisualStyle
  2
Dim
 70
    11
 71
     2
 72
     2
 73
     0
 90
        0
 40
-0.6
 41
-30.0
 62
     5
 63
     7
421
 16777215
 74
     1
 91
        4
 64
     7
 65
   257
 75
     1
175
     1
 42
1.0
 92
        8
 66
     7
 43
1.0
 76
     1
 77
     6
 78
     2
 67
     7
 79
     5
170
     0
171
     0
290
     0
174
     0
 93
        1
 44
-50.0
173
     0
291
     1
 45
0.0
  0
VISUALSTYLE
  5
6746
102
{ACAD_XDICTIONARY
360
6785
102
}
102
{ACAD_REACTORS
330
6733
102
}
330
6733
100
AcDbVisualStyle
  2
EdgeColorOff
 70
    22
 71
     2
 72
     2
 73
     0
 90
        0
 40
-0.6
 41
-30.0
 62
     5
 63
     7
421
 16777215
 74
     1
 91
        4
 64
     7
 65
   257
 75
     1
175
     1
 42
1.0
 92
        8
 66
     7
 43
1.0
 76
     1
 77
     6
 78
     2
 67
     7
 79
     5
170
     0
171
     0
290
     0
174
     0
 93
        1
 44
0.0
173
     0
291
     1
 45
0.0
  0
VISUALSTYLE
  5
6742
102
{ACAD_XDICTIONARY
360
677D
102
}
102
{ACAD_REACTORS
330
6733
102
}
330
6733
100
AcDbVisualStyle
  2
Facepattern
 70
    15
 71
     2
 72
     2
 73
     0
 90
        0
 40
-0.6
 41
-30.0
 62
     5
 63
     7
421
 16777215
 74
     1
 91
        4
 64
     7
 65
   257
 75
     1
175
     1
 42
1.0
 92
        8
 66
     7
 43
1.0
 76
     1
 77
     6
 78
     2
 67
     7
 79
     5
170
     0
171
     0
290
     0
174
     0
 93
        1
 44
0.0
173
     0
291
     1
 45
0.0
  0
VISUALSTYLE
  5
6734
102
{ACAD_XDICTIONARY
360
6761
102
}
102
{ACAD_REACTORS
330
6733
102
}
330
6733
100
AcDbVisualStyle
  2
Flat
 70
     0
 71
     2
 72
     1
 73
     1
 90
        2
 40
-0.6
 41
30.0
 62
     5
 63
     7
421
 16777215
 74
     0
 91
        4
 64
     7
 65
   257
 75
     1
175
     1
 42
1.0
 92
        8
 66
     7
 43
1.0
 76
     1
 77
     6
 78
     2
 67
     7
 79
     5
170
     0
171
     0
290
     0
174
     0
 93
       13
 44
0.0
173
     0
291
     1
 45
0.0
  0
VISUALSTYLE
  5
6735
102
{ACAD_XDICTIONARY
360
6763
102
}
102
{ACAD_REACTORS
330
6733
102
}
330
6733
100
AcDbVisualStyle
  2
FlatWithEdges
 70
     1
 71
     2
 72
     1
 73
     1
 90
        2
 40
-0.6
 41
30.0
 62
     5
 63
     7
421
 16777215
 74
     1
 91
        4
 64
     7
 65
   257
 75
     1
175
     1
 42
1.0
 92
        0
 66
   257
 43
1.0
 76
     1
 77
     6
 78
     2
 67
     7
 79
     5
170
     0
171
     0
290
     0
174
     0
 93
       13
 44
0.0
173
     0
291
     1
 45
0.0
  0
VISUALSTYLE
  5
6736
102
{ACAD_XDICTIONARY
360
6765
102
}
102
{ACAD_REACTORS
330
6733
102
}
330
6733
100
AcDbVisualStyle
  2
Gouraud
 70
     2
 71
     2
 72
     2
 73
     1
 90
        2
 40
-0.6
 41
30.0
 62
     5
 63
     7
421
 16777215
 74
     0
 91
        4
 64
     7
 65
   257
 75
     1
175
     1
 42
1.0
 92
        0
 66
     7
 43
1.0
 76
     1
 77
     6
 78
     2
 67
     7
 79
     5
170
     0
171
     0
290
     0
174
     0
 93
       13
 44
0.0
173
     0
291
     1
 45
0.0
  0
VISUALSTYLE
  5
6737
102
{ACAD_XDICTIONARY
360
6767
102
}
102
{ACAD_REACTORS
330
6733
102
}
330
6733
100
AcDbVisualStyle
  2
GouraudWithEdges
 70
     3
 71
     2
 72
     2
 73
     1
 90
        2
 40
-0.6
 41
30.0
 62
     5
 63
     7
421
 16777215
 74
     1
 91
        4
 64
     7
 65
   257
 75
     1
175
     1
 42
1.0
 92
        0
 66
   257
 43
1.0
 76
     1
 77
     6
 78
     2
 67
     7
 79
     5
170
     0
171
     0
290
     0
174
     0
 93
       13
 44
0.0
173
     0
291
     1
 45
0.0
  0
VISUALSTYLE
  5
6744
102
{ACAD_XDICTIONARY
360
6781
102
}
102
{ACAD_REACTORS
330
6733
102
}
330
6733
100
AcDbVisualStyle
  2
JitterOff
 70
    20
 71
     2
 72
     2
 73
     0
 90
        0
 40
-0.6
 41
-30.0
 62
     5
 63
     7
421
 16777215
 74
     1
 91
        4
 64
     7
 65
   257
 75
     1
175
     1
 42
1.0
 92
       10
 66
     7
 43
1.0
 76
     1
 77
     6
 78
     2
 67
     7
 79
     5
170
     0
171
     0
290
     0
174
     0
 93
        1
 44
0.0
173
     0
291
     1
 45
0.0
  0
VISUALSTYLE
  5
6741
102
{ACAD_XDICTIONARY
360
677B
102
}
102
{ACAD_REACTORS
330
6733
102
}
330
6733
100
AcDbVisualStyle
  2
Linepattern
 70
    14
 71
     2
 72
     2
 73
     0
 90
        0
 40
-0.6
 41
-30.0
 62
     5
 63
     7
421
 16777215
 74
     1
 91
        4
 64
     7
 65
   257
 75
     7
175
     7
 42
1.0
 92
        8
 66
     7
 43
1.0
 76
     1
 77
     6
 78
     2
 67
     7
 79
     5
170
     0
171
     0
290
     0
174
     0
 93
        1
 44
0.0
173
     0
291
     1
 45
0.0
  0
VISUALSTYLE
  5
6745
102
{ACAD_XDICTIONARY
360
6783
102
}
102
{ACAD_REACTORS
330
6733
102
}
330
6733
100
AcDbVisualStyle
  2
OverhangOff
 70
    21
 71
     2
 72
     2
 73
     0
 90
        0
 40
-0.6
 41
-30.0
 62
     5
 63
     7
421
 16777215
 74
     1
 91
        4
 64
     7
 65
   257
 75
     1
175
     1
 42
1.0
 92
        9
 66
     7
 43
1.0
 76
     1
 77
     6
 78
     2
 67
     7
 79
     5
170
     0
171
     0
290
     0
174
     0
 93
        1
 44
0.0
173
     0
291
     1
 45
0.0
  0
VISUALSTYLE
  5
673D
102
{ACAD_XDICTIONARY
360
6773
102
}
102
{ACAD_REACTORS
330
6733
102
}
330
6733
100
AcDbVisualStyle
  2
Realistic
 70
     8
 71
     2
 72
     2
 73
     0
 90
        0
 40
-0.6
 41
-30.0
 62
     5
 63
     7
421
 16777215
 74
     1
 91
        0
 64
     7
 65
   257
 75
     1
175
     1
 42
1.0
 92
        8
 66
     8
424
  7895160
 43
1.0
 76
     1
 77
     6
 78
     2
 67
     7
 79
     5
170
     0
171
     0
290
     0
174
     0
 93
       13
 44
0.0
173
     0
291
     0
 45
0.0
  0
VISUALSTYLE
  5
6740
102
{ACAD_XDICTIONARY
360
6779
102
}
102
{ACAD_REACTORS
330
6733
102
}
330
6733
100
AcDbVisualStyle
  2
Thicken
 70
    13
 71
     2
 72
     2
 73
     0
 90
        0
 40
-0.6
 41
-30.0
 62
     5
 63
     7
421
 16777215
 74
     1
 91
        4
 64
     7
 65
   257
 75
     1
175
     1
 42
1.0
 92
       12
 66
     7
 43
1.0
 76
     1
 77
     6
 78
     2
 67
     7
 79
     5
170
     0
171
     0
290
     0
174
     0
 93
        1
 44
0.0
173
     0
291
     1
 45
0.0
  0
DICTIONARYVAR
  5
678B
102
{ACAD_REACTORS
330
6788
102
}
330
6788
100
DictionaryVariables
280
     0
  1
1:1
  0
DICTIONARYVAR
  5
678A
102
{ACAD_REACTORS
330
6788
102
}
330
6788
100
DictionaryVariables
280
     0
  1
STANDARD
  0
DICTIONARYVAR
  5
6789
102
{ACAD_REACTORS
330
6788
102
}
330
6788
100
DictionaryVariables
280
     0
  1
STANDARD
  0
DICTIONARYVAR
  5
678C
102
{ACAD_REACTORS
330
6788
102
}
330
6788
100
DictionaryVariables
280
     0
  1
2
  0
DICTIONARY
  5
67F9
102
{ACAD_REACTORS
330
67EC
102
}
330
67EC
100
AcDbDictionary
281
     1
  0
DICTIONARY
  5
6724
330
6723
100
AcDbDictionary
280
     1
281
     1
  3
BUMPTILE
360
6726
  3
DIFFUSETILE
360
6725
  3
OPACITYTILE
360
6729
  3
REFLECTIONTILE
360
6728
  3
REFRACTIONTILE
360
672A
  3
SPECULARTILE
360
6727
  0
DICTIONARY
  5
671C
330
671B
100
AcDbDictionary
280
     1
281
     1
  3
BUMPTILE
360
671E
  3
DIFFUSETILE
360
671D
  3
OPACITYTILE
360
6721
  3
REFLECTIONTILE
360
6720
  3
REFRACTIONTILE
360
6722
  3
SPECULARTILE
360
671F
  0
DICTIONARY
  5
672C
330
672B
100
AcDbDictionary
280
     1
281
     1
  3
BUMPTILE
360
672E
  3
DIFFUSETILE
360
672D
  3
OPACITYTILE
360
6731
  3
REFLECTIONTILE
360
6730
  3
REFRACTIONTILE
360
6732
  3
SPECULARTILE
360
672F
  0
DICTIONARY
  5
675C
330
6716
100
AcDbDictionary
280
     1
281
     1
  3
ACAD_ROUNDTRIP_2008_TABLESTYLE_CELLSTYLEMAP
360
6859
  0
DICTIONARY
  5
675E
330
6717
100
AcDbDictionary
280
     1
281
     1
  3
ACAD_ROUNDTRIP_2008_TABLESTYLE_CELLSTYLEMAP
360
685A
  0
DICTIONARY
  5
676B
330
6739
100
AcDbDictionary
280
     1
281
     1
  3
ACAD_XREC_ROUNDTRIP
360
676C
  0
DICTIONARY
  5
676F
330
673B
100
AcDbDictionary
280
     1
281
     1
  3
ACAD_XREC_ROUNDTRIP
360
6770
  0
DICTIONARY
  5
676D
330
673A
100
AcDbDictionary
280
     1
281
     1
  3
ACAD_XREC_ROUNDTRIP
360
676E
  0
DICTIONARY
  5
6769
330
6738
100
AcDbDictionary
280
     1
281
     1
  3
ACAD_XREC_ROUNDTRIP
360
676A
  0
DICTIONARY
  5
6777
330
673F
100
AcDbDictionary
280
     1
281
     1
  3
ACAD_XREC_ROUNDTRIP
360
6778
  0
DICTIONARY
  5
677F
330
6743
100
AcDbDictionary
280
     1
281
     1
  3
ACAD_XREC_ROUNDTRIP
360
6780
  0
DICTIONARY
  5
6771
330
673C
100
AcDbDictionary
280
     1
281
     1
  3
ACAD_XREC_ROUNDTRIP
360
6772
  0
DICTIONARY
  5
6775
330
673E
100
AcDbDictionary
280
     1
281
     1
  3
ACAD_XREC_ROUNDTRIP
360
6776
  0
DICTIONARY
  5
6785
330
6746
100
AcDbDictionary
280
     1
281
     1
  3
ACAD_XREC_ROUNDTRIP
360
6786
  0
DICTIONARY
  5
677D
330
6742
100
AcDbDictionary
280
     1
281
     1
  3
ACAD_XREC_ROUNDTRIP
360
677E
  0
DICTIONARY
  5
6761
330
6734
100
AcDbDictionary
280
     1
281
     1
  3
ACAD_XREC_ROUNDTRIP
360
6762
  0
DICTIONARY
  5
6763
330
6735
100
AcDbDictionary
280
     1
281
     1
  3
ACAD_XREC_ROUNDTRIP
360
6764
  0
DICTIONARY
  5
6765
330
6736
100
AcDbDictionary
280
     1
281
     1
  3
ACAD_XREC_ROUNDTRIP
360
6766
  0
DICTIONARY
  5
6767
330
6737
100
AcDbDictionary
280
     1
281
     1
  3
ACAD_XREC_ROUNDTRIP
360
6768
  0
DICTIONARY
  5
6781
330
6744
100
AcDbDictionary
280
     1
281
     1
  3
ACAD_XREC_ROUNDTRIP
360
6782
  0
DICTIONARY
  5
677B
330
6741
100
AcDbDictionary
280
     1
281
     1
  3
ACAD_XREC_ROUNDTRIP
360
677C
  0
DICTIONARY
  5
6783
330
6745
100
AcDbDictionary
280
     1
281
     1
  3
ACAD_XREC_ROUNDTRIP
360
6784
  0
DICTIONARY
  5
6773
330
673D
100
AcDbDictionary
280
     1
281
     1
  3
ACAD_XREC_ROUNDTRIP
360
6774
  0
DICTIONARY
  5
6779
330
6740
100
AcDbDictionary
280
     1
281
     1
  3
ACAD_XREC_ROUNDTRIP
360
677A
  0
XRECORD
  5
6726
102
{ACAD_REACTORS
330
6724
102
}
330
6724
100
AcDbXrecord
280
     1
270
     1
271
     1
  0
XRECORD
  5
6725
102
{ACAD_REACTORS
330
6724
102
}
330
6724
100
AcDbXrecord
280
     1
270
     1
271
     1
  0
XRECORD
  5
6729
102
{ACAD_REACTORS
330
6724
102
}
330
6724
100
AcDbXrecord
280
     1
270
     1
271
     1
  0
XRECORD
  5
6728
102
{ACAD_REACTORS
330
6724
102
}
330
6724
100
AcDbXrecord
280
     1
270
     1
271
     1
  0
XRECORD
  5
672A
102
{ACAD_REACTORS
330
6724
102
}
330
6724
100
AcDbXrecord
280
     1
270
     1
271
     1
  0
XRECORD
  5
6727
102
{ACAD_REACTORS
330
6724
102
}
330
6724
100
AcDbXrecord
280
     1
270
     1
271
     1
  0
XRECORD
  5
671E
102
{ACAD_REACTORS
330
671C
102
}
330
671C
100
AcDbXrecord
280
     1
270
     1
271
     1
  0
XRECORD
  5
671D
102
{ACAD_REACTORS
330
671C
102
}
330
671C
100
AcDbXrecord
280
     1
270
     1
271
     1
  0
XRECORD
  5
6721
102
{ACAD_REACTORS
330
671C
102
}
330
671C
100
AcDbXrecord
280
     1
270
     1
271
     1
  0
XRECORD
  5
6720
102
{ACAD_REACTORS
330
671C
102
}
330
671C
100
AcDbXrecord
280
     1
270
     1
271
     1
  0
XRECORD
  5
6722
102
{ACAD_REACTORS
330
671C
102
}
330
671C
100
AcDbXrecord
280
     1
270
     1
271
     1
  0
XRECORD
  5
671F
102
{ACAD_REACTORS
330
671C
102
}
330
671C
100
AcDbXrecord
280
     1
270
     1
271
     1
  0
XRECORD
  5
672E
102
{ACAD_REACTORS
330
672C
102
}
330
672C
100
AcDbXrecord
280
     1
270
     1
271
     1
  0
XRECORD
  5
672D
102
{ACAD_REACTORS
330
672C
102
}
330
672C
100
AcDbXrecord
280
     1
270
     1
271
     1
  0
XRECORD
  5
6731
102
{ACAD_REACTORS
330
672C
102
}
330
672C
100
AcDbXrecord
280
     1
270
     1
271
     1
  0
XRECORD
  5
6730
102
{ACAD_REACTORS
330
672C
102
}
330
672C
100
AcDbXrecord
280
     1
270
     1
271
     1
  0
XRECORD
  5
6732
102
{ACAD_REACTORS
330
672C
102
}
330
672C
100
AcDbXrecord
280
     1
270
     1
271
     1
  0
XRECORD
  5
672F
102
{ACAD_REACTORS
330
672C
102
}
330
672C
100
AcDbXrecord
280
     1
270
     1
271
     1
  0
CELLSTYLEMAP
  5
6859
102
{ACAD_REACTORS
330
675C
102
}
330
675C
100
AcDbCellStyleMap
 90
        3
300
CELLSTYLE
  1
TABLEFORMAT_BEGIN
 90
        5
170
     1
 91
        0
 92
    32768
 62
   257
 93
        1
300
CONTENTFORMAT
  1
CONTENTFORMAT_BEGIN
 90
        0
 91
        0
 92
      512
 93
        0
300

 40
0.0
140
1.0
 94
        1
 62
     0
340
11
144
0.18
309
CONTENTFORMAT_END
171
     0
 94
        0
309
TABLEFORMAT_END
  1
CELLSTYLE_BEGIN
 90
        1
 91
        1
300
_TITLE
309
CELLSTYLE_END
300
CELLSTYLE
  1
TABLEFORMAT_BEGIN
 90
        5
170
     1
 91
        0
 92
        0
 62
   257
 93
        1
300
CONTENTFORMAT
  1
CONTENTFORMAT_BEGIN
 90
        0
 91
        0
 92
      512
 93
        0
300

 40
0.0
140
1.0
 94
        1
 62
     0
340
11
144
0.18
309
CONTENTFORMAT_END
171
     0
 94
        0
309
TABLEFORMAT_END
  1
CELLSTYLE_BEGIN
 90
        2
 91
        1
300
_HEADER
309
CELLSTYLE_END
300
CELLSTYLE
  1
TABLEFORMAT_BEGIN
 90
        5
170
     1
 91
        0
 92
        0
 62
   257
 93
        1
300
CONTENTFORMAT
  1
CONTENTFORMAT_BEGIN
 90
        0
 91
        0
 92
      512
 93
        0
300

 40
0.0
140
1.0
 94
        1
 62
     0
340
11
144
0.18
309
CONTENTFORMAT_END
171
     0
 94
        0
309
TABLEFORMAT_END
  1
CELLSTYLE_BEGIN
 90
        3
 91
        2
300
_DATA
309
CELLSTYLE_END
  0
CELLSTYLEMAP
  5
685A
102
{ACAD_REACTORS
330
675E
102
}
330
675E
100
AcDbCellStyleMap
 90
        3
300
CELLSTYLE
  1
TABLEFORMAT_BEGIN
 90
        5
170
     1
 91
        0
 92
    32768
 62
   257
 93
        1
300
CONTENTFORMAT
  1
CONTENTFORMAT_BEGIN
 90
        0
 91
        0
 92
      512
 93
        0
300

 40
0.0
140
1.0
 94
        1
 62
     0
340
11
144
0.18
309
CONTENTFORMAT_END
171
     0
 94
        0
309
TABLEFORMAT_END
  1
CELLSTYLE_BEGIN
 90
        1
 91
        1
300
_TITLE
309
CELLSTYLE_END
300
CELLSTYLE
  1
TABLEFORMAT_BEGIN
 90
        5
170
     1
 91
        0
 92
        0
 62
   257
 93
        1
300
CONTENTFORMAT
  1
CONTENTFORMAT_BEGIN
 90
        0
 91
        0
 92
      512
 93
        0
300

 40
0.0
140
1.0
 94
        1
 62
     0
340
11
144
0.18
309
CONTENTFORMAT_END
171
     0
 94
        0
309
TABLEFORMAT_END
  1
CELLSTYLE_BEGIN
 90
        2
 91
        1
300
_HEADER
309
CELLSTYLE_END
300
CELLSTYLE
  1
TABLEFORMAT_BEGIN
 90
        5
170
     1
 91
        0
 92
        0
 62
   257
 93
        1
300
CONTENTFORMAT
  1
CONTENTFORMAT_BEGIN
 90
        0
 91
        0
 92
      512
 93
        0
300

 40
0.0
140
1.0
 94
        1
 62
     0
340
11
144
0.18
309
CONTENTFORMAT_END
171
     0
 94
        0
309
TABLEFORMAT_END
  1
CELLSTYLE_BEGIN
 90
        3
 91
        2
300
_DATA
309
CELLSTYLE_END
  0
XRECORD
  5
676C
102
{ACAD_REACTORS
330
676B
102
}
330
676B
100
AcDbXrecord
280
     1
102
RTVSPropertyOp0
 70
     1
102
RTVSPropertyOp1
 70
     1
102
RTVSPropertyOp2
 70
     1
102
RTVSPropertyOp3
 70
     1
102
RTVSPropertyOp4
 70
     1
102
RTVSPropertyOp5
 70
     1
102
RTVSPropertyOp6
 70
     1
102
RTVSPropertyOp7
 70
     1
102
RTVSPropertyOp8
 70
     1
102
RTVSPropertyOp9
 70
     1
102
RTVSPropertyOp10
 70
     1
102
RTVSPropertyOp11
 70
     1
102
RTVSPropertyOp12
 70
     1
102
RTVSPropertyOp13
 70
     1
102
RTVSPropertyOp14
 70
     1
102
RTVSPropertyOp15
 70
     1
102
RTVSPropertyOp16
 70
     1
102
RTVSPropertyOp17
 70
     1
102
RTVSPropertyOp18
 70
     1
102
RTVSPropertyOp19
 70
     1
102
RTVSPropertyOp20
 70
     1
102
RTVSPropertyOp21
 70
     1
102
RTVSPropertyOp22
 70
     1
102
RTVSPropertyOp23
 70
     1
102
RTVSPropertyOp24
 70
     1
102
RTVSPropertyOp25
 70
     1
102
RTVSPropertyOp26
 70
     1
102
RTVSPropertyOp27
 70
     1
  0
XRECORD
  5
6770
102
{ACAD_REACTORS
330
676F
102
}
330
676F
100
AcDbXrecord
280
     1
102
RTVSPropertyOp0
 70
     1
102
RTVSPropertyOp1
 70
     1
102
RTVSPropertyOp2
 70
     1
102
RTVSPropertyOp3
 70
     1
102
RTVSPropertyOp4
 70
     1
102
RTVSPropertyOp5
 70
     1
102
RTVSPropertyOp6
 70
     1
102
RTVSPropertyOp7
 70
     1
102
RTVSPropertyOp8
 70
     1
102
RTVSPropertyOp9
 70
     1
102
RTVSPropertyOp10
 70
     1
102
RTVSPropertyOp11
 70
     1
102
RTVSPropertyOp12
 70
     1
102
RTVSPropertyOp13
 70
     1
102
RTVSPropertyOp14
 70
     1
102
RTVSPropertyOp15
 70
     1
102
RTVSPropertyOp16
 70
     1
102
RTVSPropertyOp17
 70
     1
102
RTVSPropertyOp18
 70
     1
102
RTVSPropertyOp19
 70
     1
102
RTVSPropertyOp20
 70
     1
102
RTVSPropertyOp21
 70
     1
102
RTVSPropertyOp22
 70
     1
102
RTVSPropertyOp23
 70
     1
102
RTVSPropertyOp24
 70
     1
102
RTVSPropertyOp25
 70
     1
102
RTVSPropertyOp26
 70
     1
102
RTVSPropertyOp27
 70
     1
  0
XRECORD
  5
676E
102
{ACAD_REACTORS
330
676D
102
}
330
676D
100
AcDbXrecord
280
     1
102
RTVSPropertyOp0
 70
     1
102
RTVSPropertyOp1
 70
     1
102
RTVSPropertyOp2
 70
     1
102
RTVSPropertyOp3
 70
     1
102
RTVSPropertyOp4
 70
     1
102
RTVSPropertyOp5
 70
     1
102
RTVSPropertyOp6
 70
     1
102
RTVSPropertyOp7
 70
     1
102
RTVSPropertyOp8
 70
     1
102
RTVSPropertyOp9
 70
     1
102
RTVSPropertyOp10
 70
     1
102
RTVSPropertyOp11
 70
     1
102
RTVSPropertyOp12
 70
     1
102
RTVSPropertyOp13
 70
     1
102
RTVSPropertyOp14
 70
     1
102
RTVSPropertyOp15
 70
     1
102
RTVSPropertyOp16
 70
     1
102
RTVSPropertyOp17
 70
     1
102
RTVSPropertyOp18
 70
     1
102
RTVSPropertyOp19
 70
     1
102
RTVSPropertyOp20
 70
     1
102
RTVSPropertyOp21
 70
     1
102
RTVSPropertyOp22
 70
     1
102
RTVSPropertyOp23
 70
     1
102
RTVSPropertyOp24
 70
     1
102
RTVSPropertyOp25
 70
     1
102
RTVSPropertyOp26
 70
     1
102
RTVSPropertyOp27
 70
     1
  0
XRECORD
  5
676A
102
{ACAD_REACTORS
330
6769
102
}
330
6769
100
AcDbXrecord
280
     1
102
RTVSPropertyOp0
 70
     1
102
RTVSPropertyOp1
 70
     1
102
RTVSPropertyOp2
 70
     1
102
RTVSPropertyOp3
 70
     1
102
RTVSPropertyOp4
 70
     1
102
RTVSPropertyOp5
 70
     1
102
RTVSPropertyOp6
 70
     1
102
RTVSPropertyOp7
 70
     1
102
RTVSPropertyOp8
 70
     1
102
RTVSPropertyOp9
 70
     1
102
RTVSPropertyOp10
 70
     1
102
RTVSPropertyOp11
 70
     1
102
RTVSPropertyOp12
 70
     1
102
RTVSPropertyOp13
 70
     1
102
RTVSPropertyOp14
 70
     1
102
RTVSPropertyOp15
 70
     1
102
RTVSPropertyOp16
 70
     1
102
RTVSPropertyOp17
 70
     1
102
RTVSPropertyOp18
 70
     1
102
RTVSPropertyOp19
 70
     1
102
RTVSPropertyOp20
 70
     1
102
RTVSPropertyOp21
 70
     1
102
RTVSPropertyOp22
 70
     1
102
RTVSPropertyOp23
 70
     1
102
RTVSPropertyOp24
 70
     1
102
RTVSPropertyOp25
 70
     1
102
RTVSPropertyOp26
 70
     1
102
RTVSPropertyOp27
 70
     1
  0
XRECORD
  5
6778
102
{ACAD_REACTORS
330
6777
102
}
330
6777
100
AcDbXrecord
280
     1
102
RTVSPropertyOp0
 70
     1
102
RTVSPropertyOp1
 70
     1
102
RTVSPropertyOp2
 70
     1
102
RTVSPropertyOp3
 70
     1
102
RTVSPropertyOp4
 70
     1
102
RTVSPropertyOp5
 70
     1
102
RTVSPropertyOp6
 70
     1
102
RTVSPropertyOp7
 70
     1
102
RTVSPropertyOp8
 70
     1
102
RTVSPropertyOp9
 70
     1
102
RTVSPropertyOp10
 70
     1
102
RTVSPropertyOp11
 70
     1
102
RTVSPropertyOp12
 70
     1
102
RTVSPropertyOp13
 70
     1
102
RTVSPropertyOp14
 70
     1
102
RTVSPropertyOp15
 70
     1
102
RTVSPropertyOp16
 70
     1
102
RTVSPropertyOp17
 70
     1
102
RTVSPropertyOp18
 70
     1
102
RTVSPropertyOp19
 70
     1
102
RTVSPropertyOp20
 70
     1
102
RTVSPropertyOp21
 70
     1
102
RTVSPropertyOp22
 70
     1
102
RTVSPropertyOp23
 70
     1
102
RTVSPropertyOp24
 70
     1
102
RTVSPropertyOp25
 70
     1
102
RTVSPropertyOp26
 70
     1
102
RTVSPropertyOp27
 70
     1
  0
XRECORD
  5
6780
102
{ACAD_REACTORS
330
677F
102
}
330
677F
100
AcDbXrecord
280
     1
102
RTVSPropertyOp0
 70
     1
102
RTVSPropertyOp1
 70
     1
102
RTVSPropertyOp2
 70
     1
102
RTVSPropertyOp3
 70
     1
102
RTVSPropertyOp4
 70
     1
102
RTVSPropertyOp5
 70
     1
102
RTVSPropertyOp6
 70
     1
102
RTVSPropertyOp7
 70
     1
102
RTVSPropertyOp8
 70
     1
102
RTVSPropertyOp9
 70
     1
102
RTVSPropertyOp10
 70
     1
102
RTVSPropertyOp11
 70
     1
102
RTVSPropertyOp12
 70
     1
102
RTVSPropertyOp13
 70
     1
102
RTVSPropertyOp14
 70
     1
102
RTVSPropertyOp15
 70
     1
102
RTVSPropertyOp16
 70
     1
102
RTVSPropertyOp17
 70
     1
102
RTVSPropertyOp18
 70
     1
102
RTVSPropertyOp19
 70
     1
102
RTVSPropertyOp20
 70
     1
102
RTVSPropertyOp21
 70
     1
102
RTVSPropertyOp22
 70
     1
102
RTVSPropertyOp23
 70
     1
102
RTVSPropertyOp24
 70
     1
102
RTVSPropertyOp25
 70
     1
102
RTVSPropertyOp26
 70
     1
102
RTVSPropertyOp27
 70
     1
  0
XRECORD
  5
6772
102
{ACAD_REACTORS
330
6771
102
}
330
6771
100
AcDbXrecord
280
     1
102
RTVSPropertyOp0
 70
     1
102
RTVSPropertyOp1
 70
     1
102
RTVSPropertyOp2
 70
     1
102
RTVSPropertyOp3
 70
     1
102
RTVSPropertyOp4
 70
     1
102
RTVSPropertyOp5
 70
     1
102
RTVSPropertyOp6
 70
     1
102
RTVSPropertyOp7
 70
     1
102
RTVSPropertyOp8
 70
     1
102
RTVSPropertyOp9
 70
     1
102
RTVSPropertyOp10
 70
     1
102
RTVSPropertyOp11
 70
     1
102
RTVSPropertyOp12
 70
     1
102
RTVSPropertyOp13
 70
     1
102
RTVSPropertyOp14
 70
     1
102
RTVSPropertyOp15
 70
     1
102
RTVSPropertyOp16
 70
     1
102
RTVSPropertyOp17
 70
     1
102
RTVSPropertyOp18
 70
     1
102
RTVSPropertyOp19
 70
     1
102
RTVSPropertyOp20
 70
     1
102
RTVSPropertyOp21
 70
     1
102
RTVSPropertyOp22
 70
     1
102
RTVSPropertyOp23
 70
     1
102
RTVSPropertyOp24
 70
     1
102
RTVSPropertyOp25
 70
     1
102
RTVSPropertyOp26
 70
     1
102
RTVSPropertyOp27
 70
     1
  0
XRECORD
  5
6776
102
{ACAD_REACTORS
330
6775
102
}
330
6775
100
AcDbXrecord
280
     1
102
RTVSPropertyOp0
 70
     1
102
RTVSPropertyOp1
 70
     1
102
RTVSPropertyOp2
 70
     1
102
RTVSPropertyOp3
 70
     1
102
RTVSPropertyOp4
 70
     1
102
RTVSPropertyOp5
 70
     1
102
RTVSPropertyOp6
 70
     1
102
RTVSPropertyOp7
 70
     1
102
RTVSPropertyOp8
 70
     1
102
RTVSPropertyOp9
 70
     1
102
RTVSPropertyOp10
 70
     1
102
RTVSPropertyOp11
 70
     1
102
RTVSPropertyOp12
 70
     1
102
RTVSPropertyOp13
 70
     1
102
RTVSPropertyOp14
 70
     1
102
RTVSPropertyOp15
 70
     1
102
RTVSPropertyOp16
 70
     1
102
RTVSPropertyOp17
 70
     1
102
RTVSPropertyOp18
 70
     1
102
RTVSPropertyOp19
 70
     1
102
RTVSPropertyOp20
 70
     1
102
RTVSPropertyOp21
 70
     1
102
RTVSPropertyOp22
 70
     1
102
RTVSPropertyOp23
 70
     1
102
RTVSPropertyOp24
 70
     1
102
RTVSPropertyOp25
 70
     1
102
RTVSPropertyOp26
 70
     1
102
RTVSPropertyOp27
 70
     1
  0
XRECORD
  5
6786
102
{ACAD_REACTORS
330
6785
102
}
330
6785
100
AcDbXrecord
280
     1
102
RTVSPropertyOp0
 70
     0
102
RTVSPropertyOp1
 70
     0
102
RTVSPropertyOp2
 70
     0
102
RTVSPropertyOp3
 70
     0
102
RTVSPropertyOp4
 70
     0
102
RTVSPropertyOp5
 70
     0
102
RTVSPropertyOp6
 70
     0
102
RTVSPropertyOp7
 70
     0
102
RTVSPropertyOp8
 70
     0
102
RTVSPropertyOp9
 70
     0
102
RTVSPropertyOp10
 70
     0
102
RTVSPropertyOp11
 70
     0
102
RTVSPropertyOp12
 70
     0
102
RTVSPropertyOp13
 70
     0
102
RTVSPropertyOp14
 70
     2
102
RTVSPropertyOp15
 70
     0
102
RTVSPropertyOp16
 70
     0
102
RTVSPropertyOp17
 70
     0
102
RTVSPropertyOp18
 70
     0
102
RTVSPropertyOp19
 70
     0
102
RTVSPropertyOp20
 70
     0
102
RTVSPropertyOp21
 70
     0
102
RTVSPropertyOp22
 70
     0
102
RTVSPropertyOp23
 70
     0
102
RTVSPropertyOp24
 70
     0
102
RTVSPropertyOp25
 70
     0
102
RTVSPropertyOp26
 70
     0
102
RTVSPropertyOp27
 70
     0
  0
XRECORD
  5
677E
102
{ACAD_REACTORS
330
677D
102
}
330
677D
100
AcDbXrecord
280
     1
102
RTVSPropertyOp0
 70
     1
102
RTVSPropertyOp1
 70
     1
102
RTVSPropertyOp2
 70
     1
102
RTVSPropertyOp3
 70
     1
102
RTVSPropertyOp4
 70
     1
102
RTVSPropertyOp5
 70
     1
102
RTVSPropertyOp6
 70
     1
102
RTVSPropertyOp7
 70
     1
102
RTVSPropertyOp8
 70
     1
102
RTVSPropertyOp9
 70
     1
102
RTVSPropertyOp10
 70
     1
102
RTVSPropertyOp11
 70
     1
102
RTVSPropertyOp12
 70
     1
102
RTVSPropertyOp13
 70
     1
102
RTVSPropertyOp14
 70
     1
102
RTVSPropertyOp15
 70
     1
102
RTVSPropertyOp16
 70
     1
102
RTVSPropertyOp17
 70
     1
102
RTVSPropertyOp18
 70
     1
102
RTVSPropertyOp19
 70
     1
102
RTVSPropertyOp20
 70
     1
102
RTVSPropertyOp21
 70
     1
102
RTVSPropertyOp22
 70
     1
102
RTVSPropertyOp23
 70
     1
102
RTVSPropertyOp24
 70
     1
102
RTVSPropertyOp25
 70
     1
102
RTVSPropertyOp26
 70
     1
102
RTVSPropertyOp27
 70
     1
  0
XRECORD
  5
6762
102
{ACAD_REACTORS
330
6761
102
}
330
6761
100
AcDbXrecord
280
     1
102
RTVSPropertyOp0
 70
     1
102
RTVSPropertyOp1
 70
     1
102
RTVSPropertyOp2
 70
     1
102
RTVSPropertyOp3
 70
     1
102
RTVSPropertyOp4
 70
     1
102
RTVSPropertyOp5
 70
     1
102
RTVSPropertyOp6
 70
     1
102
RTVSPropertyOp7
 70
     1
102
RTVSPropertyOp8
 70
     1
102
RTVSPropertyOp9
 70
     1
102
RTVSPropertyOp10
 70
     1
102
RTVSPropertyOp11
 70
     1
102
RTVSPropertyOp12
 70
     1
102
RTVSPropertyOp13
 70
     1
102
RTVSPropertyOp14
 70
     1
102
RTVSPropertyOp15
 70
     1
102
RTVSPropertyOp16
 70
     1
102
RTVSPropertyOp17
 70
     1
102
RTVSPropertyOp18
 70
     1
102
RTVSPropertyOp19
 70
     1
102
RTVSPropertyOp20
 70
     1
102
RTVSPropertyOp21
 70
     1
102
RTVSPropertyOp22
 70
     1
102
RTVSPropertyOp23
 70
     1
102
RTVSPropertyOp24
 70
     1
102
RTVSPropertyOp25
 70
     1
102
RTVSPropertyOp26
 70
     1
102
RTVSPropertyOp27
 70
     1
  0
XRECORD
  5
6764
102
{ACAD_REACTORS
330
6763
102
}
330
6763
100
AcDbXrecord
280
     1
102
RTVSPropertyOp0
 70
     1
102
RTVSPropertyOp1
 70
     1
102
RTVSPropertyOp2
 70
     1
102
RTVSPropertyOp3
 70
     1
102
RTVSPropertyOp4
 70
     1
102
RTVSPropertyOp5
 70
     1
102
RTVSPropertyOp6
 70
     1
102
RTVSPropertyOp7
 70
     1
102
RTVSPropertyOp8
 70
     1
102
RTVSPropertyOp9
 70
     1
102
RTVSPropertyOp10
 70
     1
102
RTVSPropertyOp11
 70
     1
102
RTVSPropertyOp12
 70
     1
102
RTVSPropertyOp13
 70
     1
102
RTVSPropertyOp14
 70
     1
102
RTVSPropertyOp15
 70
     1
102
RTVSPropertyOp16
 70
     1
102
RTVSPropertyOp17
 70
     1
102
RTVSPropertyOp18
 70
     1
102
RTVSPropertyOp19
 70
     1
102
RTVSPropertyOp20
 70
     1
102
RTVSPropertyOp21
 70
     1
102
RTVSPropertyOp22
 70
     1
102
RTVSPropertyOp23
 70
     1
102
RTVSPropertyOp24
 70
     1
102
RTVSPropertyOp25
 70
     1
102
RTVSPropertyOp26
 70
     1
102
RTVSPropertyOp27
 70
     1
  0
XRECORD
  5
6766
102
{ACAD_REACTORS
330
6765
102
}
330
6765
100
AcDbXrecord
280
     1
102
RTVSPropertyOp0
 70
     1
102
RTVSPropertyOp1
 70
     1
102
RTVSPropertyOp2
 70
     1
102
RTVSPropertyOp3
 70
     1
102
RTVSPropertyOp4
 70
     1
102
RTVSPropertyOp5
 70
     1
102
RTVSPropertyOp6
 70
     1
102
RTVSPropertyOp7
 70
     1
102
RTVSPropertyOp8
 70
     1
102
RTVSPropertyOp9
 70
     1
102
RTVSPropertyOp10
 70
     1
102
RTVSPropertyOp11
 70
     1
102
RTVSPropertyOp12
 70
     1
102
RTVSPropertyOp13
 70
     1
102
RTVSPropertyOp14
 70
     1
102
RTVSPropertyOp15
 70
     1
102
RTVSPropertyOp16
 70
     1
102
RTVSPropertyOp17
 70
     1
102
RTVSPropertyOp18
 70
     1
102
RTVSPropertyOp19
 70
     1
102
RTVSPropertyOp20
 70
     1
102
RTVSPropertyOp21
 70
     1
102
RTVSPropertyOp22
 70
     1
102
RTVSPropertyOp23
 70
     1
102
RTVSPropertyOp24
 70
     1
102
RTVSPropertyOp25
 70
     1
102
RTVSPropertyOp26
 70
     1
102
RTVSPropertyOp27
 70
     1
  0
XRECORD
  5
6768
102
{ACAD_REACTORS
330
6767
102
}
330
6767
100
AcDbXrecord
280
     1
102
RTVSPropertyOp0
 70
     1
102
RTVSPropertyOp1
 70
     1
102
RTVSPropertyOp2
 70
     1
102
RTVSPropertyOp3
 70
     1
102
RTVSPropertyOp4
 70
     1
102
RTVSPropertyOp5
 70
     1
102
RTVSPropertyOp6
 70
     1
102
RTVSPropertyOp7
 70
     1
102
RTVSPropertyOp8
 70
     1
102
RTVSPropertyOp9
 70
     1
102
RTVSPropertyOp10
 70
     1
102
RTVSPropertyOp11
 70
     1
102
RTVSPropertyOp12
 70
     1
102
RTVSPropertyOp13
 70
     1
102
RTVSPropertyOp14
 70
     1
102
RTVSPropertyOp15
 70
     1
102
RTVSPropertyOp16
 70
     1
102
RTVSPropertyOp17
 70
     1
102
RTVSPropertyOp18
 70
     1
102
RTVSPropertyOp19
 70
     1
102
RTVSPropertyOp20
 70
     1
102
RTVSPropertyOp21
 70
     1
102
RTVSPropertyOp22
 70
     1
102
RTVSPropertyOp23
 70
     1
102
RTVSPropertyOp24
 70
     1
102
RTVSPropertyOp25
 70
     1
102
RTVSPropertyOp26
 70
     1
102
RTVSPropertyOp27
 70
     1
  0
XRECORD
  5
6782
102
{ACAD_REACTORS
330
6781
102
}
330
6781
100
AcDbXrecord
280
     1
102
RTVSPropertyOp0
 70
     0
102
RTVSPropertyOp1
 70
     0
102
RTVSPropertyOp2
 70
     0
102
RTVSPropertyOp3
 70
     0
102
RTVSPropertyOp4
 70
     0
102
RTVSPropertyOp5
 70
     0
102
RTVSPropertyOp6
 70
     0
102
RTVSPropertyOp7
 70
     0
102
RTVSPropertyOp8
 70
     0
102
RTVSPropertyOp9
 70
     0
102
RTVSPropertyOp10
 70
     0
102
RTVSPropertyOp11
 70
     0
102
RTVSPropertyOp12
 70
     0
102
RTVSPropertyOp13
 70
     0
102
RTVSPropertyOp14
 70
     2
102
RTVSPropertyOp15
 70
     0
102
RTVSPropertyOp16
 70
     0
102
RTVSPropertyOp17
 70
     0
102
RTVSPropertyOp18
 70
     0
102
RTVSPropertyOp19
 70
     0
102
RTVSPropertyOp20
 70
     0
102
RTVSPropertyOp21
 70
     0
102
RTVSPropertyOp22
 70
     0
102
RTVSPropertyOp23
 70
     0
102
RTVSPropertyOp24
 70
     0
102
RTVSPropertyOp25
 70
     0
102
RTVSPropertyOp26
 70
     0
102
RTVSPropertyOp27
 70
     0
  0
XRECORD
  5
677C
102
{ACAD_REACTORS
330
677B
102
}
330
677B
100
AcDbXrecord
280
     1
102
RTVSPropertyOp0
 70
     1
102
RTVSPropertyOp1
 70
     1
102
RTVSPropertyOp2
 70
     1
102
RTVSPropertyOp3
 70
     1
102
RTVSPropertyOp4
 70
     1
102
RTVSPropertyOp5
 70
     1
102
RTVSPropertyOp6
 70
     1
102
RTVSPropertyOp7
 70
     1
102
RTVSPropertyOp8
 70
     1
102
RTVSPropertyOp9
 70
     1
102
RTVSPropertyOp10
 70
     1
102
RTVSPropertyOp11
 70
     1
102
RTVSPropertyOp12
 70
     1
102
RTVSPropertyOp13
 70
     1
102
RTVSPropertyOp14
 70
     1
102
RTVSPropertyOp15
 70
     1
102
RTVSPropertyOp16
 70
     1
102
RTVSPropertyOp17
 70
     1
102
RTVSPropertyOp18
 70
     1
102
RTVSPropertyOp19
 70
     1
102
RTVSPropertyOp20
 70
     1
102
RTVSPropertyOp21
 70
     1
102
RTVSPropertyOp22
 70
     1
102
RTVSPropertyOp23
 70
     1
102
RTVSPropertyOp24
 70
     1
102
RTVSPropertyOp25
 70
     1
102
RTVSPropertyOp26
 70
     1
102
RTVSPropertyOp27
 70
     1
  0
XRECORD
  5
6784
102
{ACAD_REACTORS
330
6783
102
}
330
6783
100
AcDbXrecord
280
     1
102
RTVSPropertyOp0
 70
     0
102
RTVSPropertyOp1
 70
     0
102
RTVSPropertyOp2
 70
     0
102
RTVSPropertyOp3
 70
     0
102
RTVSPropertyOp4
 70
     0
102
RTVSPropertyOp5
 70
     0
102
RTVSPropertyOp6
 70
     0
102
RTVSPropertyOp7
 70
     0
102
RTVSPropertyOp8
 70
     0
102
RTVSPropertyOp9
 70
     0
102
RTVSPropertyOp10
 70
     0
102
RTVSPropertyOp11
 70
     0
102
RTVSPropertyOp12
 70
     0
102
RTVSPropertyOp13
 70
     0
102
RTVSPropertyOp14
 70
     2
102
RTVSPropertyOp15
 70
     0
102
RTVSPropertyOp16
 70
     0
102
RTVSPropertyOp17
 70
     0
102
RTVSPropertyOp18
 70
     0
102
RTVSPropertyOp19
 70
     0
102
RTVSPropertyOp20
 70
     0
102
RTVSPropertyOp21
 70
     0
102
RTVSPropertyOp22
 70
     0
102
RTVSPropertyOp23
 70
     0
102
RTVSPropertyOp24
 70
     0
102
RTVSPropertyOp25
 70
     0
102
RTVSPropertyOp26
 70
     0
102
RTVSPropertyOp27
 70
     0
  0
XRECORD
  5
6774
102
{ACAD_REACTORS
330
6773
102
}
330
6773
100
AcDbXrecord
280
     1
102
RTVSPropertyOp0
 70
     1
102
RTVSPropertyOp1
 70
     1
102
RTVSPropertyOp2
 70
     1
102
RTVSPropertyOp3
 70
     1
102
RTVSPropertyOp4
 70
     1
102
RTVSPropertyOp5
 70
     1
102
RTVSPropertyOp6
 70
     1
102
RTVSPropertyOp7
 70
     1
102
RTVSPropertyOp8
 70
     1
102
RTVSPropertyOp9
 70
     1
102
RTVSPropertyOp10
 70
     1
102
RTVSPropertyOp11
 70
     1
102
RTVSPropertyOp12
 70
     1
102
RTVSPropertyOp13
 70
     1
102
RTVSPropertyOp14
 70
     1
102
RTVSPropertyOp15
 70
     1
102
RTVSPropertyOp16
 70
     1
102
RTVSPropertyOp17
 70
     1
102
RTVSPropertyOp18
 70
     1
102
RTVSPropertyOp19
 70
     1
102
RTVSPropertyOp20
 70
     1
102
RTVSPropertyOp21
 70
     1
102
RTVSPropertyOp22
 70
     1
102
RTVSPropertyOp23
 70
     1
102
RTVSPropertyOp24
 70
     1
102
RTVSPropertyOp25
 70
     1
102
RTVSPropertyOp26
 70
     1
102
RTVSPropertyOp27
 70
     1
  0
XRECORD
  5
677A
102
{ACAD_REACTORS
330
6779
102
}
330
6779
100
AcDbXrecord
280
     1
102
RTVSPropertyOp0
 70
     1
102
RTVSPropertyOp1
 70
     1
102
RTVSPropertyOp2
 70
     1
102
RTVSPropertyOp3
 70
     1
102
RTVSPropertyOp4
 70
     1
102
RTVSPropertyOp5
 70
     1
102
RTVSPropertyOp6
 70
     1
102
RTVSPropertyOp7
 70
     1
102
RTVSPropertyOp8
 70
     1
102
RTVSPropertyOp9
 70
     1
102
RTVSPropertyOp10
 70
     1
102
RTVSPropertyOp11
 70
     1
102
RTVSPropertyOp12
 70
     1
102
RTVSPropertyOp13
 70
     1
102
RTVSPropertyOp14
 70
     1
102
RTVSPropertyOp15
 70
     1
102
RTVSPropertyOp16
 70
     1
102
RTVSPropertyOp17
 70
     1
102
RTVSPropertyOp18
 70
     1
102
RTVSPropertyOp19
 70
     1
102
RTVSPropertyOp20
 70
     1
102
RTVSPropertyOp21
 70
     1
102
RTVSPropertyOp22
 70
     1
102
RTVSPropertyOp23
 70
     1
102
RTVSPropertyOp24
 70
     1
102
RTVSPropertyOp25
 70
     1
102
RTVSPropertyOp26
 70
     1
102
RTVSPropertyOp27
 70
     1
  0
ENDSEC
  0
EOF
