  0
SECTION
  2
HEADER
  9
$ACADVER
  1
AC1009
  9
$INSBASE
 10
0.0
 20
0.0
 30
0.0
  9
$EXTMIN
 10
260.91988957499109
 20
1211.0829718146749
 30
0.0
  9
$EXTMAX
 10
1100.004080097691
 20
1681.8671621849751
 30
0.0
  9
$LIMMIN
 10
0.0
 20
0.0
  9
$LIMMAX
 10
23.3858267717
 20
16.535433070900002
  9
$ORTHOMODE
 70
     0
  9
$REGENMODE
 70
     1
  9
$FILLMODE
 70
     1
  9
$QTEXTMODE
 70
     0
  9
$MIRRTEXT
 70
     1
  9
$DRAGMODE
 70
     2
  9
$LTSCALE
 40
5.0
  9
$OSMODE
 70
    39
  9
$ATTMODE
 70
     1
  9
$TEXTSIZE
 40
0.0
  9
$TRACEWID
 40
0.05
  9
$TEXTSTYLE
  7
STANDARD
  9
$CLAYER
  8
AM_6
  9
$CELTYPE
  6
BYLAYER
  9
$CECOLOR
 62
   256
  9
$DIMSCALE
 40
101.59999999999999
  9
$DIMASZ
 40
0.13
  9
$DIMEXO
 40
0.0
  9
$DIMDLI
 40
0.8886614172999999
  9
$DIMRND
 40
0.0
  9
$DIMDLE
 40
0.0
  9
$DIMEXE
 40
0.04209448819
  9
$DIMTP
 40
0.0
  9
$DIMTM
 40
0.0
  9
$DIMTXT
 40
0.18
  9
$DIMCEN
 40
0.0
  9
$DIMTSZ
 40
0.0
  9
$DIMTOL
 70
     0
  9
$DIMLIM
 70
     0
  9
$DIMTIH
 70
     1
  9
$DIMTOH
 70
     1
  9
$DIMSE1
 70
     0
  9
$DIMSE2
 70
     0
  9
$DIMTAD
 70
     0
  9
$DIMZIN
 70
     8
  9
$DIMBLK
  1

  9
$DIMASO
 70
     1
  9
$DIMSHO
 70
     1
  9
$DIMPOST
  1

  9
$DIMAPOST
  1

  9
$DIMALT
 70
     0
  9
$DIMALTD
 70
     2
  9
$DIMALTF
 40
25.399999999999999
  9
$DIMLFAC
 40
0.03937
  9
$DIMTOFL
 70
     0
  9
$DIMTVP
 40
0.0
  9
$DIMTIX
 70
     0
  9
$DIMSOXD
 70
     0
  9
$DIMSAH
 70
     0
  9
$DIMBLK1
  1

  9
$DIMBLK2
  1

  9
$DIMSTYLE
  2
STANDARD
  9
$DIMCLRD
 70
     0
  9
$DIMCLRE
 70
     0
  9
$DIMCLRT
 70
     0
  9
$DIMTFAC
 40
1.0
  9
$DIMGAP
 40
0.09
  9
$LUNITS
 70
     2
  9
$LUPREC
 70
     4
  9
$SKETCHINC
 40
0.1
  9
$FILLETRAD
 40
11.17
  9
$AUNITS
 70
     0
  9
$AUPREC
 70
     0
  9
$MENU
  1
acad
  9
$ELEVATION
 40
0.0
  9
$PELEVATION
 40
0.0
  9
$THICKNESS
 40
0.0
  9
$LIMCHECK
 70
     0
  9
$BLIPMODE
 70
     0
  9
$CHAMFERA
 40
0.0
  9
$CHAMFERB
 40
0.0
  9
$SKPOLY
 70
     0
  9
$TDCREATE
 40
2444971.666666666
  9
$TDUPDATE
 40
2454629.4933270612
  9
$TDINDWG
 40
0.6622315162
  9
$TDUSRTIMER
 40
0.6622315162
  9
$USRTIMER
 70
     1
  9
$ANGBASE
 50
0.0
  9
$ANGDIR
 70
     0
  9
$PDMODE
 70
     0
  9
$PDSIZE
 40
0.0
  9
$PLINEWID
 40
0.0
  9
$COORDS
 70
     1
  9
$SPLFRAME
 70
     0
  9
$SPLINETYPE
 70
     6
  9
$SPLINESEGS
 70
     8
  9
$ATTDIA
 70
     0
  9
$ATTREQ
 70
     1
  9
$HANDLING
 70
     1
  9
$HANDSEED
  5
F6E5
  9
$SURFTAB1
 70
     6
  9
$SURFTAB2
 70
     6
  9
$SURFTYPE
 70
     6
  9
$SURFU
 70
     6
  9
$SURFV
 70
     6
  9
$UCSNAME
  2

  9
$UCSORG
 10
0.0
 20
0.0
 30
0.0
  9
$UCSXDIR
 10
1.0
 20
0.0
 30
0.0
  9
$UCSYDIR
 10
0.0
 20
1.0
 30
0.0
  9
$PUCSNAME
  2

  9
$PUCSORG
 10
0.0
 20
0.0
 30
0.0
  9
$PUCSXDIR
 10
1.0
 20
0.0
 30
0.0
  9
$PUCSYDIR
 10
0.0
 20
1.0
 30
0.0
  9
$USERI1
 70
     0
  9
$USERI2
 70
     0
  9
$USERI3
 70
     0
  9
$USERI4
 70
     0
  9
$USERI5
 70
     0
  9
$USERR1
 40
0.0
  9
$USERR2
 40
0.0
  9
$USERR3
 40
0.0
  9
$USERR4
 40
0.0
  9
$USERR5
 40
0.0
  9
$WORLDVIEW
 70
     1
  9
$SHADEDGE
 70
     3
  9
$SHADEDIF
 70
    70
  9
$TILEMODE
 70
     1
  9
$MAXACTVP
 70
    16
  9
$PLIMCHECK
 70
     0
  9
$PEXTMIN
 10
-6.0960000000012524
 20
0.0
 30
0.0
  9
$PEXTMAX
 10
1295.4000000000001
 20
1005.8399999999961
 30
0.0
  9
$PLIMMIN
 10
-17.793701171875
 20
-5.7937498092651358
  9
$PLIMMAX
 10
1171.206298828125
 20
835.20625019073486
  9
$UNITMODE
 70
     0
  9
$VISRETAIN
 70
     0
  9
$PLINEGEN
 70
     1
  9
$PSLTSCALE
 70
     0
  0
ENDSEC
  0
SECTION
  2
TABLES
  0
TABLE
  2
VPORT
 70
     1
  0
VPORT
  2
*ACTIVE
 70
     0
 10
0.0
 20
0.0
 11
1.0
 21
1.0
 12
680.39759836372104
 22
1446.507992965164
 13
-54.710840424802463
 23
-104.52697632414851
 14
1.0
 24
1.0
 15
0.0
 25
0.0
 16
0.0
 26
0.0
 36
1.0
 17
0.0
 27
0.0
 37
0.0
 40
553.1719872739734
 41
1.5250965250965249
 42
50.0
 43
0.0
 44
0.0
 50
0.0
 51
0.0
 71
     0
 72
  1000
 73
     1
 74
     1
 75
     0
 76
     0
 77
     0
 78
     0
  0
ENDTAB
  0
TABLE
  2
LTYPE
 70
    17
  0
LTYPE
  2
CONTINUOUS
 70
     0
  3
Solid line
 72
    65
 73
     0
 40
0.0
  0
LTYPE
  2
CENTER
 70
     0
  3
____ _ ____ _ ____ _ ____ _ ____ _ ____ _ ____
 72
    65
 73
     4
 40
0.6
 49
0.375
 49
-0.075
 49
0.075
 49
-0.075
  0
LTYPE
  2
HIDDEN
 70
     0
  3
- - - - - - - - - - - - - - - - - - - -
 72
    65
 73
     2
 40
0.2
 49
0.1
 49
-0.1
  0
LTYPE
  2
PHANTOM
 70
     0
  3
_____ _ _ _____ _ _ _____ _ _ _____
 72
    65
 73
     6
 40
0.8
 49
0.45
 49
-0.05
 49
0.1
 49
-0.05
 49
0.1
 49
-0.05
  0
LTYPE
  2
AMCONSTR
 70
     0
  3
_______________________
 72
    65
 73
     2
 40
9999.0
 49
9999.0
 49
0.0
  0
LTYPE
  2
PHANTOM2
 70
     0
  3
Phantom (.5x) ___ _ _ ___ _ _ ___ _ _ ___ _ _
 72
    65
 73
     6
 40
1.25
 49
0.625
 49
-0.125
 49
0.125
 49
-0.125
 49
0.125
 49
-0.125
  0
LTYPE
  2
CENTER2
 70
     0
  3
Center (.5x) ___ _ ___ _ ___ _ ___ _ ___ _ ___
 72
    65
 73
     4
 40
1.125
 49
0.75
 49
-0.125
 49
0.125
 49
-0.125
  0
LTYPE
  2
HIDDEN2
 70
     0
  3
Hidden (.5x) _ _ _ _ _ _ _ _ _ _ _ _ _ _ _ _ _
 72
    65
 73
     2
 40
0.1875
 49
0.125
 49
-0.0625
  0
LTYPE
  2
AMZIGZAG2
 70
     0
  3
/\/-/\/-/\/-/\/-/\/-/\/
 72
    65
 73
     2
 40
0.4401
 49
0.0001
 49
-0.4400000000000001
  0
LTYPE
  2
ACANSTGB
 70
     0
  3
__ . . __ . .
 72
    65
 73
     6
 40
0.35433070866
 49
0.15748031496
 49
-0.03937007874
 49
0.03937007874
 49
-0.03937007874
 49
0.03937007874
 49
-0.03937007874
  0
LTYPE
  2
ACANSTGL
 70
     0
  3
_ _ _ _ _
 72
    65
 73
     2
 40
0.11811023622
 49
0.07874015748
 49
-0.03937007874
  0
LTYPE
  2
AM_ISO02W050
 70
     0
  3
__ __ __ __ __ __ __ __ __ __ __ __ __ __ __
 72
    65
 73
     2
 40
7.5
 49
6.0
 49
-1.5
  0
LTYPE
  2
AM_ISO08W050
 70
     0
  3
____ . ____ . ____ . ____ . ____ . ____ . ____
 72
    65
 73
     4
 40
18.0
 49
12.0
 49
-1.5
 49
3.0
 49
-1.5
  0
LTYPE
  2
AM_ISO09W050
 70
     0
  3
_____ . . _____ . . _____ . . ____ .. ____
 72
    65
 73
     6
 40
22.5
 49
12.0
 49
-1.5
 49
3.0
 49
-1.5
 49
3.0
 49
-1.5
  0
LTYPE
  2
AM_ISO08W050X2
 70
     0
  3
__ . __ . __ . __ . __ . __
 72
    65
 73
     4
 40
9.0
 49
6.0
 49
-0.75
 49
1.5
 49
-0.75
  0
LTYPE
  2
AM_ISO02W050X2
 70
     0
  3
 _ _ _ _ _ _ _ _ _ _ _ _
 72
    65
 73
     2
 40
3.75
 49
3.0
 49
-0.75
  0
LTYPE
  2
AMZIGZAG
 70
     0
  3
/\/-/\/-/\/-/\/-/\/-/\/
 72
    65
 73
     2
 40
11.0001
 49
0.0001
 49
-11.0
  0
ENDTAB
  0
TABLE
  2
LAYER
 70
    14
  0
LAYER
  2
0
 70
     0
 62
     7
  6
CONTINUOUS
  0
LAYER
  2
DEFAULT_3
 70
     0
 62
     7
  6
PHANTOM
  0
LAYER
  2
DEFPOINTS
 70
     0
 62
     7
  6
CONTINUOUS
  0
LAYER
  2
AM_0
 70
     0
 62
     7
  6
CONTINUOUS
  0
LAYER
  2
AM_5
 70
     0
 62
     3
  6
CONTINUOUS
  0
LAYER
  2
AM_4
 70
     0
 62
     3
  6
CONTINUOUS
  0
LAYER
  2
AM_8
 70
     0
 62
     1
  6
CONTINUOUS
  0
LAYER
  2
AM_VIEWS
 70
     0
 62
     1
  6
CONTINUOUS
  0
LAYER
  2
AM_7
 70
     0
 62
     4
  6
CENTER
  0
LAYER
  2
DIM
 70
     0
 62
     3
  6
CONTINUOUS
  0
LAYER
  2
AM_10
 70
     0
 62
     7
  6
CENTER
  0
LAYER
  2
AM_1
 70
     0
 62
    14
  6
CONTINUOUS
  0
LAYER
  2
AM_6N
 70
     0
 62
     2
  6
CONTINUOUS
  0
LAYER
  2
AM_6
 70
     0
 62
     2
  6
CONTINUOUS
  0
ENDTAB
  0
TABLE
  2
STYLE
 70
     6
  0
STYLE
  2
STANDARD
 70
     0
 40
0.0
 41
1.0
 50
0.0
 71
     0
 42
0.0
  3
gbenor.shx
  4
gbcbig.shx
  0
STYLE
  2

 70
     1
 40
0.0
 41
1.0
 50
0.0
 71
     0
 42
0.2
  3
ltypeshp.shx
  4

  0
STYLE
  2
ACANSTS
 70
     0
 40
1.0
 41
1.0
 50
0.0
 71
     0
 42
0.2
  3
romans.shx
  4

  0
STYLE
  2
ACANSGDT
 70
     0
 40
0.0
 41
1.0
 50
0.0
 71
     0
 42
0.2
  3
amgdtans.shx
  4

  0
STYLE
  2
ADESK1
 70
     0
 40
0.0
 41
1.0
 50
0.0
 71
     0
 42
0.12
  3
romans.shx
  4
gbcbig.shx
  0
STYLE
  2
ROMANK
 70
     0
 40
0.0
 41
1.0
 50
0.0
 71
     0
 42
0.4
  3
romans
  4

  0
ENDTAB
  0
TABLE
  2
VIEW
 70
     0
  0
ENDTAB
  0
TABLE
  2
UCS
 70
     0
  0
ENDTAB
  0
TABLE
  2
APPID
 70
    21
  0
APPID
  2
ACAD
 70
     0
  0
APPID
  2
MCAD_NO_VIS
 70
     0
  0
APPID
  2
ACAD_TEMP_GRAPHIC
 70
     0
  0
APPID
  2
ACATTRIBSERVICES
 70
     0
  0
APPID
  2
GENIUS_GENODEF_13
 70
     0
  0
APPID
  2
GENIUS_GENOBJ-N-HTC_13
 70
     0
  0
APPID
  2
GENIUS_GENHATCH_13
 70
     0
  0
APPID
  2
GENIUS_GENREC_14
 70
     0
  0
APPID
  2
GENIUS_GENOBJ-N-REC_13
 70
     0
  0
APPID
  2
GENIUS_GENBLLY_14
 70
     0
  0
APPID
  2
GENIUS_GENTRA_14
 70
     0
  0
APPID
  2
CONTENTBLOCKICON
 70
     0
  0
APPID
  2
GENIUS_GENSCREG_15
 70
     0
  0
APPID
  2
GENIUS_GENOBJ-N-SDF_13
 70
     0
  0
APPID
  2
ACAD_DIMASSOC_CALC_DIMLFAC
 70
     0
  0
APPID
  2
ACAD_DIMASSOC_DIMLFAC
 70
     0
  0
APPID
  2
ACAD_DIMASSOC_OVERRIDDEN_D
 70
     0
  0
APPID
  2
GENIUS_GENDTOL_13
 70
     0
  0
APPID
  2
GENIUS_GENOBJ-N-FIL_13
 70
     0
  0
APPID
  2
ACAD_EXEMPT_FROM_CAD_STANDARDS
 70
     0
  0
APPID
  2
DCO15
 70
     0
  0
ENDTAB
  0
TABLE
  2
DIMSTYLE
 70
     7
  0
DIMSTYLE
  2
STANDARD
 70
     0
  3

  4

  5

  6

  7

 40
101.59999999999999
 41
0.13
 42
0.0
 43
0.8886614172999999
 44
0.04209448819
 45
0.0
 46
0.0
 47
0.0
 48
0.0
140
0.18
141
0.0
142
0.0
143
25.399999999999999
144
0.03937
145
0.0
146
1.0
147
0.09
 71
     0
 72
     0
 73
     1
 74
     1
 75
     0
 76
     0
 77
     0
 78
     8
170
     0
171
     2
172
     0
173
     0
174
     0
175
     0
176
     0
177
     0
178
     0
  0
DIMSTYLE
  2
AM_ANSI
 70
     0
  3

  4
mm
  5

  6

  7

 40
1.0
 41
0.1
 42
0.05
 43
0.5
 44
0.1
 45
0.0
 46
0.0
 47
0.1
 48
0.1
140
0.12
141
0.0
142
0.0
143
25.399999999999999
144
1.0
145
0.0
146
0.71
147
0.06
 71
     0
 72
     0
 73
     1
 74
     1
 75
     0
 76
     0
 77
     0
 78
     7
170
     0
171
     2
172
     0
173
     0
174
     0
175
     0
176
   256
177
   256
178
     2
  0
DIMSTYLE
  2
AM_ANSI$3
 70
     0
  3

  4
mm
  5

  6

  7

 40
1.0
 41
0.1
 42
0.05
 43
0.5
 44
0.1
 45
0.0
 46
0.0
 47
0.1
 48
0.1
140
0.12
141
0.0
142
0.0
143
25.399999999999999
144
1.0
145
0.0
146
0.71
147
0.06
 71
     0
 72
     0
 73
     1
 74
     1
 75
     0
 76
     0
 77
     0
 78
     7
170
     0
171
     2
172
     0
173
     0
174
     0
175
     0
176
   256
177
   256
178
     2
  0
DIMSTYLE
  2
AM_ANSI$4
 70
     0
  3

  4
mm
  5

  6

  7

 40
1.0
 41
0.1
 42
0.05
 43
0.5
 44
0.1
 45
0.0
 46
0.0
 47
0.1
 48
0.1
140
0.12
141
0.0
142
0.0
143
25.399999999999999
144
1.0
145
0.0
146
0.71
147
0.06
 71
     0
 72
     0
 73
     1
 74
     1
 75
     0
 76
     0
 77
     0
 78
     7
170
     0
171
     2
172
     0
173
     0
174
     0
175
     0
176
   256
177
   256
178
     2
  0
DIMSTYLE
  2
AM_ANSI$7
 70
     0
  3

  4
mm
  5

  6

  7

 40
1.0
 41
0.1
 42
0.05
 43
0.5
 44
0.1
 45
0.0
 46
0.0
 47
0.1
 48
0.1
140
0.24
141
0.0
142
0.0
143
25.399999999999999
144
1.0
145
0.0
146
0.71
147
0.06
 71
     0
 72
     0
 73
     1
 74
     1
 75
     0
 76
     0
 77
     0
 78
     7
170
     0
171
     2
172
     0
173
     0
174
     0
175
     0
176
   256
177
   256
178
     2
  0
DIMSTYLE
  2
AM_ANSI$SF
 70
     0
  3

  4
mm
  5

  6

  7

 40
1.0
 41
0.1
 42
0.05
 43
0.5
 44
0.1
 45
0.0
 46
0.0
 47
0.1
 48
0.1
140
0.12
141
0.0
142
0.0
143
25.399999999999999
144
1.0
145
0.0
146
0.71
147
0.06
 71
     0
 72
     0
 73
     1
 74
     1
 75
     1
 76
     1
 77
     0
 78
     7
170
     0
171
     2
172
     0
173
     0
174
     0
175
     0
176
   256
177
   256
178
     2
  0
DIMSTYLE
  2
AM_ANSI$SH
 70
     0
  3

  4
mm
  5

  6
GENAXEH
  7

 40
1.0
 41
0.1
 42
0.05
 43
0.5
 44
0.1
 45
0.0
 46
0.0
 47
0.1
 48
0.1
140
0.12
141
0.0
142
0.0
143
25.399999999999999
144
1.0
145
0.0
146
0.71
147
0.06
 71
     0
 72
     0
 73
     1
 74
     1
 75
     1
 76
     1
 77
     0
 78
     7
170
     0
171
     2
172
     0
173
     1
174
     0
175
     0
176
   256
177
   256
178
     2
  0
ENDTAB
  0
ENDSEC
  0
SECTION
  2
BLOCKS
  0
BLOCK
  8
0
  2
$MODEL_SPACE
 70
     0
 10
0.0
 20
0.0
 30
0.0
  3
$MODEL_SPACE
  1

  0
ENDBLK
  5
51
  8
0
  0
BLOCK
 67
     1
  8
0
  2
$PAPER_SPACE
 70
     0
 10
0.0
 20
0.0
 30
0.0
  3
$PAPER_SPACE
  1

  0
ENDBLK
  5
53
 67
     1
  8
0
  0
BLOCK
  8
0
  2
GENAXEH
 70
     0
 10
0.0
 20
0.0
 30
0.0
  3
GENAXEH
  1

  0
LINE
  5
2291
  8
0
 10
-1.0
 20
0.0
 30
0.0
 11
1.0
 21
0.0
 31
0.0
  0
ENDBLK
  5
2293
  8
0
  0
BLOCK
  8
0
  2
BLOT2777
 70
     0
 10
0.0
 20
0.0
 30
0.0
  3
BLOT2777
  1

  0
POLYLINE
  5
3AB3
  8
0
  6
CONTINUOUS
 66
     1
 10
0.0
 20
0.0
 30
0.0
  0
VERTEX
  5
F620
  8
0
  6
CONTINUOUS
 10
-0.0990392268
 20
0.0061707734
 30
0.0
  0
VERTEX
  5
F621
  8
0
  6
CONTINUOUS
 10
-0.0489460416
 20
0.0562639609
 30
0.0
  0
SEQEND
  5
F622
  8
0
  6
CONTINUOUS
  0
POLYLINE
  5
3AB4
  8
0
  6
CONTINUOUS
 66
     1
 10
0.0
 20
0.0
 30
0.0
  0
VERTEX
  5
F623
  8
0
  6
CONTINUOUS
 10
-0.0990392268
 20
-0.0079713622
 30
0.0
  0
VERTEX
  5
F624
  8
0
  6
CONTINUOUS
 10
-0.0301621202
 20
0.0609057471
 30
0.0
  0
SEQEND
  5
F625
  8
0
  6
CONTINUOUS
  0
POLYLINE
  5
3AB5
  8
0
  6
CONTINUOUS
 66
     1
 10
0.0
 20
0.0
 30
0.0
  0
VERTEX
  5
F626
  8
0
  6
CONTINUOUS
 10
-0.0954193696
 20
-0.0184936356
 30
0.0
  0
VERTEX
  5
F627
  8
0
  6
CONTINUOUS
 10
-0.0127292378
 20
0.0641964972
 30
0.0
  0
SEQEND
  5
F628
  8
0
  6
CONTINUOUS
  0
POLYLINE
  5
3AB6
  8
0
  6
CONTINUOUS
 66
     1
 10
0.0
 20
0.0
 30
0.0
  0
VERTEX
  5
F629
  8
0
  6
CONTINUOUS
 10
-0.091067858
 20
-0.0282842629
 30
0.0
  0
VERTEX
  5
F62A
  8
0
  6
CONTINUOUS
 10
0.0014128971
 20
0.0641964972
 30
0.0
  0
SEQEND
  5
F62B
  8
0
  6
CONTINUOUS
  0
POLYLINE
  5
3AB7
  8
0
  6
CONTINUOUS
 66
     1
 10
0.0
 20
0.0
 30
0.0
  0
VERTEX
  5
F62C
  8
0
  6
CONTINUOUS
 10
-0.0839966908
 20
-0.0353552327
 30
0.0
  0
VERTEX
  5
F62D
  8
0
  6
CONTINUOUS
 10
0.0155550325
 20
0.0641964972
 30
0.0
  0
SEQEND
  5
F62E
  8
0
  6
CONTINUOUS
  0
POLYLINE
  5
3AB8
  8
0
  6
CONTINUOUS
 66
     1
 10
0.0
 20
0.0
 30
0.0
  0
VERTEX
  5
F62F
  8
0
  6
CONTINUOUS
 10
-0.0766486153
 20
-0.0421492867
 30
0.0
  0
VERTEX
  5
F630
  8
0
  6
CONTINUOUS
 10
0.0271335039
 20
0.0616328306
 30
0.0
  0
SEQEND
  5
F631
  8
0
  6
CONTINUOUS
  0
POLYLINE
  5
3AB9
  8
0
  6
CONTINUOUS
 66
     1
 10
0.0
 20
0.0
 30
0.0
  0
VERTEX
  5
F632
  8
0
  6
CONTINUOUS
 10
-0.0672799051
 20
-0.0469227172
 30
0.0
  0
VERTEX
  5
F633
  8
0
  6
CONTINUOUS
 10
0.0385377966
 20
0.0588949881
 30
0.0
  0
SEQEND
  5
F634
  8
0
  6
CONTINUOUS
  0
POLYLINE
  5
3ABA
  8
0
  6
CONTINUOUS
 66
     1
 10
0.0
 20
0.0
 30
0.0
  0
VERTEX
  5
F635
  8
0
  6
CONTINUOUS
 10
-0.0579111986
 20
-0.051696144
 30
0.0
  0
VERTEX
  5
F636
  8
0
  6
CONTINUOUS
 10
0.049676653
 20
0.0558917075
 30
0.0
  0
SEQEND
  5
F637
  8
0
  6
CONTINUOUS
  0
POLYLINE
  5
3ABB
  8
0
  6
CONTINUOUS
 66
     1
 10
0.0
 20
0.0
 30
0.0
  0
VERTEX
  5
F638
  8
0
  6
CONTINUOUS
 10
-0.0485424921
 20
-0.0564695708
 30
0.0
  0
VERTEX
  5
F639
  8
0
  6
CONTINUOUS
 10
0.0590453595
 20
0.0511182807
 30
0.0
  0
SEQEND
  5
F63A
  8
0
  6
CONTINUOUS
  0
POLYLINE
  5
3ABC
  8
0
  6
CONTINUOUS
 66
     1
 10
0.0
 20
0.0
 30
0.0
  0
VERTEX
  5
F63B
  8
0
  6
CONTINUOUS
 10
-0.0371572115
 20
-0.0592264272
 30
0.0
  0
VERTEX
  5
F63C
  8
0
  6
CONTINUOUS
 10
0.0684140697
 20
0.0463448539
 30
0.0
  0
SEQEND
  5
F63D
  8
0
  6
CONTINUOUS
  0
POLYLINE
  5
3ABD
  8
0
  6
CONTINUOUS
 66
     1
 10
0.0
 20
0.0
 30
0.0
  0
VERTEX
  5
F63E
  8
0
  6
CONTINUOUS
 10
-0.0257529188
 20
-0.0619642697
 30
0.0
  0
VERTEX
  5
F63F
  8
0
  6
CONTINUOUS
 10
0.0777815506
 20
0.0415701978
 30
0.0
  0
SEQEND
  5
F640
  8
0
  6
CONTINUOUS
  0
POLYLINE
  5
3ABE
  8
0
  6
CONTINUOUS
 66
     1
 10
0.0
 20
0.0
 30
0.0
  0
VERTEX
  5
F641
  8
0
  6
CONTINUOUS
 10
-0.0138430092
 20
-0.0641964972
 30
0.0
  0
VERTEX
  5
F642
  8
0
  6
CONTINUOUS
 10
0.0848527178
 20
0.0344992317
 30
0.0
  0
SEQEND
  5
F643
  8
0
  6
CONTINUOUS
  0
POLYLINE
  5
3ABF
  8
0
  6
CONTINUOUS
 66
     1
 10
0.0
 20
0.0
 30
0.0
  0
VERTEX
  5
F644
  8
0
  6
CONTINUOUS
 10
0.0002991263
 20
-0.0641964972
 30
0.0
  0
VERTEX
  5
F645
  8
0
  6
CONTINUOUS
 10
0.0917786211
 20
0.0272829998
 30
0.0
  0
SEQEND
  5
F646
  8
0
  6
CONTINUOUS
  0
POLYLINE
  5
3AC0
  8
0
  6
CONTINUOUS
 66
     1
 10
0.0
 20
0.0
 30
0.0
  0
VERTEX
  5
F647
  8
0
  6
CONTINUOUS
 10
0.014441262
 20
-0.0641964972
 30
0.0
  0
VERTEX
  5
F648
  8
0
  6
CONTINUOUS
 10
0.0959208161
 20
0.0172830578
 30
0.0
  0
SEQEND
  5
F649
  8
0
  6
CONTINUOUS
  0
POLYLINE
  5
3AC1
  8
0
  6
CONTINUOUS
 66
     1
 10
0.0
 20
0.0
 30
0.0
  0
VERTEX
  5
F64A
  8
0
  6
CONTINUOUS
 10
0.0324149951
 20
-0.0603648983
 30
0.0
  0
VERTEX
  5
F64B
  8
0
  6
CONTINUOUS
 10
0.0990392268
 20
0.0062593385
 30
0.0
  0
SEQEND
  5
F64C
  8
0
  6
CONTINUOUS
  0
POLYLINE
  5
3AC2
  8
0
  6
CONTINUOUS
 66
     1
 10
0.0
 20
0.0
 30
0.0
  0
VERTEX
  5
F64D
  8
0
  6
CONTINUOUS
 10
0.0524364598
 20
-0.0544855669
 30
0.0
  0
VERTEX
  5
F64E
  8
0
  6
CONTINUOUS
 10
0.0990392268
 20
-0.0078827972
 30
0.0
  0
SEQEND
  5
F64F
  8
0
  6
CONTINUOUS
  0
ENDBLK
  5
3AC4
  8
0
  0
BLOCK
  8
0
  2
*U37
 70
     1
 10
0.0
 20
0.0
 30
0.0
  3
*U37
  1

  0
TEXT
  5
F651
  8
AM_5
 62
     0
 10
204.06498888369049
 20
1216.177924329402
 30
0.0
 40
18.288
  1
R1.99
  0
ENDBLK
  5
F653
  8
0
  0
BLOCK
  8
0
  2
*U38
 70
     1
 10
0.0
 20
0.0
 30
0.0
  3
*U38
  1

  0
TEXT
  5
F655
  8
AM_5
 62
     0
 10
879.00574297724313
 20
1742.0780482173759
 30
0.0
 40
18.288
  1
4.00
  0
ENDBLK
  5
F657
  8
0
  0
BLOCK
  8
0
  2
*U39
 70
     1
 10
0.0
 20
0.0
 30
0.0
  3
*U39
  1

  0
TEXT
  5
F659
  8
AM_5
 62
     0
 10
702.16756131931822
 20
1742.0780482173759
 30
0.0
 40
18.288
  1
2.00
  0
ENDBLK
  5
F65B
  8
0
  0
BLOCK
  8
0
  2
*U40
 70
     1
 10
0.0
 20
0.0
 30
0.0
  3
*U40
  1

  0
TEXT
  5
F65D
  8
AM_5
 62
     0
 10
980.60574301534371
 20
1742.078048217375
 30
0.0
 40
18.288
  1
4.00
  0
ENDBLK
  5
F65F
  8
0
  0
BLOCK
  8
0
  2
*U41
 70
     1
 10
0.0
 20
0.0
 30
0.0
  3
*U41
  1

  0
TEXT
  5
F661
  8
DIM
 62
     0
 10
777.40574293914324
 20
1742.0780482173759
 30
0.0
 40
18.288
  1
4.00
  0
ENDBLK
  5
F663
  8
0
  0
BLOCK
  8
0
  2
*U42
 70
     1
 10
0.0
 20
0.0
 30
0.0
  3
*U42
  1

  0
TEXT
  5
F665
  8
AM_5
 62
     0
 10
385.36675523436298
 20
1404.5409885294359
 30
0.0
 40
18.288
  1
2-%%C3.875%%P.125
  0
ENDBLK
  5
F667
  8
0
  0
BLOCK
  8
0
  2
*U43
 70
     1
 10
0.0
 20
0.0
 30
0.0
  3
*U43
  1

  0
TEXT
  5
F669
  8
AM_5
 62
     0
 10
1284.503008579667
 20
1457.122437306537
 30
0.0
 40
18.288
  1
18.53
  0
ENDBLK
  5
F66B
  8
0
  0
BLOCK
  8
0
  2
*U44
 70
     1
 10
0.0
 20
0.0
 30
0.0
  3
*U44
  1

  0
TEXT
  5
F66D
  8
AM_5
 62
     0
 10
1191.2287965725079
 20
1337.3337198024949
 30
0.0
 40
18.288
  1
9.27
  0
ENDBLK
  5
F66F
  8
0
  0
BLOCK
  8
0
  2
*U45
 70
     1
 10
0.0
 20
0.0
 30
0.0
  3
*U45
  1

  0
TEXT
  5
F671
  8
DIM
 62
     0
 10
1190.650788700184
 20
1539.5039066286829
 30
0.0
 40
18.288
  1
7.25
  0
ENDBLK
  5
F673
  8
0
  0
BLOCK
  8
0
  2
*U46
 70
     1
 10
0.0
 20
0.0
 30
0.0
  3
*U46
  1

  0
TEXT
  5
F675
  8
DIM
 62
     0
 10
1133.0421553302849
 20
1423.0808287501809
 30
0.0
 40
18.288
  1
0.75
  0
ENDBLK
  5
F677
  8
0
  0
BLOCK
  8
0
  2
*U47
 70
     1
 10
0.0
 20
0.0
 30
0.0
  3
*U47
  1

  0
TEXT
  5
F679
  8
DIM
 62
     0
 10
181.0421958585689
 20
1497.062976365695
 30
0.0
 40
18.288
  1
3.31
  0
ENDBLK
  5
F67B
  8
0
  0
BLOCK
  8
0
  2
*U48
 70
     1
 10
0.0
 20
0.0
 30
0.0
  3
*U48
  1

  0
TEXT
  5
F67D
  8
DIM
 62
     0
 10
768.87215087877473
 20
1828.0872574475991
 30
0.0
 40
18.288
  1
7.19
  0
ENDBLK
  5
F67F
  8
0
  0
BLOCK
  8
0
  2
*U49
 70
     1
 10
0.0
 20
0.0
 30
0.0
  3
*U49
  1

  0
TEXT
  5
F681
  8
DIM
 62
     0
 10
629.71769313161815
 20
1741.8214700582871
 30
0.0
 40
18.288
  1
3.81
  0
ENDBLK
  5
F683
  8
0
  0
BLOCK
  8
0
  2
*U50
 70
     1
 10
0.0
 20
0.0
 30
0.0
  3
*U50
  1

  0
TEXT
  5
F685
  8
AM_5
 62
     0
 10
887.56579661469004
 20
1867.418427739595
 30
0.0
 40
18.288
  1
16.5
  0
ENDBLK
  5
F687
  8
0
  0
BLOCK
  8
0
  2
*U51
 70
     1
 10
0.0
 20
0.0
 30
0.0
  3
*U51
  1

  0
TEXT
  5
F689
  8
AM_5
 62
     0
 10
1563.1639562608209
 20
1741.441629534957
 30
0.0
 40
18.288
  1
8.72
  0
ENDBLK
  5
F68B
  8
0
  0
BLOCK
  8
0
  2
*U52
 70
     1
 10
0.0
 20
0.0
 30
0.0
  3
*U52
  1

  0
TEXT
  5
F68D
  8
AM_5
 62
     0
 10
1827.597100104299
 20
1482.600276027666
 30
0.0
 40
18.288
  1
0.42
  0
ENDBLK
  5
F68F
  8
0
  0
BLOCK
  8
0
  2
*U53
 70
     1
 10
0.0
 20
0.0
 30
0.0
  3
*U53
  1

  0
TEXT
  5
F691
  8
AM_5
 62
     0
 10
1950.6952369773439
 20
1352.5761852775181
 30
0.0
 40
18.288
  1
2.36
  0
ENDBLK
  5
F693
  8
0
  0
BLOCK
  8
0
  2
*U54
 70
     1
 10
0.0
 20
0.0
 30
0.0
  3
*U54
  1

  0
TEXT
  5
F695
  8
AM_5
 62
     0
 10
1950.6952369773439
 20
1412.576185298868
 30
0.0
 40
18.288
  1
2.36
  0
ENDBLK
  5
F697
  8
0
  0
BLOCK
  8
0
  2
*U55
 70
     1
 10
0.0
 20
0.0
 30
0.0
  3
*U55
  1

  0
TEXT
  5
F699
  8
AM_5
 62
     0
 10
2005.691907129913
 20
1486.832291992019
 30
0.0
 40
18.288
  1
0.49
  0
ENDBLK
  5
F69B
  8
0
  0
BLOCK
  8
0
  2
*U56
 70
     1
 10
0.0
 20
0.0
 30
0.0
  3
*U56
  1

  0
TEXT
  5
F69D
  8
AM_5
 62
     0
 10
2042.3246305990669
 20
1236.6451120046929
 30
0.0
 40
18.288
  1
3-\U+22050.39
  0
ENDBLK
  5
F69F
  8
0
  0
BLOCK
  8
0
  2
*U57
 70
     1
 10
0.0
 20
0.0
 30
0.0
  3
*U57
  1

  0
TEXT
  5
F6A1
  8
AM_5
 62
     0
 10
1934.36401345015
 20
1202.333579281968
 30
0.0
 40
18.288
  1
4.69
  0
ENDBLK
  5
F6A3
  8
0
  0
BLOCK
  8
0
  2
*U58
 70
     1
 10
0.0
 20
0.0
 30
0.0
  3
*U58
  1

  0
TEXT
  5
F6A5
  8
AM_5
 62
     0
 10
1234.5647338174131
 20
1423.283441624066
 30
0.0
 40
18.288
  1
(12.9)
  0
ENDBLK
  5
F6A7
  8
0
  0
BLOCK
  8
0
  2
*U59
 70
     1
 10
0.0
 20
0.0
 30
0.0
  3
*U59
  1

  0
TEXT
  5
F6A9
  8
AM_5
 62
     0
 10
104.2213760269338
 20
1455.3980917883371
 30
0.0
 40
18.288
  1
(15.5)
  0
ENDBLK
  5
F6AB
  8
0
  0
BLOCK
  8
0
  2
*U60
 70
     1
 10
0.0
 20
0.0
 30
0.0
  3
*U60
  1

  0
TEXT
  5
F6AD
  8
AM_5
 62
     0
 10
690.39381169610647
 20
1911.9781568616779
 30
0.0
 40
18.288
  1
33
  0
ENDBLK
  5
F6AF
  8
0
  0
BLOCK
  8
0
  2
*U61
 70
     1
 10
0.0
 20
0.0
 30
0.0
  3
*U61
  1

  0
TEXT
  5
F6B1
  8
AM_5
 62
     0
 10
1141.054694572131
 20
847.73836476561485
 30
0.0
 40
18.288
  1
8.62
  0
ENDBLK
  5
F6B3
  8
0
  0
BLOCK
  8
0
  2
*U62
 70
     1
 10
0.0
 20
0.0
 30
0.0
  3
*U62
  1

  0
TEXT
  5
F6B5
  8
AM_5
 62
     0
 10
890.62499607285974
 20
1023.827517482679
 30
0.0
 40
18.288
  1
(12.24)
  0
ENDBLK
  5
F6B7
  8
0
  0
BLOCK
  8
0
  2
*U63
 70
     1
 10
0.0
 20
0.0
 30
0.0
  3
*U63
  1

  0
TEXT
  5
F6B9
  8
AM_5
 62
     0
 10
483.92766237787231
 20
1023.827517482679
 30
0.0
 40
18.288
  1
(15.62)
  0
ENDBLK
  5
F6BB
  8
0
  0
BLOCK
  8
0
  2
*U64
 70
     1
 10
0.0
 20
0.0
 30
0.0
  3
*U64
  1

  0
TEXT
  5
F6BD
  8
AM_5
 62
     0
 10
1608.8893457887621
 20
995.07183087227338
 30
0.0
 40
18.288
  1
0.56
  0
ENDBLK
  5
F6BF
  8
0
  0
BLOCK
  8
0
  2
*U65
 70
     1
 10
0.0
 20
0.0
 30
0.0
  3
*U65
  1

  0
TEXT
  5
F6C1
  8
AM_5
 62
     0
 10
1531.5189088334751
 20
1043.7373526723111
 30
0.0
 40
18.288
  1
R0.62
  0
ENDBLK
  5
F6C3
  8
0
  0
BLOCK
  8
0
  2
*U66
 70
     1
 10
0.0
 20
0.0
 30
0.0
  3
*U66
  1

  0
TEXT
  5
F6C5
  8
AM_5
 62
     0
 10
1436.1616549535249
 20
676.60971296317734
 30
0.0
 40
18.288
  1
20¡ã
  0
ENDBLK
  5
F6C7
  8
0
  0
BLOCK
  8
0
  2
*U67
 70
     1
 10
0.0
 20
0.0
 30
0.0
  3
*U67
  1

  0
TEXT
  5
F6C9
  8
AM_5
 62
     0
 10
1310.4715136741149
 20
644.23198233515222
 30
0.0
 40
18.288
  1
%%C1.7 MAX
  0
ENDBLK
  5
F6CB
  8
0
  0
BLOCK
  8
0
  2
*U68
 70
     1
 10
0.0
 20
0.0
 30
0.0
  3
*U68
  1

  0
TEXT
  5
F6CD
  8
AM_5
 62
     0
 10
1546.281285920214
 20
759.45718033488697
 30
0.0
 40
18.288
  1
4-1.375%%P.125
  0
TEXT
  5
F6CE
  8
AM_5
 62
     0
 10
1500.790867573065
 20
728.97718033488695
 30
0.0
 40
18.288
  1
SEE TABLE FOR GD&T
  0
ENDBLK
  5
F6D0
  8
0
  0
BLOCK
  8
0
  2
*U69
 70
     1
 10
0.0
 20
0.0
 30
0.0
  3
*U69
  1

  0
TEXT
  5
F6D2
  8
AM_5
 62
     0
 10
1490.3308729118021
 20
850.36238729325817
 30
0.0
 40
18.288
  1
0.3
  0
ENDBLK
  5
F6D4
  8
0
  0
BLOCK
  8
0
  2
*U70
 70
     1
 10
0.0
 20
0.0
 30
0.0
  3
*U70
  1

  0
TEXT
  5
F6D6
  8
AM_5
 62
     0
 10
1113.465577408525
 20
889.15578266066689
 30
0.0
 40
18.288
  1
0.3
  0
ENDBLK
  5
F6D8
  8
0
  0
BLOCK
  8
0
  2
*U71
 70
     1
 10
0.0
 20
0.0
 30
0.0
  3
*U71
  1

  0
TEXT
  5
F6DA
  8
AM_5
 62
     0
 10
1597.3868960339221
 20
1022.665741992183
 30
0.0
 40
18.288
  1
0.42
  0
ENDBLK
  5
F6DC
  8
0
  0
ENDSEC
  0
SECTION
  2
ENTITIES
  0
CIRCLE
  5
22A4
  8
0
  6
CONTINUOUS
 62
     7
 10
583.67661166249115
 20
1530.5414849410749
 30
0.0
 40
49.220398028399998
  0
LINE
  5
22A5
  8
0
  6
CONTINUOUS
 62
     7
 10
1049.5460645800911
 20
1211.0829718146749
 30
0.0
 11
311.37790509259111
 21
1211.0829718146749
 31
0.0
  0
POLYLINE
  5
22A7
  8
0
  6
CONTINUOUS
 62
     7
 66
     1
 10
0.0
 20
0.0
 30
0.0
  0
VERTEX
  5
F5C0
  8
0
  6
CONTINUOUS
 62
     7
 10
323.0548761378912
 20
1247.580848996575
 30
0.0
  0
VERTEX
  5
F5C1
  8
0
  6
CONTINUOUS
 62
     7
 10
444.94011313909101
 20
1247.6710751559749
 30
0.0
  0
VERTEX
  5
F5C2
  8
0
  6
CONTINUOUS
 62
     7
 10
560.06890538549123
 20
1247.7125225838749
 30
0.0
  0
VERTEX
  5
F5C3
  8
0
  6
CONTINUOUS
 62
     7
 10
672.75260777989115
 20
1247.6955435728751
 30
0.0
  0
SEQEND
  5
F5C4
  8
0
  6
CONTINUOUS
 62
     7
  0
POLYLINE
  5
22B7
  8
0
  6
CONTINUOUS
 62
     7
 66
     1
 10
0.0
 20
0.0
 30
0.0
  0
VERTEX
  5
F5C5
  8
0
  6
CONTINUOUS
 62
     7
 10
697.89529923939085
 20
1532.2489602281751
 30
0.0
  0
VERTEX
  5
F5C6
  8
0
  6
CONTINUOUS
 62
     7
 10
694.26156234889106
 20
1554.6350032512751
 30
0.0
  0
VERTEX
  5
F5C7
  8
0
  6
CONTINUOUS
 62
     7
 10
686.51058360399099
 20
1575.9467767947749
 30
0.0
  0
VERTEX
  5
F5C8
  8
0
  6
CONTINUOUS
 62
     7
 10
674.91258004109113
 20
1595.437360152875
 30
0.0
  0
VERTEX
  5
F5C9
  8
0
  6
CONTINUOUS
 62
     7
 10
659.8801614394913
 20
1612.413452807175
 30
0.0
  0
VERTEX
  5
F5CA
  8
0
  6
CONTINUOUS
 62
     7
 10
641.94011310579106
 20
1626.2819339728751
 30
0.0
  0
VERTEX
  5
F5CB
  8
0
  6
CONTINUOUS
 62
     7
 10
621.71921248849083
 20
1636.5564376300749
 30
0.0
  0
VERTEX
  5
F5CC
  8
0
  6
CONTINUOUS
 62
     7
 10
599.93676381319108
 20
1642.871154629775
 30
0.0
  0
VERTEX
  5
F5CD
  8
0
  6
CONTINUOUS
 62
     7
 10
577.35623771449082
 20
1645.005979366975
 30
0.0
  0
SEQEND
  5
F5CE
  8
0
  6
CONTINUOUS
 62
     7
  0
LINE
  5
231E
  8
0
  6
CONTINUOUS
 62
     7
 10
311.37790509259111
 20
1681.8671621849751
 30
0.0
 11
1049.5460645800911
 21
1681.8671621849751
 31
0.0
  0
LINE
  5
232A
  8
0
  6
CONTINUOUS
 62
     7
 10
297.52866226789121
 20
1619.596006488774
 30
0.0
 11
297.53129412699121
 21
1448.393630555375
 31
0.0
  0
LINE
  5
2331
  8
0
  6
CONTINUOUS
 62
     7
 10
260.91988957499132
 20
1261.5409873322751
 30
0.0
 11
260.91988957499132
 21
1631.4091466673749
 31
0.0
  0
POLYLINE
  5
233A
  8
0
  6
CONTINUOUS
 62
     7
 66
     1
 10
0.0
 20
0.0
 30
0.0
  0
VERTEX
  5
F5CF
  8
0
  6
CONTINUOUS
 62
     7
 10
577.35623771449082
 20
1645.005979366975
 30
0.0
  0
VERTEX
  5
F5D0
  8
0
  6
CONTINUOUS
 62
     7
 10
497.33264316459082
 20
1645.0484844508751
 30
0.0
  0
VERTEX
  5
F5D1
  8
0
  6
CONTINUOUS
 62
     7
 10
323.16577164889088
 20
1645.2331158570751
 30
0.0
  0
SEQEND
  5
F5D2
  8
0
  6
CONTINUOUS
 62
     7
  0
ARC
  5
2341
  8
0
  6
CONTINUOUS
 62
     7
 10
311.37790509259111
 20
1631.4091466673749
 30
0.0
 40
50.458015517600003
 50
89.999999999999403
 51
179.9999999999996
  0
POLYLINE
  5
235A
  8
0
  6
CONTINUOUS
 62
     7
 66
     1
 10
0.0
 20
0.0
 30
0.0
  0
VERTEX
  5
F5D3
  8
0
  6
CONTINUOUS
 62
     7
 10
323.16577164889088
 20
1645.2331158570751
 30
0.0
  0
VERTEX
  5
F5D4
  8
0
  6
CONTINUOUS
 62
     7
 10
316.53618071709099
 20
1644.3530275359749
 30
0.0
  0
VERTEX
  5
F5D5
  8
0
  6
CONTINUOUS
 62
     7
 10
310.3564769601914
 20
1641.788142254275
 30
0.0
  0
VERTEX
  5
F5D6
  8
0
  6
CONTINUOUS
 62
     7
 10
305.04862746669107
 20
1637.7131505693751
 30
0.0
  0
VERTEX
  5
F5D7
  8
0
  6
CONTINUOUS
 62
     7
 10
300.9736357436912
 20
1632.4053009361751
 30
0.0
  0
VERTEX
  5
F5D8
  8
0
  6
CONTINUOUS
 62
     7
 10
298.40875053819138
 20
1626.2255972046751
 30
0.0
  0
VERTEX
  5
F5D9
  8
0
  6
CONTINUOUS
 62
     7
 10
297.52866226789121
 20
1619.596006488774
 30
0.0
  0
SEQEND
  5
F5DA
  8
0
  6
CONTINUOUS
 62
     7
  0
LINE
  5
2441
  8
0
  6
CONTINUOUS
 62
     7
 10
297.53129412699121
 20
1448.393630555375
 30
0.0
 11
297.4177667695912
 21
1273.2179583775751
 31
0.0
  0
ARC
  5
2446
  8
0
  6
CONTINUOUS
 62
     7
 10
311.37790509259111
 20
1261.5409873322751
 30
0.0
 40
50.458015517600003
 50
179.9999999999996
 51
269.99999999999977
  0
POLYLINE
  5
24A8
  8
0
  6
CONTINUOUS
 62
     7
 66
     1
 10
0.0
 20
0.0
 30
0.0
  0
VERTEX
  5
F5DB
  8
0
  6
CONTINUOUS
 62
     7
 10
297.4177667695912
 20
1273.2179583775751
 30
0.0
  0
VERTEX
  5
F5DC
  8
0
  6
CONTINUOUS
 62
     7
 10
298.29785506529117
 20
1266.5883675473749
 30
0.0
  0
VERTEX
  5
F5DD
  8
0
  6
CONTINUOUS
 62
     7
 10
300.86274030889138
 20
1260.4086638031749
 30
0.0
  0
VERTEX
  5
F5DE
  8
0
  6
CONTINUOUS
 62
     7
 10
304.93773200649122
 20
1255.1008142461751
 30
0.0
  0
VERTEX
  5
F5DF
  8
0
  6
CONTINUOUS
 62
     7
 10
310.2455815634911
 20
1251.025822535875
 30
0.0
  0
VERTEX
  5
F5E0
  8
0
  6
CONTINUOUS
 62
     7
 10
316.4252853076913
 20
1248.460937292275
 30
0.0
  0
VERTEX
  5
F5E1
  8
0
  6
CONTINUOUS
 62
     7
 10
323.0548761378912
 20
1247.580848996575
 30
0.0
  0
SEQEND
  5
F5E2
  8
0
  6
CONTINUOUS
 62
     7
  0
LINE
  5
2529
  8
0
  6
CONTINUOUS
 62
     7
 10
1100.004080097691
 20
1631.4091466673749
 30
0.0
 11
1100.004080097691
 21
1261.5409873322751
 31
0.0
  0
LINE
  5
2531
  8
0
  6
CONTINUOUS
 62
     7
 10
1063.2471384986909
 20
1465.5124301886749
 30
0.0
 11
1063.2732321218909
 21
1554.4954237234749
 31
0.0
  0
LINE
  5
2539
  8
0
  6
CONTINUOUS
 62
     7
 10
698.20807650309109
 20
1445.176897606075
 30
0.0
 11
698.16641269259105
 21
1524.1958703272751
 31
0.0
  0
POLYLINE
  5
256E
  8
0
  6
CONTINUOUS
 62
     7
 66
     1
 10
0.0
 20
0.0
 30
0.0
  0
VERTEX
  5
F5E3
  8
0
  6
CONTINUOUS
 62
     7
 10
869.39695493999091
 20
1580.002229021675
 30
0.0
  0
VERTEX
  5
F5E4
  8
0
  6
CONTINUOUS
 62
     7
 10
846.81250013439114
 20
1577.8666557464751
 30
0.0
  0
VERTEX
  5
F5E5
  8
0
  6
CONTINUOUS
 62
     7
 10
825.02652836479115
 20
1571.5497417737749
 30
0.0
  0
VERTEX
  5
F5E6
  8
0
  6
CONTINUOUS
 62
     7
 10
804.8029194089911
 20
1561.271747635875
 30
0.0
  0
VERTEX
  5
F5E7
  8
0
  6
CONTINUOUS
 62
     7
 10
786.86132500269127
 20
1547.3987344370751
 30
0.0
  0
VERTEX
  5
F5E8
  8
0
  6
CONTINUOUS
 62
     7
 10
771.82879686359092
 20
1530.417396822475
 30
0.0
  0
VERTEX
  5
F5E9
  8
0
  6
CONTINUOUS
 62
     7
 10
760.23231166189112
 20
1510.9212475115751
 30
0.0
  0
VERTEX
  5
F5EA
  8
0
  6
CONTINUOUS
 62
     7
 10
752.48457247109138
 20
1489.6040308623751
 30
0.0
  0
VERTEX
  5
F5EB
  8
0
  6
CONTINUOUS
 62
     7
 10
748.85577688389105
 20
1467.2131046003749
 30
0.0
  0
SEQEND
  5
F5EC
  8
0
  6
CONTINUOUS
 62
     7
  0
ARC
  5
257E
  8
0
  6
CONTINUOUS
 62
     7
 10
1049.5460645800911
 20
1631.4091466673749
 30
0.0
 40
50.458015517600003
 50
359.9999999999992
 51
89.999999999999403
  0
CIRCLE
  5
259D
  8
0
  6
CONTINUOUS
 62
     7
 10
731.24934803789108
 20
1630.625067069675
 30
0.0
 40
17.527263688099989
  0
CIRCLE
  5
2614
  8
0
  6
CONTINUOUS
 62
     7
 10
832.84934807599109
 20
1630.625067069675
 30
0.0
 40
17.527263688099989
  0
POLYLINE
  5
2659
  8
0
  6
CONTINUOUS
 62
     7
 66
     1
 10
0.0
 20
0.0
 30
0.0
  0
VERTEX
  5
F5ED
  8
0
  6
CONTINUOUS
 62
     7
 10
1037.6361227535911
 20
1580.132533104475
 30
0.0
  0
VERTEX
  5
F5EE
  8
0
  6
CONTINUOUS
 62
     7
 10
979.32927984249113
 20
1580.072085638375
 30
0.0
  0
VERTEX
  5
F5EF
  8
0
  6
CONTINUOUS
 62
     7
 10
869.39695493999091
 20
1580.002229021675
 30
0.0
  0
SEQEND
  5
F5F0
  8
0
  6
CONTINUOUS
 62
     7
  0
CIRCLE
  5
2661
  8
0
  6
CONTINUOUS
 62
     7
 10
934.44934811409132
 20
1630.625067069675
 30
0.0
 40
17.527263688099989
  0
CIRCLE
  5
266B
  8
0
  6
CONTINUOUS
 62
     7
 10
1036.049348152191
 20
1630.625067069675
 30
0.0
 40
17.527263688099989
  0
POLYLINE
  5
26AE
  8
0
  6
CONTINUOUS
 62
     7
 66
     1
 10
0.0
 20
0.0
 30
0.0
  0
VERTEX
  5
F5F1
  8
0
  6
CONTINUOUS
 62
     7
 10
1063.2732321218909
 20
1554.4954237234749
 30
0.0
  0
VERTEX
  5
F5F2
  8
0
  6
CONTINUOUS
 62
     7
 10
1062.393143851591
 20
1561.1250144774749
 30
0.0
  0
VERTEX
  5
F5F3
  8
0
  6
CONTINUOUS
 62
     7
 10
1059.8282586333901
 20
1567.3047182216751
 30
0.0
  0
VERTEX
  5
F5F4
  8
0
  6
CONTINUOUS
 62
     7
 10
1055.7532669230909
 20
1572.612567829475
 30
0.0
  0
VERTEX
  5
F5F5
  8
0
  6
CONTINUOUS
 62
     7
 10
1050.4454174041909
 20
1576.6875595143749
 30
0.0
  0
VERTEX
  5
F5F6
  8
0
  6
CONTINUOUS
 62
     7
 10
1044.2657136599901
 20
1579.252444783375
 30
0.0
  0
VERTEX
  5
F5F7
  8
0
  6
CONTINUOUS
 62
     7
 10
1037.6361227535911
 20
1580.132533104475
 30
0.0
  0
SEQEND
  5
F5F8
  8
0
  6
CONTINUOUS
 62
     7
  0
ARC
  5
27A1
  8
0
  6
CONTINUOUS
 62
     7
 10
1049.5460645800911
 20
1261.5409873322751
 30
0.0
 40
50.458015517600003
 50
269.99999999999977
 51
0.0
  0
CIRCLE
  5
27A3
  8
0
  6
CONTINUOUS
 62
     7
 10
863.07661177679097
 20
1465.5124301886749
 30
0.0
 40
49.220398028399998
  0
POLYLINE
  5
27A4
  8
0
  6
CONTINUOUS
 62
     7
 66
     1
 10
0.0
 20
0.0
 30
0.0
  0
VERTEX
  5
F5F9
  8
0
  6
CONTINUOUS
 62
     7
 10
774.07436208289084
 20
1247.7692899963749
 30
0.0
  0
VERTEX
  5
F5FA
  8
0
  6
CONTINUOUS
 62
     7
 10
860.66995844939095
 20
1247.7932214318751
 30
0.0
  0
VERTEX
  5
F5FB
  8
0
  6
CONTINUOUS
 62
     7
 10
946.9648754959909
 20
1247.7718518530751
 30
0.0
  0
VERTEX
  5
F5FC
  8
0
  6
CONTINUOUS
 62
     7
 10
1037.7138423974909
 20
1247.7108265115739
 30
0.0
  0
SEQEND
  5
F5FD
  8
0
  6
CONTINUOUS
 62
     7
  0
POLYLINE
  5
27AE
  8
0
  6
CONTINUOUS
 62
     7
 66
     1
 10
0.0
 20
0.0
 30
0.0
  0
VERTEX
  5
F5FE
  8
0
  6
CONTINUOUS
 62
     7
 10
748.58681293109078
 20
1459.1920870127749
 30
0.0
  0
VERTEX
  5
F5FF
  8
0
  6
CONTINUOUS
 62
     7
 10
748.56079972429154
 20
1400.0089154631751
 30
0.0
  0
VERTEX
  5
F600
  8
0
  6
CONTINUOUS
 62
     7
 10
748.43725271459095
 20
1273.406399377375
 30
0.0
  0
SEQEND
  5
F601
  8
0
  6
CONTINUOUS
 62
     7
  0
LINE
  5
27B7
  8
0
  6
CONTINUOUS
 62
     7
 10
698.38971714819104
 20
1273.3326529538749
 30
0.0
 11
698.20807650309109
 21
1445.176897606075
 31
0.0
  0
POLYLINE
  5
2933
  8
0
  6
CONTINUOUS
 62
     7
 66
     1
 10
0.0
 20
0.0
 30
0.0
  0
VERTEX
  5
F602
  8
0
  6
CONTINUOUS
 62
     7
 10
672.75260777989115
 20
1247.6955435728751
 30
0.0
  0
VERTEX
  5
F603
  8
0
  6
CONTINUOUS
 62
     7
 10
679.38219849579082
 20
1248.575631843175
 30
0.0
  0
VERTEX
  5
F604
  8
0
  6
CONTINUOUS
 62
     7
 10
685.56190222729094
 20
1251.1405170486751
 30
0.0
  0
VERTEX
  5
F605
  8
0
  6
CONTINUOUS
 62
     7
 10
690.86975186049096
 20
1255.2155087716751
 30
0.0
  0
VERTEX
  5
F606
  8
0
  6
CONTINUOUS
 62
     7
 10
694.94474354539125
 20
1260.5233582651749
 30
0.0
  0
VERTEX
  5
F607
  8
0
  6
CONTINUOUS
 62
     7
 10
697.50962882709086
 20
1266.7030620220751
 30
0.0
  0
VERTEX
  5
F608
  8
0
  6
CONTINUOUS
 62
     7
 10
698.38971714819104
 20
1273.3326529538749
 30
0.0
  0
SEQEND
  5
F609
  8
0
  6
CONTINUOUS
 62
     7
  0
POLYLINE
  5
2A8B
  8
0
  6
CONTINUOUS
 62
     7
 66
     1
 10
0.0
 20
0.0
 30
0.0
  0
VERTEX
  5
F60A
  8
0
  6
CONTINUOUS
 62
     7
 10
748.43725271459095
 20
1273.406399377375
 30
0.0
  0
VERTEX
  5
F60B
  8
0
  6
CONTINUOUS
 62
     7
 10
749.31734103569136
 20
1266.7768084582749
 30
0.0
  0
VERTEX
  5
F60C
  8
0
  6
CONTINUOUS
 62
     7
 10
751.88222630469124
 20
1260.5971047140749
 30
0.0
  0
VERTEX
  5
F60D
  8
0
  6
CONTINUOUS
 62
     7
 10
755.95721798959107
 20
1255.2892552078749
 30
0.0
  0
VERTEX
  5
F60E
  8
0
  6
CONTINUOUS
 62
     7
 10
761.26506761009148
 20
1251.2142634848749
 30
0.0
  0
VERTEX
  5
F60F
  8
0
  6
CONTINUOUS
 62
     7
 10
767.44477134159115
 20
1248.6493782666751
 30
0.0
  0
VERTEX
  5
F610
  8
0
  6
CONTINUOUS
 62
     7
 10
774.07436208289084
 20
1247.7692899963749
 30
0.0
  0
SEQEND
  5
F611
  8
0
  6
CONTINUOUS
 62
     7
  0
POLYLINE
  5
2A9A
  8
0
  6
CONTINUOUS
 62
     7
 66
     1
 10
0.0
 20
0.0
 30
0.0
  0
VERTEX
  5
F612
  8
0
  6
CONTINUOUS
 62
     7
 10
1063.350951765791
 20
1273.347935879875
 30
0.0
  0
VERTEX
  5
F613
  8
0
  6
CONTINUOUS
 62
     7
 10
1063.2966467435911
 20
1339.8040076029749
 30
0.0
  0
VERTEX
  5
F614
  8
0
  6
CONTINUOUS
 62
     7
 10
1063.2471384986909
 20
1465.5124301886749
 30
0.0
  0
SEQEND
  5
F615
  8
0
  6
CONTINUOUS
 62
     7
  0
POLYLINE
  5
2B54
  8
0
  6
CONTINUOUS
 62
     7
 66
     1
 10
0.0
 20
0.0
 30
0.0
  0
VERTEX
  5
F616
  8
0
  6
CONTINUOUS
 62
     7
 10
1037.7138423974909
 20
1247.7108265115739
 30
0.0
  0
VERTEX
  5
F617
  8
0
  6
CONTINUOUS
 62
     7
 10
1044.3434332149909
 20
1248.5909147945749
 30
0.0
  0
VERTEX
  5
F618
  8
0
  6
CONTINUOUS
 62
     7
 10
1050.5231369591911
 20
1251.1558000381749
 30
0.0
  0
VERTEX
  5
F619
  8
0
  6
CONTINUOUS
 62
     7
 10
1055.8309865161909
 20
1255.230791748475
 30
0.0
  0
VERTEX
  5
F61A
  8
0
  6
CONTINUOUS
 62
     7
 10
1059.905978226491
 20
1260.5386412927751
 30
0.0
  0
VERTEX
  5
F61B
  8
0
  6
CONTINUOUS
 62
     7
 10
1062.470863470091
 20
1266.7183450369751
 30
0.0
  0
VERTEX
  5
F61C
  8
0
  6
CONTINUOUS
 62
     7
 10
1063.350951765791
 20
1273.347935879875
 30
0.0
  0
SEQEND
  5
F61D
  8
0
  6
CONTINUOUS
 62
     7
  0
LINE
  5
F4B6
  8
0
  6
CONTINUOUS
 62
     7
 10
748.58681293109078
 20
1459.1920870127749
 30
0.0
 11
748.85577688389105
 21
1467.2131046003749
 31
0.0
  0
LINE
  5
F4B7
  8
0
  6
CONTINUOUS
 62
     7
 10
698.16641269259105
 20
1524.1958703272751
 30
0.0
 11
697.89529923939085
 21
1532.2489602281751
 31
0.0
  0
VIEWPORT
  5
3AAE
 67
     1
  8
AM_VIEWS
 10
638.83267427045303
 20
500.03693920964309
 30
0.0
 40
1769.735332919344
 41
1022.236235647968
 68
     1
 69
     1
1001
ACAD
1000
MVIEW
1002
{
1070
    16
1010
0.0
1020
0.0
1030
0.0
1010
0.0
1020
0.0
1030
1.0
1040
0.0
1040
1022.236235647968
1040
638.83267427045303
1040
500.03693920964309
1040
50.0
1040
0.0
1040
0.0
1070
     0
1070
   100
1070
     1
1070
     1
1070
     0
1070
     0
1070
     0
1070
     0
1040
0.0
1040
0.0
1040
0.0
1040
10.0
1040
10.0
1040
10.0
1040
10.0
1070
     0
1002
{
1002
}
1002
}
1001
GENIUS_GENOBJ-N-SDF_13
1002
{
1000
OWNER
1000
GEN
1002
}
1001
GENIUS_GENODEF_13
1002
{
1000
HIER
1070
     0
1002
}
1002
{
1000
MANEDIT
1070
     0
1002
}
1002
{
1000
NOSEL
1070
     0
1002
}
1002
{
1000
BEHIND
1070
     0
1002
}
1002
{
1000
OTHER
1070
     0
1002
}
1002
{
1000
REACTOR
1002
}
1001
GENIUS_GENSCREG_15
1000
PF
1040
1.0
1000
DF
1040
1.0
1000
MIN
1011
-246.03499218921911
1021
-0.0
1031
0.0
1021
-11.081178614340841
1031
0.0
1000
MAX
1011
1523.7003407301249
1021
-0.0
1031
0.0
1021
1011.155057033627
1031
0.0
1000
FLAGS
1070
     2
  0
ENDSEC
  0
EOF
