  0
SECTION
  2
HEADER
  9
$ACADVER
  1
AC1009
  9
$INSBASE
 10
0.0
 20
0.0
 30
0.0
  9
$EXTMIN
 10
307.50235616275461
 20
750.69238317385305
 30
0.0
  9
$EXTMAX
 10
1145.7023561627859
 20
974.79658543953485
 30
0.0
  9
$LIMMIN
 10
0.0
 20
0.0
  9
$LIMMAX
 10
23.3858267717
 20
16.535433070900002
  9
$ORTHOMODE
 70
     1
  9
$REGENMODE
 70
     1
  9
$FILLMODE
 70
     1
  9
$QTEXTMODE
 70
     0
  9
$MIRRTEXT
 70
     1
  9
$DRAGMODE
 70
     2
  9
$LTSCALE
 40
18.0
  9
$OSMODE
 70
    39
  9
$ATTMODE
 70
     1
  9
$TEXTSIZE
 40
10.0
  9
$TRACEWID
 40
0.05
  9
$TEXTSTYLE
  7
STANDARD
  9
$CLAYER
  8
AM_6
  9
$CELTYPE
  6
BYLAYER
  9
$CECOLOR
 62
   256
  9
$DIMSCALE
 40
101.59999999999999
  9
$DIMASZ
 40
0.1875
  9
$DIMEXO
 40
0.0
  9
$DIMDLI
 40
0.8886614172999999
  9
$DIMRND
 40
0.0
  9
$DIMDLE
 40
0.0
  9
$DIMEXE
 40
0.04209448819
  9
$DIMTP
 40
0.0
  9
$DIMTM
 40
0.0
  9
$DIMTXT
 40
0.18
  9
$DIMCEN
 40
0.0
  9
$DIMTSZ
 40
0.0
  9
$DIMTOL
 70
     0
  9
$DIMLIM
 70
     0
  9
$DIMTIH
 70
     1
  9
$DIMTOH
 70
     1
  9
$DIMSE1
 70
     0
  9
$DIMSE2
 70
     0
  9
$DIMTAD
 70
     0
  9
$DIMZIN
 70
     8
  9
$DIMBLK
  1

  9
$DIMASO
 70
     1
  9
$DIMSHO
 70
     1
  9
$DIMPOST
  1

  9
$DIMAPOST
  1

  9
$DIMALT
 70
     0
  9
$DIMALTD
 70
     2
  9
$DIMALTF
 40
25.399999999999999
  9
$DIMLFAC
 40
1.0
  9
$DIMTOFL
 70
     0
  9
$DIMTVP
 40
0.0
  9
$DIMTIX
 70
     0
  9
$DIMSOXD
 70
     0
  9
$DIMSAH
 70
     0
  9
$DIMBLK1
  1

  9
$DIMBLK2
  1

  9
$DIMSTYLE
  2
STANDARD
  9
$DIMCLRD
 70
     0
  9
$DIMCLRE
 70
     0
  9
$DIMCLRT
 70
     0
  9
$DIMTFAC
 40
1.0
  9
$DIMGAP
 40
0.09
  9
$LUNITS
 70
     2
  9
$LUPREC
 70
     4
  9
$SKETCHINC
 40
0.1
  9
$FILLETRAD
 40
0.0
  9
$AUNITS
 70
     0
  9
$AUPREC
 70
     0
  9
$MENU
  1
acad
  9
$ELEVATION
 40
0.0
  9
$PELEVATION
 40
0.0
  9
$THICKNESS
 40
0.0
  9
$LIMCHECK
 70
     0
  9
$BLIPMODE
 70
     0
  9
$CHAMFERA
 40
0.0
  9
$CHAMFERB
 40
0.0
  9
$SKPOLY
 70
     0
  9
$TDCREATE
 40
2452772.6290214472
  9
$TDUPDATE
 40
2454629.4934294331
  9
$TDINDWG
 40
0.5028860648
  9
$TDUSRTIMER
 40
0.5028860648
  9
$USRTIMER
 70
     1
  9
$ANGBASE
 50
0.0
  9
$ANGDIR
 70
     0
  9
$PDMODE
 70
     0
  9
$PDSIZE
 40
0.0
  9
$PLINEWID
 40
0.0
  9
$COORDS
 70
     1
  9
$SPLFRAME
 70
     0
  9
$SPLINETYPE
 70
     6
  9
$SPLINESEGS
 70
     8
  9
$ATTDIA
 70
     0
  9
$ATTREQ
 70
     1
  9
$HANDLING
 70
     1
  9
$HANDSEED
  5
1D438
  9
$SURFTAB1
 70
     6
  9
$SURFTAB2
 70
     6
  9
$SURFTYPE
 70
     6
  9
$SURFU
 70
     6
  9
$SURFV
 70
     6
  9
$UCSNAME
  2

  9
$UCSORG
 10
0.0
 20
0.0
 30
0.0
  9
$UCSXDIR
 10
1.0
 20
0.0
 30
0.0
  9
$UCSYDIR
 10
0.0
 20
1.0
 30
0.0
  9
$PUCSNAME
  2

  9
$PUCSORG
 10
0.0
 20
0.0
 30
0.0
  9
$PUCSXDIR
 10
1.0
 20
0.0
 30
0.0
  9
$PUCSYDIR
 10
0.0
 20
1.0
 30
0.0
  9
$USERI1
 70
     0
  9
$USERI2
 70
     0
  9
$USERI3
 70
     0
  9
$USERI4
 70
     0
  9
$USERI5
 70
     0
  9
$USERR1
 40
0.0
  9
$USERR2
 40
0.0
  9
$USERR3
 40
0.0
  9
$USERR4
 40
0.0
  9
$USERR5
 40
0.0
  9
$WORLDVIEW
 70
     1
  9
$SHADEDGE
 70
     3
  9
$SHADEDIF
 70
    70
  9
$TILEMODE
 70
     1
  9
$MAXACTVP
 70
    16
  9
$PLIMCHECK
 70
     0
  9
$PEXTMIN
 10
1.0000000000000000E+020
 20
1.0000000000000000E+020
 30
1.0000000000000000E+020
  9
$PEXTMAX
 10
-1.0000000000000000E+020
 20
-1.0000000000000000E+020
 30
-1.0000000000000000E+020
  9
$PLIMMIN
 10
-0.2500002402958907
 20
-0.2499999962453767
  9
$PLIMMAX
 10
10.74999951940821
 20
8.2499997634587316
  9
$UNITMODE
 70
     0
  9
$VISRETAIN
 70
     0
  9
$PLINEGEN
 70
     1
  9
$PSLTSCALE
 70
     0
  0
ENDSEC
  0
SECTION
  2
TABLES
  0
TABLE
  2
VPORT
 70
     1
  0
VPORT
  2
*ACTIVE
 70
     0
 10
0.0
 20
0.0
 11
1.0
 21
1.0
 12
726.60563988868319
 22
862.74912296491254
 13
0.0
 23
0.0
 14
1.0
 24
1.0
 15
0.0
 25
0.0
 16
0.0
 26
0.0
 36
1.0
 17
0.0
 27
0.0
 37
0.0
 40
552.480152196782
 41
1.5250965250965249
 42
50.0
 43
0.0
 44
0.0
 50
0.0
 51
0.0
 71
     0
 72
   100
 73
     1
 74
     1
 75
     0
 76
     0
 77
     0
 78
     0
  0
ENDTAB
  0
TABLE
  2
LTYPE
 70
    17
  0
LTYPE
  2
CONTINUOUS
 70
     0
  3
Solid line
 72
    65
 73
     0
 40
0.0
  0
LTYPE
  2
CENTER
 70
     0
  3
____ _ ____ _ ____ _ ____ _ ____ _ ____ _ ____
 72
    65
 73
     4
 40
0.6
 49
0.375
 49
-0.075
 49
0.075
 49
-0.075
  0
LTYPE
  2
HIDDEN
 70
     0
  3
- - - - - - - - - - - - - - - - - - - -
 72
    65
 73
     2
 40
0.2
 49
0.1
 49
-0.1
  0
LTYPE
  2
PHANTOM
 70
     0
  3
_____ _ _ _____ _ _ _____ _ _ _____
 72
    65
 73
     6
 40
0.8
 49
0.45
 49
-0.05
 49
0.1
 49
-0.05
 49
0.1
 49
-0.05
  0
LTYPE
  2
AMCONSTR
 70
     0
  3
_______________________
 72
    65
 73
     2
 40
9999.0
 49
9999.0
 49
0.0
  0
LTYPE
  2
PHANTOM2
 70
     0
  3
Phantom (.5x) ___ _ _ ___ _ _ ___ _ _ ___ _ _
 72
    65
 73
     6
 40
1.25
 49
0.625
 49
-0.125
 49
0.125
 49
-0.125
 49
0.125
 49
-0.125
  0
LTYPE
  2
CENTER2
 70
     0
  3
Center (.5x) ___ _ ___ _ ___ _ ___ _ ___ _ ___
 72
    65
 73
     4
 40
1.125
 49
0.75
 49
-0.125
 49
0.125
 49
-0.125
  0
LTYPE
  2
HIDDEN2
 70
     0
  3
Hidden (.5x) _ _ _ _ _ _ _ _ _ _ _ _ _ _ _ _ _
 72
    65
 73
     2
 40
0.1875
 49
0.125
 49
-0.0625
  0
LTYPE
  2
AMZIGZAG2
 70
     0
  3
/\/-/\/-/\/-/\/-/\/-/\/
 72
    65
 73
     2
 40
0.4401
 49
0.0001
 49
-0.4400000000000001
  0
LTYPE
  2
ACANSTGB
 70
     0
  3
__ . . __ . .
 72
    65
 73
     6
 40
0.35433070866
 49
0.15748031496
 49
-0.03937007874
 49
0.03937007874
 49
-0.03937007874
 49
0.03937007874
 49
-0.03937007874
  0
LTYPE
  2
ACANSTGL
 70
     0
  3
_ _ _ _ _
 72
    65
 73
     2
 40
0.11811023622
 49
0.07874015748
 49
-0.03937007874
  0
LTYPE
  2
AM_ISO02W050
 70
     0
  3
__ __ __ __ __ __ __ __ __ __ __ __ __ __ __
 72
    65
 73
     2
 40
7.5
 49
6.0
 49
-1.5
  0
LTYPE
  2
AM_ISO08W050
 70
     0
  3
____ . ____ . ____ . ____ . ____ . ____ . ____
 72
    65
 73
     4
 40
18.0
 49
12.0
 49
-1.5
 49
3.0
 49
-1.5
  0
LTYPE
  2
AM_ISO09W050
 70
     0
  3
_____ . . _____ . . _____ . . ____ .. ____
 72
    65
 73
     6
 40
22.5
 49
12.0
 49
-1.5
 49
3.0
 49
-1.5
 49
3.0
 49
-1.5
  0
LTYPE
  2
AM_ISO08W050X2
 70
     0
  3
__ . __ . __ . __ . __ . __
 72
    65
 73
     4
 40
9.0
 49
6.0
 49
-0.75
 49
1.5
 49
-0.75
  0
LTYPE
  2
AM_ISO02W050X2
 70
     0
  3
 _ _ _ _ _ _ _ _ _ _ _ _
 72
    65
 73
     2
 40
3.75
 49
3.0
 49
-0.75
  0
LTYPE
  2
AMZIGZAG
 70
     0
  3
/\/-/\/-/\/-/\/-/\/-/\/
 72
    65
 73
     2
 40
11.0001
 49
0.0001
 49
-11.0
  0
ENDTAB
  0
TABLE
  2
LAYER
 70
    11
  0
LAYER
  2
0
 70
     0
 62
     7
  6
CONTINUOUS
  0
LAYER
  2
DEFAULT_2
 70
     1
 62
     2
  6
HIDDEN
  0
LAYER
  2
DEFAULT_3
 70
     0
 62
     7
  6
PHANTOM
  0
LAYER
  2
DEFPOINTS
 70
     0
 62
     7
  6
CONTINUOUS
  0
LAYER
  2
AM_5
 70
     0
 62
     3
  6
CONTINUOUS
  0
LAYER
  2
AM_TR
 70
     0
 62
     3
  6
CONTINUOUS
  0
LAYER
  2
AM_1
 70
     0
 62
    14
  6
CONTINUOUS
  0
LAYER
  2
AM_10
 70
     0
 62
     7
  6
CONTINUOUS
  0
LAYER
  2
DIM
 70
     0
 62
     3
  6
CONTINUOUS
  0
LAYER
  2
AM_7N
 70
     0
 62
     4
  6
CENTER
  0
LAYER
  2
AM_6
 70
     0
 62
     2
  6
CONTINUOUS
  0
ENDTAB
  0
TABLE
  2
STYLE
 70
     6
  0
STYLE
  2
STANDARD
 70
     0
 40
0.0
 41
1.0
 50
0.0
 71
     0
 42
10.0
  3
gbenor.shx
  4
gbcbig.shx
  0
STYLE
  2

 70
     1
 40
0.0
 41
1.0
 50
0.0
 71
     0
 42
0.2
  3
ltypeshp.shx
  4

  0
STYLE
  2
ACANSTS
 70
     0
 40
1.0
 41
1.0
 50
0.0
 71
     0
 42
0.2
  3
romans.shx
  4
gbcbig.shx
  0
STYLE
  2
ACANSGDT
 70
     0
 40
0.0
 41
1.0
 50
0.0
 71
     0
 42
0.2
  3
amgdtans.shx
  4

  0
STYLE
  2
ADESK1
 70
     0
 40
0.0
 41
1.0
 50
0.0
 71
     0
 42
0.12
  3
romans.shx
  4
gbcbig.shx
  0
STYLE
  2
ROMANK
 70
     0
 40
0.0
 41
1.0
 50
0.0
 71
     0
 42
0.4
  3
romans
  4

  0
ENDTAB
  0
TABLE
  2
VIEW
 70
     0
  0
ENDTAB
  0
TABLE
  2
UCS
 70
     0
  0
ENDTAB
  0
TABLE
  2
APPID
 70
    17
  0
APPID
  2
ACAD
 70
     0
  0
APPID
  2
MCAD_NO_VIS
 70
     0
  0
APPID
  2
ACAD_TEMP_GRAPHIC
 70
     0
  0
APPID
  2
ACATTRIBSERVICES
 70
     0
  0
APPID
  2
ACAD_DIMASSOC_CALC_DIMLFAC
 70
     0
  0
APPID
  2
ACAD_DIMASSOC_DIMLFAC
 70
     0
  0
APPID
  2
ACAD_DIMASSOC_OVERRIDDEN_D
 70
     0
  0
APPID
  2
GENIUS_GENODEF_13
 70
     0
  0
APPID
  2
GENIUS_GENOBJ-N-FIL_13
 70
     0
  0
APPID
  2
GENIUS_GENDTOL_13
 70
     0
  0
APPID
  2
GENIUS_GENREC_14
 70
     0
  0
APPID
  2
GENIUS_GENOBJ-N-REC_13
 70
     0
  0
APPID
  2
CONTENTBLOCKICON
 70
     0
  0
APPID
  2
GENIUS_GENSCREG_15
 70
     0
  0
APPID
  2
GENIUS_GENOBJ-N-SDF_13
 70
     0
  0
APPID
  2
ACAD_EXEMPT_FROM_CAD_STANDARDS
 70
     0
  0
APPID
  2
DCO15
 70
     0
  0
ENDTAB
  0
TABLE
  2
DIMSTYLE
 70
     7
  0
DIMSTYLE
  2
STANDARD
 70
     0
  3

  4

  5

  6

  7

 40
101.59999999999999
 41
0.1875
 42
0.0
 43
0.8886614172999999
 44
0.04209448819
 45
0.0
 46
0.0
 47
0.0
 48
0.0
140
0.18
141
0.0
142
0.0
143
25.399999999999999
144
0.03937
145
0.0
146
1.0
147
0.09
 71
     0
 72
     0
 73
     1
 74
     1
 75
     0
 76
     0
 77
     0
 78
     8
170
     0
171
     2
172
     0
173
     0
174
     0
175
     0
176
     0
177
     0
178
     0
  0
DIMSTYLE
  2
AM_ANSI
 70
     0
  3

  4
mm
  5

  6

  7

 40
1.0
 41
0.1
 42
0.05
 43
0.5
 44
0.1
 45
0.0
 46
0.0
 47
0.1
 48
0.1
140
0.12
141
0.0
142
0.0
143
25.399999999999999
144
1.0
145
0.0
146
0.71
147
0.06
 71
     0
 72
     0
 73
     1
 74
     1
 75
     0
 76
     0
 77
     0
 78
     7
170
     0
171
     2
172
     0
173
     0
174
     0
175
     0
176
   256
177
   256
178
     2
  0
DIMSTYLE
  2
AM_ANSI$3
 70
     0
  3

  4
mm
  5

  6

  7

 40
1.0
 41
0.1
 42
0.05
 43
0.5
 44
0.1
 45
0.0
 46
0.0
 47
0.1
 48
0.1
140
0.12
141
0.0
142
0.0
143
25.399999999999999
144
1.0
145
0.0
146
0.71
147
0.06
 71
     0
 72
     0
 73
     1
 74
     1
 75
     0
 76
     0
 77
     0
 78
     7
170
     0
171
     2
172
     0
173
     0
174
     0
175
     0
176
   256
177
   256
178
     2
  0
DIMSTYLE
  2
AM_ANSI$4
 70
     0
  3

  4
mm
  5

  6

  7

 40
1.0
 41
0.1
 42
0.05
 43
0.5
 44
0.1
 45
0.0
 46
0.0
 47
0.1
 48
0.1
140
0.12
141
0.0
142
0.0
143
25.399999999999999
144
1.0
145
0.0
146
0.71
147
0.06
 71
     0
 72
     0
 73
     1
 74
     1
 75
     0
 76
     0
 77
     0
 78
     7
170
     0
171
     2
172
     0
173
     0
174
     0
175
     0
176
   256
177
   256
178
     2
  0
DIMSTYLE
  2
AM_ANSI$7
 70
     0
  3

  4
mm
  5

  6

  7

 40
1.0
 41
0.1
 42
0.05
 43
0.5
 44
0.1
 45
0.0
 46
0.0
 47
0.1
 48
0.1
140
0.24
141
0.0
142
0.0
143
25.399999999999999
144
1.0
145
0.0
146
0.71
147
0.06
 71
     0
 72
     0
 73
     1
 74
     1
 75
     0
 76
     0
 77
     0
 78
     7
170
     0
171
     2
172
     0
173
     0
174
     0
175
     0
176
   256
177
   256
178
     2
  0
DIMSTYLE
  2
AM_ANSI$SF
 70
     0
  3

  4
mm
  5

  6

  7

 40
1.0
 41
0.1
 42
0.05
 43
0.5
 44
0.1
 45
0.0
 46
0.0
 47
0.1
 48
0.1
140
0.12
141
0.0
142
0.0
143
25.399999999999999
144
1.0
145
0.0
146
0.71
147
0.06
 71
     0
 72
     0
 73
     1
 74
     1
 75
     1
 76
     1
 77
     0
 78
     7
170
     0
171
     2
172
     0
173
     0
174
     0
175
     0
176
   256
177
   256
178
     2
  0
DIMSTYLE
  2
AM_ANSI$SH
 70
     0
  3

  4
mm
  5

  6
GENAXEH
  7

 40
1.0
 41
0.1
 42
0.05
 43
0.5
 44
0.1
 45
0.0
 46
0.0
 47
0.1
 48
0.1
140
0.12
141
0.0
142
0.0
143
25.399999999999999
144
1.0
145
0.0
146
0.71
147
0.06
 71
     0
 72
     0
 73
     1
 74
     1
 75
     1
 76
     1
 77
     0
 78
     7
170
     0
171
     2
172
     0
173
     1
174
     0
175
     0
176
   256
177
   256
178
     2
  0
ENDTAB
  0
ENDSEC
  0
SECTION
  2
BLOCKS
  0
BLOCK
  8
0
  2
$MODEL_SPACE
 70
     0
 10
0.0
 20
0.0
 30
0.0
  3
$MODEL_SPACE
  1

  0
ENDBLK
  5
F426
  8
0
  0
BLOCK
 67
     1
  8
0
  2
$PAPER_SPACE
 70
     0
 10
0.0
 20
0.0
 30
0.0
  3
$PAPER_SPACE
  1

  0
ENDBLK
  5
F424
 67
     1
  8
0
  0
BLOCK
  8
0
  2
GENAXEH
 70
     0
 10
0.0
 20
0.0
 30
0.0
  3
GENAXEH
  1

  0
LINE
  5
FBE3
  8
0
 10
-1.0
 20
0.0
 30
0.0
 11
1.0
 21
0.0
 31
0.0
  0
ENDBLK
  5
FBE5
  8
0
  0
BLOCK
  8
0
  2
BLOT2777
 70
     0
 10
0.0
 20
0.0
 30
0.0
  3
BLOT2777
  1

  0
POLYLINE
  5
FDD4
  8
0
  6
CONTINUOUS
 66
     1
 10
0.0
 20
0.0
 30
0.0
  0
VERTEX
  5
1D333
  8
0
  6
CONTINUOUS
 10
-0.0990392268
 20
0.0061707734
 30
0.0
  0
VERTEX
  5
1D334
  8
0
  6
CONTINUOUS
 10
-0.0489460416
 20
0.0562639609
 30
0.0
  0
SEQEND
  5
1D335
  8
0
  6
CONTINUOUS
  0
POLYLINE
  5
FDD5
  8
0
  6
CONTINUOUS
 66
     1
 10
0.0
 20
0.0
 30
0.0
  0
VERTEX
  5
1D336
  8
0
  6
CONTINUOUS
 10
-0.0990392268
 20
-0.0079713622
 30
0.0
  0
VERTEX
  5
1D337
  8
0
  6
CONTINUOUS
 10
-0.0301621202
 20
0.0609057471
 30
0.0
  0
SEQEND
  5
1D338
  8
0
  6
CONTINUOUS
  0
POLYLINE
  5
FDD6
  8
0
  6
CONTINUOUS
 66
     1
 10
0.0
 20
0.0
 30
0.0
  0
VERTEX
  5
1D339
  8
0
  6
CONTINUOUS
 10
-0.0954193696
 20
-0.0184936356
 30
0.0
  0
VERTEX
  5
1D33A
  8
0
  6
CONTINUOUS
 10
-0.0127292378
 20
0.0641964972
 30
0.0
  0
SEQEND
  5
1D33B
  8
0
  6
CONTINUOUS
  0
POLYLINE
  5
FDD7
  8
0
  6
CONTINUOUS
 66
     1
 10
0.0
 20
0.0
 30
0.0
  0
VERTEX
  5
1D33C
  8
0
  6
CONTINUOUS
 10
-0.091067858
 20
-0.0282842629
 30
0.0
  0
VERTEX
  5
1D33D
  8
0
  6
CONTINUOUS
 10
0.0014128971
 20
0.0641964972
 30
0.0
  0
SEQEND
  5
1D33E
  8
0
  6
CONTINUOUS
  0
POLYLINE
  5
FDD8
  8
0
  6
CONTINUOUS
 66
     1
 10
0.0
 20
0.0
 30
0.0
  0
VERTEX
  5
1D33F
  8
0
  6
CONTINUOUS
 10
-0.0839966908
 20
-0.0353552327
 30
0.0
  0
VERTEX
  5
1D340
  8
0
  6
CONTINUOUS
 10
0.0155550325
 20
0.0641964972
 30
0.0
  0
SEQEND
  5
1D341
  8
0
  6
CONTINUOUS
  0
POLYLINE
  5
FDD9
  8
0
  6
CONTINUOUS
 66
     1
 10
0.0
 20
0.0
 30
0.0
  0
VERTEX
  5
1D342
  8
0
  6
CONTINUOUS
 10
-0.0766486153
 20
-0.0421492867
 30
0.0
  0
VERTEX
  5
1D343
  8
0
  6
CONTINUOUS
 10
0.0271335039
 20
0.0616328306
 30
0.0
  0
SEQEND
  5
1D344
  8
0
  6
CONTINUOUS
  0
POLYLINE
  5
FDDA
  8
0
  6
CONTINUOUS
 66
     1
 10
0.0
 20
0.0
 30
0.0
  0
VERTEX
  5
1D345
  8
0
  6
CONTINUOUS
 10
-0.0672799051
 20
-0.0469227172
 30
0.0
  0
VERTEX
  5
1D346
  8
0
  6
CONTINUOUS
 10
0.0385377966
 20
0.0588949881
 30
0.0
  0
SEQEND
  5
1D347
  8
0
  6
CONTINUOUS
  0
POLYLINE
  5
FDDB
  8
0
  6
CONTINUOUS
 66
     1
 10
0.0
 20
0.0
 30
0.0
  0
VERTEX
  5
1D348
  8
0
  6
CONTINUOUS
 10
-0.0579111986
 20
-0.051696144
 30
0.0
  0
VERTEX
  5
1D349
  8
0
  6
CONTINUOUS
 10
0.049676653
 20
0.0558917075
 30
0.0
  0
SEQEND
  5
1D34A
  8
0
  6
CONTINUOUS
  0
POLYLINE
  5
FDDC
  8
0
  6
CONTINUOUS
 66
     1
 10
0.0
 20
0.0
 30
0.0
  0
VERTEX
  5
1D34B
  8
0
  6
CONTINUOUS
 10
-0.0485424921
 20
-0.0564695708
 30
0.0
  0
VERTEX
  5
1D34C
  8
0
  6
CONTINUOUS
 10
0.0590453595
 20
0.0511182807
 30
0.0
  0
SEQEND
  5
1D34D
  8
0
  6
CONTINUOUS
  0
POLYLINE
  5
FDDD
  8
0
  6
CONTINUOUS
 66
     1
 10
0.0
 20
0.0
 30
0.0
  0
VERTEX
  5
1D34E
  8
0
  6
CONTINUOUS
 10
-0.0371572115
 20
-0.0592264272
 30
0.0
  0
VERTEX
  5
1D34F
  8
0
  6
CONTINUOUS
 10
0.0684140697
 20
0.0463448539
 30
0.0
  0
SEQEND
  5
1D350
  8
0
  6
CONTINUOUS
  0
POLYLINE
  5
FDDE
  8
0
  6
CONTINUOUS
 66
     1
 10
0.0
 20
0.0
 30
0.0
  0
VERTEX
  5
1D351
  8
0
  6
CONTINUOUS
 10
-0.0257529188
 20
-0.0619642697
 30
0.0
  0
VERTEX
  5
1D352
  8
0
  6
CONTINUOUS
 10
0.0777815506
 20
0.0415701978
 30
0.0
  0
SEQEND
  5
1D353
  8
0
  6
CONTINUOUS
  0
POLYLINE
  5
FDDF
  8
0
  6
CONTINUOUS
 66
     1
 10
0.0
 20
0.0
 30
0.0
  0
VERTEX
  5
1D354
  8
0
  6
CONTINUOUS
 10
-0.0138430092
 20
-0.0641964972
 30
0.0
  0
VERTEX
  5
1D355
  8
0
  6
CONTINUOUS
 10
0.0848527178
 20
0.0344992317
 30
0.0
  0
SEQEND
  5
1D356
  8
0
  6
CONTINUOUS
  0
POLYLINE
  5
FDE0
  8
0
  6
CONTINUOUS
 66
     1
 10
0.0
 20
0.0
 30
0.0
  0
VERTEX
  5
1D357
  8
0
  6
CONTINUOUS
 10
0.0002991263
 20
-0.0641964972
 30
0.0
  0
VERTEX
  5
1D358
  8
0
  6
CONTINUOUS
 10
0.0917786211
 20
0.0272829998
 30
0.0
  0
SEQEND
  5
1D359
  8
0
  6
CONTINUOUS
  0
POLYLINE
  5
FDE1
  8
0
  6
CONTINUOUS
 66
     1
 10
0.0
 20
0.0
 30
0.0
  0
VERTEX
  5
1D35A
  8
0
  6
CONTINUOUS
 10
0.014441262
 20
-0.0641964972
 30
0.0
  0
VERTEX
  5
1D35B
  8
0
  6
CONTINUOUS
 10
0.0959208161
 20
0.0172830578
 30
0.0
  0
SEQEND
  5
1D35C
  8
0
  6
CONTINUOUS
  0
POLYLINE
  5
FDE2
  8
0
  6
CONTINUOUS
 66
     1
 10
0.0
 20
0.0
 30
0.0
  0
VERTEX
  5
1D35D
  8
0
  6
CONTINUOUS
 10
0.0324149951
 20
-0.0603648983
 30
0.0
  0
VERTEX
  5
1D35E
  8
0
  6
CONTINUOUS
 10
0.0990392268
 20
0.0062593385
 30
0.0
  0
SEQEND
  5
1D35F
  8
0
  6
CONTINUOUS
  0
POLYLINE
  5
FDE3
  8
0
  6
CONTINUOUS
 66
     1
 10
0.0
 20
0.0
 30
0.0
  0
VERTEX
  5
1D360
  8
0
  6
CONTINUOUS
 10
0.0524364598
 20
-0.0544855669
 30
0.0
  0
VERTEX
  5
1D361
  8
0
  6
CONTINUOUS
 10
0.0990392268
 20
-0.0078827972
 30
0.0
  0
SEQEND
  5
1D362
  8
0
  6
CONTINUOUS
  0
ENDBLK
  5
FDE5
  8
0
  0
BLOCK
  8
0
  2
*U42
 70
     1
 10
0.0
 20
0.0
 30
0.0
  3
*U42
  1

  0
TEXT
  5
1D364
  8
DIM
 62
     0
 10
-2787.1452014264742
 20
-4498.2032150954683
 30
0.0
 40
18.288
  1
0.43
  0
ENDBLK
  5
1D366
  8
0
  0
BLOCK
  8
0
  2
*U43
 70
     1
 10
0.0
 20
0.0
 30
0.0
  3
*U43
  1

  0
TEXT
  5
1D368
  8
DIM
 62
     0
 10
-2724.7436455312532
 20
-4499.5600729223834
 30
0.0
 40
18.288
  1
0.56
  0
ENDBLK
  5
1D36A
  8
0
  0
BLOCK
  8
0
  2
*U44
 70
     1
 10
0.0
 20
0.0
 30
0.0
  3
*U44
  1

  0
TEXT
  5
1D36E
  8
DIM
 62
     0
 10
-2992.795995731552
 20
-4314.2223745803658
 30
0.0
 40
18.288
  1
R0.62
  0
ENDBLK
  5
1D370
  8
0
  0
BLOCK
  8
0
  2
*U45
 70
     1
 10
0.0
 20
0.0
 30
0.0
  3
*U45
  1

  0
TEXT
  5
1D372
  8
DIM
 62
     0
 10
718.85361687592774
 20
1892.5462298856539
 30
0.0
 40
18.288
  1
33
  0
ENDBLK
  5
1D374
  8
0
  0
BLOCK
  8
0
  2
*U46
 70
     1
 10
0.0
 20
0.0
 30
0.0
  3
*U46
  1

  0
TEXT
  5
1D376
  8
DIM
 62
     0
 10
1287.2641069663821
 20
1489.3590637690761
 30
0.0
 40
18.288
  1
18.5
  0
ENDBLK
  5
1D378
  8
0
  0
BLOCK
  8
0
  2
*U47
 70
     1
 10
0.0
 20
0.0
 30
0.0
  3
*U47
  1

  0
TEXT
  5
1D37A
  8
DIM
 62
     0
 10
1209.1680841179671
 20
1300.1462362368729
 30
0.0
 40
18.288
  1
1.6
  0
ENDBLK
  5
1D37C
  8
0
  0
BLOCK
  8
0
  2
*U48
 70
     1
 10
0.0
 20
0.0
 30
0.0
  3
*U48
  1

  0
TEXT
  5
1D37E
  8
DIM
 62
     0
 10
1194.9989751660539
 20
1219.440341017817
 30
0.0
 40
18.288
  1
1.41
  0
ENDBLK
  5
1D380
  8
0
  0
BLOCK
  8
0
  2
*U49
 70
     1
 10
0.0
 20
0.0
 30
0.0
  3
*U49
  1

  0
TEXT
  5
1D382
  8
DIM
 62
     0
 10
1222.971750852977
 20
1003.752585439536
 30
0.0
 40
18.288
  1
0.56
  0
ENDBLK
  5
1D384
  8
0
  0
BLOCK
  8
0
  2
*U50
 70
     1
 10
0.0
 20
0.0
 30
0.0
  3
*U50
  1

  0
TEXT
  5
1D386
  8
DIM
 62
     0
 10
1150.599815115565
 20
722.56734988518429
 30
0.0
 40
18.288
  1
0.3
  0
ENDBLK
  5
1D388
  8
0
  0
BLOCK
  8
0
  2
*U51
 70
     1
 10
0.0
 20
0.0
 30
0.0
  3
*U51
  1

  0
TEXT
  5
1D38A
  8
DIM
 62
     0
 10
823.52365670998347
 20
1003.752585439536
 30
0.0
 40
18.288
  1
1.25
  0
ENDBLK
  5
1D38C
  8
0
  0
BLOCK
  8
0
  2
*U52
 70
     1
 10
0.0
 20
0.0
 30
0.0
  3
*U52
  1

  0
TEXT
  5
1D38E
  8
DIM
 62
     0
 10
217.8955358285877
 20
848.13212115658746
 30
0.0
 40
18.288
  1
8.63
  0
ENDBLK
  5
1D390
  8
0
  0
BLOCK
  8
0
  2
*U53
 70
     1
 10
0.0
 20
0.0
 30
0.0
  3
*U53
  1

  0
TEXT
  5
1D392
  8
DIM
 62
     0
 10
140.75480854193739
 20
848.78736144235074
 30
0.0
 40
18.288
  1
8.82
  0
ENDBLK
  5
1D394
  8
0
  0
BLOCK
  8
0
  2
*U54
 70
     1
 10
0.0
 20
0.0
 30
0.0
  3
*U54
  1

  0
TEXT
  5
1D396
  8
DIM
 62
     0
 10
1641.275357587471
 20
1519.836653548057
 30
0.0
 40
18.288
  1
0.34
  0
ENDBLK
  5
1D398
  8
0
  0
BLOCK
  8
0
  2
*U55
 70
     1
 10
0.0
 20
0.0
 30
0.0
  3
*U55
  1

  0
TEXT
  5
1D39A
  8
DIM
 62
     0
 10
1462.3515090906881
 20
1743.2534359922281
 30
0.0
 40
18.288
  1
R0.29
  0
ENDBLK
  5
1D39C
  8
0
  0
BLOCK
  8
0
  2
*U56
 70
     1
 10
0.0
 20
0.0
 30
0.0
  3
*U56
  1

  0
TEXT
  5
1D39E
  8
DIM
 62
     0
 10
1454.1611343854629
 20
1780.382316957078
 30
0.0
 40
18.288
  1
R0.62
  0
ENDBLK
  5
1D3A0
  8
0
  0
BLOCK
  8
0
  2
*U57
 70
     1
 10
0.0
 20
0.0
 30
0.0
  3
*U57
  1

  0
TEXT
  5
1D3A2
  8
DIM
 62
     0
 10
1629.3595616539119
 20
1348.3300725188069
 30
0.0
 40
18.288
  1
R4
  0
ENDBLK
  5
1D3A4
  8
0
  0
BLOCK
  8
0
  2
*U58
 70
     1
 10
0.0
 20
0.0
 30
0.0
  3
*U58
  1

  0
TEXT
  5
1D3A6
  8
DIM
 62
     0
 10
553.39300188352343
 20
887.16658543956532
 30
0.0
 40
18.288
  1
0.34
  0
ENDBLK
  5
1D3A8
  8
0
  0
BLOCK
  8
0
  2
*U59
 70
     1
 10
0.0
 20
0.0
 30
0.0
  3
*U59
  1

  0
TEXT
  5
1D3AA
  8
DIM
 62
     0
 10
1153.9524510098661
 20
810.56011562814547
 30
0.0
 40
18.288
  1
0.3
  0
ENDBLK
  5
1D3AC
  8
0
  0
BLOCK
  8
0
  2
*U60
 70
     1
 10
0.0
 20
0.0
 30
0.0
  3
*U60
  1

  0
TEXT
  5
1D3AE
  8
DIM
 62
     0
 10
224.31059017025339
 20
991.3325236441508
 30
0.0
 40
18.288
  1
R0.29
  0
ENDBLK
  5
1D3B0
  8
0
  0
BLOCK
  8
0
  2
*U61
 70
     1
 10
0.0
 20
0.0
 30
0.0
  3
*U61
  1

  0
TEXT
  5
1D3B2
  8
DIM
 62
     0
 10
659.45086296082854
 20
1803.5860860757491
 30
0.0
 40
18.288
  1
4.00
  0
ENDBLK
  5
1D3B4
  8
0
  0
BLOCK
  8
0
  2
*U62
 70
     1
 10
0.0
 20
0.0
 30
0.0
  3
*U62
  1

  0
TEXT
  5
1D3B6
  8
DIM
 62
     0
 10
559.41323237213919
 20
1803.5860860757491
 30
0.0
 40
18.288
  1
4.00
  0
ENDBLK
  5
1D3B8
  8
0
  0
BLOCK
  8
0
  2
*U63
 70
     1
 10
0.0
 20
0.0
 30
0.0
  3
*U63
  1

  0
TEXT
  5
1D3BA
  8
DIM
 62
     0
 10
762.02108771941539
 20
1803.5860860757491
 30
0.0
 40
18.288
  1
4.00
  0
ENDBLK
  5
1D3BC
  8
0
  0
BLOCK
  8
0
  2
*U64
 70
     1
 10
0.0
 20
0.0
 30
0.0
  3
*U64
  1

  0
TEXT
  5
1D3BE
  8
DIM
 62
     0
 10
856.99352192436027
 20
1803.5860860757491
 30
0.0
 40
18.288
  1
4.00
  0
ENDBLK
  5
1D3C0
  8
0
  0
BLOCK
  8
0
  2
*U65
 70
     1
 10
0.0
 20
0.0
 30
0.0
  3
*U65
  1

  0
TEXT
  5
1D3C2
  8
DIM
 62
     0
 10
1204.125599648768
 20
1768.3423637000651
 30
0.0
 40
18.288
  1
R1.31
  0
ENDBLK
  5
1D3C4
  8
0
  0
BLOCK
  8
0
  2
*U66
 70
     1
 10
0.0
 20
0.0
 30
0.0
  3
*U66
  1

  0
TEXT
  5
1D3C6
  8
DIM
 62
     0
 10
327.05116504868101
 20
1229.810121694901
 30
0.0
 40
18.288
  1
\U+22053.875¡À.125
  0
ENDBLK
  5
1D3C8
  8
0
  0
BLOCK
  8
0
  2
*U67
 70
     1
 10
0.0
 20
0.0
 30
0.0
  3
*U67
  1

  0
TEXT
  5
1D3CA
  8
DIM
 62
     0
 10
629.0797254282279
 20
1215.8736782856399
 30
0.0
 40
18.288
  1
6.25
  0
ENDBLK
  5
1D3CC
  8
0
  0
BLOCK
  8
0
  2
*U68
 70
     1
 10
0.0
 20
0.0
 30
0.0
  3
*U68
  1

  0
TEXT
  5
1D3CE
  8
DIM
 62
     0
 10
787.82972542820426
 20
1215.8736782856399
 30
0.0
 40
18.288
  1
6.25
  0
ENDBLK
  5
1D3D0
  8
0
  0
BLOCK
  8
0
  2
*U69
 70
     1
 10
0.0
 20
0.0
 30
0.0
  3
*U69
  1

  0
TEXT
  5
1D3D2
  8
DIM
 62
     0
 10
163.65211721627571
 20
1459.353466787978
 30
0.0
 40
18.288
  1
0.68
  0
ENDBLK
  5
1D3D4
  8
0
  0
BLOCK
  8
0
  2
*U70
 70
     1
 10
0.0
 20
0.0
 30
0.0
  3
*U70
  1

  0
TEXT
  5
1D3D6
  8
DIM
 62
     0
 10
1653.8192437174471
 20
1130.150933095772
 30
0.0
 40
18.288
  1
R0.62
  0
ENDBLK
  5
1D3D8
  8
0
  0
BLOCK
  8
0
  2
*U71
 70
     1
 10
0.0
 20
0.0
 30
0.0
  3
*U71
  1

  0
TEXT
  5
1D3DA
  8
DIM
 62
     0
 10
1669.614264471576
 20
1006.675130558086
 30
0.0
 40
18.288
  1
R0.04
  0
ENDBLK
  5
1D3DC
  8
0
  0
BLOCK
  8
0
  2
*U72
 70
     1
 10
0.0
 20
0.0
 30
0.0
  3
*U72
  1

  0
TEXT
  5
1D3DE
  8
DIM
 62
     0
 10
1643.0302531071741
 20
979.13925579203635
 30
0.0
 40
18.288
  1
0.46
  0
ENDBLK
  5
1D3E0
  8
0
  0
BLOCK
  8
0
  2
*U73
 70
     1
 10
0.0
 20
0.0
 30
0.0
  3
*U73
  1

  0
TEXT
  5
1D3E2
  8
DIM
 62
     0
 10
1452.2181732922149
 20
999.74446594617575
 30
0.0
 40
18.288
  1
0.3
  0
ENDBLK
  5
1D3E4
  8
0
  0
BLOCK
  8
0
  2
*U74
 70
     1
 10
0.0
 20
0.0
 30
0.0
  3
*U74
  1

  0
TEXT
  5
1D3E6
  8
AM_5
 62
     0
 10
1633.1683268831389
 20
1734.359472325252
 30
0.0
 40
18.288
  1
20¡ã
  0
ENDBLK
  5
1D3E8
  8
0
  0
BLOCK
  8
0
  2
*U75
 70
     1
 10
0.0
 20
0.0
 30
0.0
  3
*U75
  1

  0
TEXT
  5
1D3EA
  8
DIM
 62
     0
 10
1585.071253378155
 20
681.26955513200232
 30
0.0
 40
18.288
  1
%%C20¡ã
  0
ENDBLK
  5
1D3EC
  8
0
  0
BLOCK
  8
0
  2
*U76
 70
     1
 10
0.0
 20
0.0
 30
0.0
  3
*U76
  1

  0
TEXT
  5
1D3EE
  8
DIM
 62
     0
 10
1654.0816935199109
 20
838.07232326239898
 30
0.0
 40
18.288
  1
5X%%C1.375¡À.125
  0
TEXT
  5
1D3EF
  8
DIM
 62
     0
 10
1616.211275172763
 20
807.59232326239896
 30
0.0
 40
18.288
  1
SEE TABLE FOR GD&T
  0
ENDBLK
  5
1D3F1
  8
0
  0
BLOCK
  8
0
  2
*U77
 70
     1
 10
0.0
 20
0.0
 30
0.0
  3
*U77
  1

  0
TEXT
  5
1D3F3
  8
DIM
 62
     0
 10
1391.4358719348561
 20
736.07597439948609
 30
0.0
 40
18.288
  1
%%C1.70 MAX
  0
ENDBLK
  5
1D3F5
  8
0
  0
BLOCK
  8
0
  2
*U78
 70
     1
 10
0.0
 20
0.0
 30
0.0
  3
*U78
  1

  0
TEXT
  5
1D3F7
  8
DIM
 62
     0
 10
919.07272542823125
 20
1184.9576681159081
 30
0.0
 40
18.288
  1
16.5
  0
ENDBLK
  5
1D3F9
  8
0
  0
BLOCK
  8
0
  2
*U79
 70
     1
 10
0.0
 20
0.0
 30
0.0
  3
*U79
  1

  0
TEXT
  5
1D3FB
  8
DIM
 62
     0
 10
1235.6135505765819
 20
1608.250438196766
 30
0.0
 40
18.288
  1
7.36
  0
ENDBLK
  5
1D3FD
  8
0
  0
BLOCK
  8
0
  2
*U80
 70
     1
 10
0.0
 20
0.0
 30
0.0
  3
*U80
  1

  0
TEXT
  5
1D3FF
  8
DIM
 62
     0
 10
1235.9382969798489
 20
1397.2504667879889
 30
0.0
 40
18.288
  1
9.25
  0
ENDBLK
  5
1D401
  8
0
  0
BLOCK
  8
0
  2
*U81
 70
     1
 10
0.0
 20
0.0
 30
0.0
  3
*U81
  1

  0
TEXT
  5
1D403
  8
DIM
 62
     0
 10
216.2598578296973
 20
1708.7787321541909
 30
0.0
 40
18.288
  1
3.22
  0
ENDBLK
  5
1D405
  8
0
  0
ENDSEC
  0
SECTION
  2
ENTITIES
  0
POLYLINE
  5
201D
  8
0
  6
CONTINUOUS
 62
     7
 66
     1
 10
0.0
 20
0.0
 30
0.0
  0
VERTEX
  5
1D213
  8
0
  6
CONTINUOUS
 62
     7
 10
307.5023561627749
 20
961.58858543955205
 30
0.0
  0
VERTEX
  5
1D214
  8
0
  6
CONTINUOUS
 62
     7
 10
307.53070080508769
 20
962.19851413588094
 30
0.0
  0
VERTEX
  5
1D215
  8
0
  6
CONTINUOUS
 62
     7
 10
307.60031569255813
 20
962.79929343722233
 30
0.0
  0
VERTEX
  5
1D216
  8
0
  6
CONTINUOUS
 62
     7
 10
307.70037538571341
 20
963.3933232982007
 30
0.0
  0
VERTEX
  5
1D217
  8
0
  6
CONTINUOUS
 62
     7
 10
307.82728608949401
 20
963.98140041516217
 30
0.0
  0
VERTEX
  5
1D218
  8
0
  6
CONTINUOUS
 62
     7
 10
307.9812871835457
 20
964.56347175289466
 30
0.0
  0
VERTEX
  5
1D219
  8
0
  6
CONTINUOUS
 62
     7
 10
308.16664026981749
 20
965.13859251276051
 30
0.0
  0
VERTEX
  5
1D21A
  8
0
  6
CONTINUOUS
 62
     7
 10
308.39590713156213
 20
965.70397782853161
 30
0.0
  0
SEQEND
  5
1D21B
  8
0
  6
CONTINUOUS
 62
     7
  0
POLYLINE
  5
2027
  8
0
  6
CONTINUOUS
 62
     7
 66
     1
 10
0.0
 20
0.0
 30
0.0
  0
VERTEX
  5
1D21C
  8
0
  6
CONTINUOUS
 62
     7
 10
307.5023561627749
 20
961.58858543955205
 30
0.0
  0
VERTEX
  5
1D21D
  8
0
  6
CONTINUOUS
 62
     7
 10
307.55057502492849
 20
962.40421545674951
 30
0.0
  0
VERTEX
  5
1D21E
  8
0
  6
CONTINUOUS
 62
     7
 10
307.68349606975971
 20
963.30396135347019
 30
0.0
  0
SEQEND
  5
1D21F
  8
0
  6
CONTINUOUS
 62
     7
  0
POLYLINE
  5
202C
  8
0
  6
CONTINUOUS
 62
     7
 66
     1
 10
0.0
 20
0.0
 30
0.0
  0
VERTEX
  5
1D220
  8
0
  6
CONTINUOUS
 62
     7
 10
308.39590713156213
 20
965.70397782853161
 30
0.0
  0
VERTEX
  5
1D221
  8
0
  6
CONTINUOUS
 62
     7
 10
308.12031010085769
 20
965.00560568195112
 30
0.0
  0
VERTEX
  5
1D222
  8
0
  6
CONTINUOUS
 62
     7
 10
307.88316609968018
 20
964.20594027595405
 30
0.0
  0
VERTEX
  5
1D223
  8
0
  6
CONTINUOUS
 62
     7
 10
307.68345225982188
 20
963.30372496075063
 30
0.0
  0
SEQEND
  5
1D224
  8
0
  6
CONTINUOUS
 62
     7
  0
LINE
  5
2032
  8
0
  6
CONTINUOUS
 62
     7
 10
343.46781730760267
 20
811.07632157770695
 30
0.0
 11
335.93514103440702
 21
954.80749208786528
 31
0.0
  0
POLYLINE
  5
207B
  8
0
  6
CONTINUOUS
 62
     7
 66
     1
 10
0.0
 20
0.0
 30
0.0
  0
VERTEX
  5
1D225
  8
0
  6
CONTINUOUS
 62
     7
 10
335.9351410344388
 20
954.80749208786347
 30
0.0
  0
VERTEX
  5
1D226
  8
0
  6
CONTINUOUS
 62
     7
 10
335.80539023476013
 20
956.01743326971246
 30
0.0
  0
VERTEX
  5
1D227
  8
0
  6
CONTINUOUS
 62
     7
 10
335.54451075651741
 20
957.20735942427473
 30
0.0
  0
VERTEX
  5
1D228
  8
0
  6
CONTINUOUS
 62
     7
 10
335.15565015755419
 20
958.36187471746871
 30
0.0
  0
VERTEX
  5
1D229
  8
0
  6
CONTINUOUS
 62
     7
 10
334.6434068945382
 20
959.46726459201363
 30
0.0
  0
VERTEX
  5
1D22A
  8
0
  6
CONTINUOUS
 62
     7
 10
334.01388253511692
 20
960.51033442866799
 30
0.0
  0
VERTEX
  5
1D22B
  8
0
  6
CONTINUOUS
 62
     7
 10
333.96635495919378
 20
960.57258543975945
 30
0.0
  0
SEQEND
  5
1D22C
  8
0
  6
CONTINUOUS
 62
     7
  0
POLYLINE
  5
2116
  8
0
  6
CONTINUOUS
 62
     7
 66
     1
 10
0.0
 20
0.0
 30
0.0
  0
VERTEX
  5
1D22D
  8
0
  6
CONTINUOUS
 62
     7
 10
383.96532889561792
 20
764.7809652277856
 30
0.0
  0
VERTEX
  5
1D22E
  8
0
  6
CONTINUOUS
 62
     7
 10
384.40653442418261
 20
760.35049111187163
 30
0.0
  0
VERTEX
  5
1D22F
  8
0
  6
CONTINUOUS
 62
     7
 10
385.2383171243855
 20
752.17374246667066
 30
0.0
  0
SEQEND
  5
1D230
  8
0
  6
CONTINUOUS
 62
     7
  0
LINE
  5
21C0
  8
0
  6
CONTINUOUS
 62
     7
 10
400.38652216439777
 20
752.17379625369256
 30
0.0
 11
401.37262034970541
 21
761.89332850371011
 31
0.0
  0
POLYLINE
  5
21C6
  8
0
  6
CONTINUOUS
 62
     7
 66
     1
 10
0.0
 20
0.0
 30
0.0
  0
VERTEX
  5
1D231
  8
0
  6
CONTINUOUS
 62
     7
 10
401.37261858188128
 20
761.89332854436987
 30
0.0
  0
VERTEX
  5
1D232
  8
0
  6
CONTINUOUS
 62
     7
 10
401.46071884765109
 20
762.49111121465728
 30
0.0
  0
VERTEX
  5
1D233
  8
0
  6
CONTINUOUS
 62
     7
 10
401.5999376293766
 20
763.06291732533191
 30
0.0
  0
VERTEX
  5
1D234
  8
0
  6
CONTINUOUS
 62
     7
 10
401.78491905269033
 20
763.60494675179405
 30
0.0
  0
VERTEX
  5
1D235
  8
0
  6
CONTINUOUS
 62
     7
 10
402.01020686219272
 20
764.11422792779103
 30
0.0
  0
VERTEX
  5
1D236
  8
0
  6
CONTINUOUS
 62
     7
 10
402.27034581867332
 20
764.58856843706496
 30
0.0
  0
VERTEX
  5
1D237
  8
0
  6
CONTINUOUS
 62
     7
 10
402.55997080205998
 20
765.0265013381786
 30
0.0
  0
VERTEX
  5
1D238
  8
0
  6
CONTINUOUS
 62
     7
 10
402.87388016663323
 20
765.42722117683195
 30
0.0
  0
VERTEX
  5
1D239
  8
0
  6
CONTINUOUS
 62
     7
 10
403.20709347016231
 20
765.79051513146896
 30
0.0
  0
VERTEX
  5
1D23A
  8
0
  6
CONTINUOUS
 62
     7
 10
403.55490155286668
 20
766.11669893426642
 30
0.0
  0
VERTEX
  5
1D23B
  8
0
  6
CONTINUOUS
 62
     7
 10
403.912762833599
 20
766.40644339923801
 30
0.0
  0
VERTEX
  5
1D23C
  8
0
  6
CONTINUOUS
 62
     7
 10
404.27602853324782
 20
766.6605841965129
 30
0.0
  0
VERTEX
  5
1D23D
  8
0
  6
CONTINUOUS
 62
     7
 10
404.64006699233141
 20
766.88029928666128
 30
0.0
  0
VERTEX
  5
1D23E
  8
0
  6
CONTINUOUS
 62
     7
 10
405.0007175385399
 20
767.0673409242653
 30
0.0
  0
VERTEX
  5
1D23F
  8
0
  6
CONTINUOUS
 62
     7
 10
405.20907426287681
 20
767.15957776691812
 30
0.0
  0
SEQEND
  5
1D240
  8
0
  6
CONTINUOUS
 62
     7
  0
POLYLINE
  5
2390
  8
0
  6
CONTINUOUS
 62
     7
 66
     1
 10
0.0
 20
0.0
 30
0.0
  0
VERTEX
  5
1D241
  8
0
  6
CONTINUOUS
 62
     7
 10
1066.324119379816
 20
750.69238543956362
 30
0.0
  0
VERTEX
  5
1D242
  8
0
  6
CONTINUOUS
 62
     7
 10
1066.6044790324081
 20
750.7163638117263
 30
0.0
  0
VERTEX
  5
1D243
  8
0
  6
CONTINUOUS
 62
     7
 10
1066.882047804203
 20
750.789513901639
 30
0.0
  0
VERTEX
  5
1D244
  8
0
  6
CONTINUOUS
 62
     7
 10
1067.1280966085169
 20
750.90136547372731
 30
0.0
  0
VERTEX
  5
1D245
  8
0
  6
CONTINUOUS
 62
     7
 10
1067.366946707378
 20
751.06341976987358
 30
0.0
  0
VERTEX
  5
1D246
  8
0
  6
CONTINUOUS
 62
     7
 10
1067.580153911214
 20
751.27185464892591
 30
0.0
  0
VERTEX
  5
1D247
  8
0
  6
CONTINUOUS
 62
     7
 10
1067.7553995754131
 20
751.52044077098878
 30
0.0
  0
VERTEX
  5
1D248
  8
0
  6
CONTINUOUS
 62
     7
 10
1067.891335132837
 20
751.82412093578648
 30
0.0
  0
VERTEX
  5
1D249
  8
0
  6
CONTINUOUS
 62
     7
 10
1067.9663853052909
 20
752.17378709954835
 30
0.0
  0
SEQEND
  5
1D24A
  8
0
  6
CONTINUOUS
 62
     7
  0
LINE
  5
23EE
  8
0
  6
CONTINUOUS
 62
     7
 10
635.54226057427934
 20
760.44890459662224
 30
0.0
 11
636.38493065434523
 21
752.17379437408897
 31
0.0
  0
POLYLINE
  5
24D4
  8
0
  6
CONTINUOUS
 62
     7
 66
     1
 10
0.0
 20
0.0
 30
0.0
  0
VERTEX
  5
1D24B
  8
0
  6
CONTINUOUS
 62
     7
 10
815.1775102897227
 20
750.69238543956362
 30
0.0
  0
VERTEX
  5
1D24C
  8
0
  6
CONTINUOUS
 62
     7
 10
815.40525172908372
 20
750.70816835947971
 30
0.0
  0
VERTEX
  5
1D24D
  8
0
  6
CONTINUOUS
 62
     7
 10
815.66674547079299
 20
750.76653724449625
 30
0.0
  0
VERTEX
  5
1D24E
  8
0
  6
CONTINUOUS
 62
     7
 10
815.94888600883132
 20
750.88366585964729
 30
0.0
  0
VERTEX
  5
1D24F
  8
0
  6
CONTINUOUS
 62
     7
 10
816.2169247514247
 20
751.06064614066327
 30
0.0
  0
VERTEX
  5
1D250
  8
0
  6
CONTINUOUS
 62
     7
 10
816.43750991347758
 20
751.27651882044199
 30
0.0
  0
VERTEX
  5
1D251
  8
0
  6
CONTINUOUS
 62
     7
 10
816.60283258005802
 20
751.51016229522702
 30
0.0
  0
VERTEX
  5
1D252
  8
0
  6
CONTINUOUS
 62
     7
 10
816.7168457937222
 20
751.74651725052445
 30
0.0
  0
VERTEX
  5
1D253
  8
0
  6
CONTINUOUS
 62
     7
 10
816.78464848264412
 20
751.96534699827953
 30
0.0
  0
VERTEX
  5
1D254
  8
0
  6
CONTINUOUS
 62
     7
 10
816.8197732790286
 20
752.17374168435981
 30
0.0
  0
SEQEND
  5
1D255
  8
0
  6
CONTINUOUS
 62
     7
  0
LINE
  5
250E
  8
0
  6
CONTINUOUS
 62
     7
 10
1066.3241193797619
 20
750.69238543954634
 30
0.0
 11
1054.4604654947279
 21
750.69238317385305
 31
0.0
  0
LINE
  5
250F
  8
0
  6
CONTINUOUS
 62
     7
 10
815.17751597928418
 20
750.69238317385305
 30
0.0
 11
803.31385359034164
 21
750.69238543954634
 31
0.0
  0
LINE
  5
2510
  8
0
  6
CONTINUOUS
 62
     7
 10
649.890859273611
 20
750.69238543954634
 30
0.0
 11
638.02720145666672
 21
750.69238317385305
 31
0.0
  0
LINE
  5
2511
  8
0
  6
CONTINUOUS
 62
     7
 10
398.7442433357146
 20
750.69238317385305
 30
0.0
 11
386.88059643055982
 21
750.69238543954634
 31
0.0
  0
POLYLINE
  5
254B
  8
0
  6
CONTINUOUS
 62
     7
 66
     1
 10
0.0
 20
0.0
 30
0.0
  0
VERTEX
  5
1D256
  8
0
  6
CONTINUOUS
 62
     7
 10
386.88060196781589
 20
750.69238543956362
 30
0.0
  0
VERTEX
  5
1D257
  8
0
  6
CONTINUOUS
 62
     7
 10
386.65285971564299
 20
750.70816841029489
 30
0.0
  0
VERTEX
  5
1D258
  8
0
  6
CONTINUOUS
 62
     7
 10
386.39136504942149
 20
750.76653747820001
 30
0.0
  0
VERTEX
  5
1D259
  8
0
  6
CONTINUOUS
 62
     7
 10
386.109223444495
 20
750.88366648957071
 30
0.0
  0
VERTEX
  5
1D25A
  8
0
  6
CONTINUOUS
 62
     7
 10
385.84118374694663
 20
751.06064732938012
 30
0.0
  0
VERTEX
  5
1D25B
  8
0
  6
CONTINUOUS
 62
     7
 10
385.62059784315352
 20
751.27652060858145
 30
0.0
  0
VERTEX
  5
1D25C
  8
0
  6
CONTINUOUS
 62
     7
 10
385.45527450602088
 20
751.51016481492024
 30
0.0
  0
VERTEX
  5
1D25D
  8
0
  6
CONTINUOUS
 62
     7
 10
385.3412607335631
 20
751.746520654101
 30
0.0
  0
VERTEX
  5
1D25E
  8
0
  6
CONTINUOUS
 62
     7
 10
385.27345766873623
 20
751.96535127564039
 30
0.0
  0
VERTEX
  5
1D25F
  8
0
  6
CONTINUOUS
 62
     7
 10
385.23833256757638
 20
752.17374747555641
 30
0.0
  0
SEQEND
  5
1D260
  8
0
  6
CONTINUOUS
 62
     7
  0
POLYLINE
  5
2579
  8
0
  6
CONTINUOUS
 62
     7
 66
     1
 10
0.0
 20
0.0
 30
0.0
  0
VERTEX
  5
1D261
  8
0
  6
CONTINUOUS
 62
     7
 10
387.52982830461411
 20
767.77695146340454
 30
0.0
  0
VERTEX
  5
1D262
  8
0
  6
CONTINUOUS
 62
     7
 10
383.31490406494407
 20
768.11982927396366
 30
0.0
  0
VERTEX
  5
1D263
  8
0
  6
CONTINUOUS
 62
     7
 10
379.13089431765547
 20
768.85488218026057
 30
0.0
  0
VERTEX
  5
1D264
  8
0
  6
CONTINUOUS
 62
     7
 10
375.03526700982189
 20
769.97441653250189
 30
0.0
  0
VERTEX
  5
1D265
  8
0
  6
CONTINUOUS
 62
     7
 10
371.07816360071592
 20
771.46174678617444
 30
0.0
  0
VERTEX
  5
1D266
  8
0
  6
CONTINUOUS
 62
     7
 10
367.27390566690877
 20
773.30899398323436
 30
0.0
  0
VERTEX
  5
1D267
  8
0
  6
CONTINUOUS
 62
     7
 10
363.64108650638082
 20
775.51026154412011
 30
0.0
  0
VERTEX
  5
1D268
  8
0
  6
CONTINUOUS
 62
     7
 10
360.22908202228427
 20
778.03848617524545
 30
0.0
  0
VERTEX
  5
1D269
  8
0
  6
CONTINUOUS
 62
     7
 10
357.07978339838161
 20
780.85919189779725
 30
0.0
  0
VERTEX
  5
1D26A
  8
0
  6
CONTINUOUS
 62
     7
 10
354.20413755708432
 20
783.95918302570408
 30
0.0
  0
VERTEX
  5
1D26B
  8
0
  6
CONTINUOUS
 62
     7
 10
351.61638187915378
 20
787.32707559396567
 30
0.0
  0
VERTEX
  5
1D26C
  8
0
  6
CONTINUOUS
 62
     7
 10
349.3523572479171
 20
790.92050876265318
 30
0.0
  0
VERTEX
  5
1D26D
  8
0
  6
CONTINUOUS
 62
     7
 10
347.43931689830788
 20
794.69128834835192
 30
0.0
  0
VERTEX
  5
1D26E
  8
0
  6
CONTINUOUS
 62
     7
 10
345.88295612992079
 20
798.62226903605085
 30
0.0
  0
VERTEX
  5
1D26F
  8
0
  6
CONTINUOUS
 62
     7
 10
344.69193296968302
 20
802.69850717258566
 30
0.0
  0
VERTEX
  5
1D270
  8
0
  6
CONTINUOUS
 62
     7
 10
343.88412581717421
 20
806.8685884234792
 30
0.0
  0
VERTEX
  5
1D271
  8
0
  6
CONTINUOUS
 62
     7
 10
343.467817307639
 20
811.07632157771786
 30
0.0
  0
SEQEND
  5
1D272
  8
0
  6
CONTINUOUS
 62
     7
  0
POLYLINE
  5
258C
  8
0
  6
CONTINUOUS
 62
     7
 66
     1
 10
0.0
 20
0.0
 30
0.0
  0
VERTEX
  5
1D273
  8
0
  6
CONTINUOUS
 62
     7
 10
638.0271987439628
 20
750.69238543956362
 30
0.0
  0
VERTEX
  5
1D274
  8
0
  6
CONTINUOUS
 62
     7
 10
637.74683897955401
 20
750.71636382185443
 30
0.0
  0
VERTEX
  5
1D275
  8
0
  6
CONTINUOUS
 62
     7
 10
637.4692701265011
 20
750.78951396258253
 30
0.0
  0
VERTEX
  5
1D276
  8
0
  6
CONTINUOUS
 62
     7
 10
637.22322125105711
 20
750.90136561595773
 30
0.0
  0
VERTEX
  5
1D277
  8
0
  6
CONTINUOUS
 62
     7
 10
636.98437107093923
 20
751.0634200442064
 30
0.0
  0
VERTEX
  5
1D278
  8
0
  6
CONTINUOUS
 62
     7
 10
636.77116385697445
 20
751.27185505530258
 30
0.0
  0
VERTEX
  5
1D279
  8
0
  6
CONTINUOUS
 62
     7
 10
636.5959182029037
 20
751.52044135009692
 30
0.0
  0
VERTEX
  5
1D27A
  8
0
  6
CONTINUOUS
 62
     7
 10
636.45998269629479
 20
751.82412178922732
 30
0.0
  0
VERTEX
  5
1D27B
  8
0
  6
CONTINUOUS
 62
     7
 10
636.38493270667095
 20
752.17378807493424
 30
0.0
  0
SEQEND
  5
1D27C
  8
0
  6
CONTINUOUS
 62
     7
  0
POLYLINE
  5
2696
  8
0
  6
CONTINUOUS
 62
     7
 66
     1
 10
0.0
 20
0.0
 30
0.0
  0
VERTEX
  5
1D27D
  8
0
  6
CONTINUOUS
 62
     7
 10
651.53312831827486
 20
752.17379393723138
 30
0.0
  0
VERTEX
  5
1D27E
  8
0
  6
CONTINUOUS
 62
     7
 10
651.85985632114159
 20
755.35706317137283
 30
0.0
  0
VERTEX
  5
1D27F
  8
0
  6
CONTINUOUS
 62
     7
 10
652.54651070602995
 20
762.1668180354817
 30
0.0
  0
SEQEND
  5
1D280
  8
0
  6
CONTINUOUS
 62
     7
  0
POLYLINE
  5
26A0
  8
0
  6
CONTINUOUS
 62
     7
 66
     1
 10
0.0
 20
0.0
 30
0.0
  0
VERTEX
  5
1D281
  8
0
  6
CONTINUOUS
 62
     7
 10
652.54651851906965
 20
762.16690141859635
 30
0.0
  0
VERTEX
  5
1D282
  8
0
  6
CONTINUOUS
 62
     7
 10
652.65331196565239
 20
762.85066947955693
 30
0.0
  0
VERTEX
  5
1D283
  8
0
  6
CONTINUOUS
 62
     7
 10
652.82748758881644
 20
763.49426923882038
 30
0.0
  0
VERTEX
  5
1D284
  8
0
  6
CONTINUOUS
 62
     7
 10
653.05885400444095
 20
764.09068766498865
 30
0.0
  0
VERTEX
  5
1D285
  8
0
  6
CONTINUOUS
 62
     7
 10
653.33648123686714
 20
764.6343833924393
 30
0.0
  0
SEQEND
  5
1D286
  8
0
  6
CONTINUOUS
 62
     7
  0
POLYLINE
  5
26E3
  8
0
  6
CONTINUOUS
 62
     7
 66
     1
 10
0.0
 20
0.0
 30
0.0
  0
VERTEX
  5
1D287
  8
0
  6
CONTINUOUS
 62
     7
 10
737.43380639214593
 20
934.41059019443401
 30
0.0
  0
VERTEX
  5
1D288
  8
0
  6
CONTINUOUS
 62
     7
 10
737.45029988211172
 20
934.42553984194012
 30
0.0
  0
VERTEX
  5
1D289
  8
0
  6
CONTINUOUS
 62
     7
 10
737.46417349421245
 20
934.47038740275366
 30
0.0
  0
SEQEND
  5
1D28A
  8
0
  6
CONTINUOUS
 62
     7
  0
POLYLINE
  5
277E
  8
0
  6
CONTINUOUS
 62
     7
 66
     1
 10
0.0
 20
0.0
 30
0.0
  0
VERTEX
  5
1D28B
  8
0
  6
CONTINUOUS
 62
     7
 10
649.89085927362612
 20
750.69238543956362
 30
0.0
  0
VERTEX
  5
1D28C
  8
0
  6
CONTINUOUS
 62
     7
 10
650.17121899740584
 20
750.71636382185443
 30
0.0
  0
VERTEX
  5
1D28D
  8
0
  6
CONTINUOUS
 62
     7
 10
650.44878781995794
 20
750.78951394226794
 30
0.0
  0
VERTEX
  5
1D28E
  8
0
  6
CONTINUOUS
 62
     7
 10
650.69483666495944
 20
750.9013655549852
 30
0.0
  0
VERTEX
  5
1D28F
  8
0
  6
CONTINUOUS
 62
     7
 10
650.93368681463471
 20
751.06341994260492
 30
0.0
  0
VERTEX
  5
1D290
  8
0
  6
CONTINUOUS
 62
     7
 10
651.14689402854117
 20
751.27185490291504
 30
0.0
  0
VERTEX
  5
1D291
  8
0
  6
CONTINUOUS
 62
     7
 10
651.32213968261203
 20
751.52044113673674
 30
0.0
  0
VERTEX
  5
1D292
  8
0
  6
CONTINUOUS
 62
     7
 10
651.45807520959352
 20
751.82412146410843
 30
0.0
  0
VERTEX
  5
1D293
  8
0
  6
CONTINUOUS
 62
     7
 10
651.53312527028902
 20
752.1737877091573
 30
0.0
  0
SEQEND
  5
1D294
  8
0
  6
CONTINUOUS
 62
     7
  0
POLYLINE
  5
2789
  8
0
  6
CONTINUOUS
 62
     7
 66
     1
 10
0.0
 20
0.0
 30
0.0
  0
VERTEX
  5
1D295
  8
0
  6
CONTINUOUS
 62
     7
 10
398.74425206317392
 20
750.69238543956362
 30
0.0
  0
VERTEX
  5
1D296
  8
0
  6
CONTINUOUS
 62
     7
 10
399.0246121018572
 20
750.71636386251237
 30
0.0
  0
VERTEX
  5
1D297
  8
0
  6
CONTINUOUS
 62
     7
 10
399.3021812394291
 20
750.78951409468482
 30
0.0
  0
VERTEX
  5
1D298
  8
0
  6
CONTINUOUS
 62
     7
 10
399.54823033839062
 20
750.90136589029044
 30
0.0
  0
VERTEX
  5
1D299
  8
0
  6
CONTINUOUS
 62
     7
 10
399.7870807522122
 20
751.06342056237088
 30
0.0
  0
VERTEX
  5
1D29A
  8
0
  6
CONTINUOUS
 62
     7
 10
400.00028812869277
 20
751.27185583764265
 30
0.0
  0
VERTEX
  5
1D29B
  8
0
  6
CONTINUOUS
 62
     7
 10
400.17553388439399
 20
751.52044246771311
 30
0.0
  0
VERTEX
  5
1D29C
  8
0
  6
CONTINUOUS
 62
     7
 10
400.31146943163179
 20
751.82412338434995
 30
0.0
  0
VERTEX
  5
1D29D
  8
0
  6
CONTINUOUS
 62
     7
 10
400.38651929931069
 20
752.17379002561847
 30
0.0
  0
SEQEND
  5
1D29E
  8
0
  6
CONTINUOUS
 62
     7
  0
LINE
  5
2826
  8
0
  6
CONTINUOUS
 62
     7
 10
967.19553834347607
 20
764.33797610106194
 30
0.0
 11
1065.674884041201
 21
767.77695064042734
 31
0.0
  0
LINE
  5
2828
  8
0
  6
CONTINUOUS
 62
     7
 10
649.69553834347607
 20
764.33797610106194
 30
0.0
 11
650.92274712602739
 21
764.38083118425027
 31
0.0
  0
LINE
  5
28B1
  8
0
  6
CONTINUOUS
 62
     7
 10
945.61385616271946
 20
755.467585439549
 30
0.0
 11
825.09085616274524
 21
755.467585439549
 31
0.0
  0
LINE
  5
28B2
  8
0
  6
CONTINUOUS
 62
     7
 10
628.11385616271934
 20
755.467585439549
 30
0.0
 11
507.59085616274518
 21
755.467585439549
 31
0.0
  0
LINE
  5
295A
  8
0
  6
CONTINUOUS
 62
     7
 10
486.00917395154141
 20
764.33797611122645
 30
0.0
 11
387.52982828426411
 21
767.77695064042734
 31
0.0
  0
LINE
  5
295C
  8
0
  6
CONTINUOUS
 62
     7
 10
803.50917395154102
 20
764.33797611122645
 30
0.0
 11
802.28196519943674
 21
764.38083118425027
 31
0.0
  0
POLYLINE
  5
29E1
  8
0
  6
CONTINUOUS
 62
     7
 66
     1
 10
0.0
 20
0.0
 30
0.0
  0
VERTEX
  5
1D29F
  8
0
  6
CONTINUOUS
 62
     7
 10
802.28196513852163
 20
764.38083146874033
 30
0.0
  0
VERTEX
  5
1D2A0
  8
0
  6
CONTINUOUS
 62
     7
 10
798.16426815676095
 20
764.71135773685
 30
0.0
  0
VERTEX
  5
1D2A1
  8
0
  6
CONTINUOUS
 62
     7
 10
794.07622640651243
 20
765.41592170234708
 30
0.0
  0
VERTEX
  5
1D2A2
  8
0
  6
CONTINUOUS
 62
     7
 10
790.07264075354033
 20
766.48692602210849
 30
0.0
  0
VERTEX
  5
1D2A3
  8
0
  6
CONTINUOUS
 62
     7
 10
786.19783550851571
 20
767.90962525443217
 30
0.0
  0
VERTEX
  5
1D2A4
  8
0
  6
CONTINUOUS
 62
     7
 10
782.46439476615342
 20
769.67744744395065
 30
0.0
  0
VERTEX
  5
1D2A5
  8
0
  6
CONTINUOUS
 62
     7
 10
778.89144362906507
 20
771.78435894259655
 30
0.0
  0
VERTEX
  5
1D2A6
  8
0
  6
CONTINUOUS
 62
     7
 10
775.52591491689964
 20
774.20501726610291
 30
0.0
  0
VERTEX
  5
1D2A7
  8
0
  6
CONTINUOUS
 62
     7
 10
772.40611099651142
 20
776.90859301211367
 30
0.0
  0
VERTEX
  5
1D2A8
  8
0
  6
CONTINUOUS
 62
     7
 10
769.5419168163935
 20
779.88366940891774
 30
0.0
  0
VERTEX
  5
1D2A9
  8
0
  6
CONTINUOUS
 62
     7
 10
766.94744480944064
 20
783.11932243468516
 30
0.0
  0
VERTEX
  5
1D2AA
  8
0
  6
CONTINUOUS
 62
     7
 10
764.65722730204288
 20
786.57615720754893
 30
0.0
  0
VERTEX
  5
1D2AB
  8
0
  6
CONTINUOUS
 62
     7
 10
762.69735580398992
 20
790.21025325661219
 30
0.0
  0
VERTEX
  5
1D2AC
  8
0
  6
CONTINUOUS
 62
     7
 10
761.07331982419407
 20
794.00637206514409
 30
0.0
  0
VERTEX
  5
1D2AD
  8
0
  6
CONTINUOUS
 62
     7
 10
759.79366157577886
 20
797.95067678002567
 30
0.0
  0
VERTEX
  5
1D2AE
  8
0
  6
CONTINUOUS
 62
     7
 10
758.87652620913275
 20
801.99532954922233
 30
0.0
  0
VERTEX
  5
1D2AF
  8
0
  6
CONTINUOUS
 62
     7
 10
758.33127436596249
 20
806.08824390339475
 30
0.0
  0
SEQEND
  5
1D2B0
  8
0
  6
CONTINUOUS
 62
     7
  0
POLYLINE
  5
2A05
  8
0
  6
CONTINUOUS
 62
     7
 66
     1
 10
0.0
 20
0.0
 30
0.0
  0
VERTEX
  5
1D2B1
  8
0
  6
CONTINUOUS
 62
     7
 10
803.31385592716106
 20
750.69238543956362
 30
0.0
  0
VERTEX
  5
1D2B2
  8
0
  6
CONTINUOUS
 62
     7
 10
803.03349553288706
 20
750.71636388282695
 30
0.0
  0
VERTEX
  5
1D2B3
  8
0
  6
CONTINUOUS
 62
     7
 10
802.75592603972461
 20
750.78951419628629
 30
0.0
  0
VERTEX
  5
1D2B4
  8
0
  6
CONTINUOUS
 62
     7
 10
802.50987662580155
 20
750.9013661036505
 30
0.0
  0
VERTEX
  5
1D2B5
  8
0
  6
CONTINUOUS
 62
     7
 10
802.27102592751908
 20
751.0634208976179
 30
0.0
  0
VERTEX
  5
1D2B6
  8
0
  6
CONTINUOUS
 62
     7
 10
802.05781823607686
 20
751.27185639643619
 30
0.0
  0
VERTEX
  5
1D2B7
  8
0
  6
CONTINUOUS
 62
     7
 10
801.88257220604282
 20
751.52044326021041
 30
0.0
  0
VERTEX
  5
1D2B8
  8
0
  6
CONTINUOUS
 62
     7
 10
801.74663641491497
 20
751.82412439020754
 30
0.0
  0
VERTEX
  5
1D2B9
  8
0
  6
CONTINUOUS
 62
     7
 10
801.67158629321784
 20
752.17379149882527
 30
0.0
  0
SEQEND
  5
1D2BA
  8
0
  6
CONTINUOUS
 62
     7
  0
POLYLINE
  5
2A10
  8
0
  6
CONTINUOUS
 62
     7
 66
     1
 10
0.0
 20
0.0
 30
0.0
  0
VERTEX
  5
1D2BB
  8
0
  6
CONTINUOUS
 62
     7
 10
1054.460458839967
 20
750.69238543956362
 30
0.0
  0
VERTEX
  5
1D2BC
  8
0
  6
CONTINUOUS
 62
     7
 10
1054.180099004428
 20
750.71636384219801
 30
0.0
  0
VERTEX
  5
1D2BD
  8
0
  6
CONTINUOUS
 62
     7
 10
1053.902530070118
 20
750.78951402355494
 30
0.0
  0
VERTEX
  5
1D2BE
  8
0
  6
CONTINUOUS
 62
     7
 10
1053.6564811438579
 20
750.90136572771644
 30
0.0
  0
VERTEX
  5
1D2BF
  8
0
  6
CONTINUOUS
 62
     7
 10
1053.4176309027389
 20
751.0634202676946
 30
0.0
  0
VERTEX
  5
1D2C0
  8
0
  6
CONTINUOUS
 62
     7
 10
1053.204423678704
 20
751.27185539057882
 30
0.0
  0
VERTEX
  5
1D2C1
  8
0
  6
CONTINUOUS
 62
     7
 10
1053.0291780347609
 20
751.52044181747533
 30
0.0
  0
VERTEX
  5
1D2C2
  8
0
  6
CONTINUOUS
 62
     7
 10
1052.8932425585949
 20
751.82412249028027
 30
0.0
  0
VERTEX
  5
1D2C3
  8
0
  6
CONTINUOUS
 62
     7
 10
1052.8181927214171
 20
752.17378887755967
 30
0.0
  0
SEQEND
  5
1D2C4
  8
0
  6
CONTINUOUS
 62
     7
  0
LINE
  5
2AB2
  8
0
  6
CONTINUOUS
 62
     7
 10
705.20769486273628
 20
924.20863802026531
 30
0.0
 11
694.8734379493917
 21
806.08824390338748
 31
0.0
  0
POLYLINE
  5
2AB3
  8
0
  6
CONTINUOUS
 62
     7
 66
     1
 10
0.0
 20
0.0
 30
0.0
  0
VERTEX
  5
1D2C5
  8
0
  6
CONTINUOUS
 62
     7
 10
694.87343794941262
 20
806.08824390339475
 30
0.0
  0
VERTEX
  5
1D2C6
  8
0
  6
CONTINUOUS
 62
     7
 10
694.32818611637038
 20
801.9953295390651
 30
0.0
  0
VERTEX
  5
1D2C7
  8
0
  6
CONTINUOUS
 62
     7
 10
693.41105073953804
 20
797.95067676986855
 30
0.0
  0
VERTEX
  5
1D2C8
  8
0
  6
CONTINUOUS
 62
     7
 10
692.13139249112282
 20
794.00637205498685
 30
0.0
  0
VERTEX
  5
1D2C9
  8
0
  6
CONTINUOUS
 62
     7
 10
690.50735650125705
 20
790.21025323626873
 30
0.0
  0
VERTEX
  5
1D2CA
  8
0
  6
CONTINUOUS
 62
     7
 10
688.54748501333233
 20
786.57615718723446
 30
0.0
  0
VERTEX
  5
1D2CB
  8
0
  6
CONTINUOUS
 62
     7
 10
686.25726749574824
 20
783.1193224143417
 30
0.0
  0
VERTEX
  5
1D2CC
  8
0
  6
CONTINUOUS
 62
     7
 10
683.66279547872546
 20
779.88366938857405
 30
0.0
  0
VERTEX
  5
1D2CD
  8
0
  6
CONTINUOUS
 62
     7
 10
680.79860129854933
 20
776.90859298164185
 30
0.0
  0
VERTEX
  5
1D2CE
  8
0
  6
CONTINUOUS
 62
     7
 10
677.67879736797477
 20
774.20501724578844
 30
0.0
  0
VERTEX
  5
1D2CF
  8
0
  6
CONTINUOUS
 62
     7
 10
674.31326865580922
 20
771.78435891209574
 30
0.0
  0
VERTEX
  5
1D2D0
  8
0
  6
CONTINUOUS
 62
     7
 10
670.74031750859285
 20
769.67744742363629
 30
0.0
  0
VERTEX
  5
1D2D1
  8
0
  6
CONTINUOUS
 62
     7
 10
667.00687676623045
 20
767.90962522396046
 30
0.0
  0
VERTEX
  5
1D2D2
  8
0
  6
CONTINUOUS
 62
     7
 10
663.1320715110196
 20
766.48692601195125
 30
0.0
  0
VERTEX
  5
1D2D3
  8
0
  6
CONTINUOUS
 62
     7
 10
659.1284858580475
 20
765.4159216820326
 30
0.0
  0
VERTEX
  5
1D2D4
  8
0
  6
CONTINUOUS
 62
     7
 10
655.04044409761264
 20
764.71135772666366
 30
0.0
  0
VERTEX
  5
1D2D5
  8
0
  6
CONTINUOUS
 62
     7
 10
650.92274711591017
 20
764.38083146874033
 30
0.0
  0
SEQEND
  5
1D2D6
  8
0
  6
CONTINUOUS
 62
     7
  0
LINE
  5
2BE9
  8
0
  6
CONTINUOUS
 62
     7
 10
758.33127555464796
 20
806.08823038042726
 30
0.0
 11
758.3318204049674
 21
806.08823038042726
 31
0.0
  0
LINE
  5
2BEC
  8
0
  6
CONTINUOUS
 62
     7
 10
343.4678178969134
 20
811.07631024931197
 30
0.0
 11
343.46836386482119
 21
811.07631024931197
 31
0.0
  0
LINE
  5
2DE4
  8
0
  6
CONTINUOUS
 62
     7
 10
758.33127437611893
 20
806.08824390338748
 30
0.0
 11
747.99701746272785
 21
924.20863802026531
 31
0.0
  0
POLYLINE
  5
2ED7
  8
0
  6
CONTINUOUS
 62
     7
 66
     1
 10
0.0
 20
0.0
 30
0.0
  0
VERTEX
  5
1D2D7
  8
0
  6
CONTINUOUS
 62
     7
 10
747.99701746275241
 20
924.2086380202735
 30
0.0
  0
VERTEX
  5
1D2D8
  8
0
  6
CONTINUOUS
 62
     7
 10
747.79223216751416
 20
925.57269525659558
 30
0.0
  0
VERTEX
  5
1D2D9
  8
0
  6
CONTINUOUS
 62
     7
 10
747.42042813591252
 20
926.90270933008912
 30
0.0
  0
VERTEX
  5
1D2DA
  8
0
  6
CONTINUOUS
 62
     7
 10
746.88741675591154
 20
928.17673568730868
 30
0.0
  0
VERTEX
  5
1D2DB
  8
0
  6
CONTINUOUS
 62
     7
 10
746.20132654563338
 20
929.37532008210007
 30
0.0
  0
VERTEX
  5
1D2DC
  8
0
  6
CONTINUOUS
 62
     7
 10
745.37262313826056
 20
930.48015709009542
 30
0.0
  0
VERTEX
  5
1D2DD
  8
0
  6
CONTINUOUS
 62
     7
 10
744.41395048111735
 20
931.47436936636859
 30
0.0
  0
VERTEX
  5
1D2DE
  8
0
  6
CONTINUOUS
 62
     7
 10
743.33996183403349
 20
932.34274931107109
 30
0.0
  0
VERTEX
  5
1D2DF
  8
0
  6
CONTINUOUS
 62
     7
 10
742.1670926837395
 20
933.072013760603
 30
0.0
  0
VERTEX
  5
1D2E0
  8
0
  6
CONTINUOUS
 62
     7
 10
740.91325825972297
 20
933.65103693580659
 30
0.0
  0
VERTEX
  5
1D2E1
  8
0
  6
CONTINUOUS
 62
     7
 10
739.59760778456985
 20
934.07098735828822
 30
0.0
  0
VERTEX
  5
1D2E2
  8
0
  6
CONTINUOUS
 62
     7
 10
738.24023256696819
 20
934.32546227731575
 30
0.0
  0
VERTEX
  5
1D2E3
  8
0
  6
CONTINUOUS
 62
     7
 10
736.86347935396759
 20
934.4105854395666
 30
0.0
  0
SEQEND
  5
1D2E4
  8
0
  6
CONTINUOUS
 62
     7
  0
POLYLINE
  5
2F10
  8
0
  6
CONTINUOUS
 62
     7
 66
     1
 10
0.0
 20
0.0
 30
0.0
  0
VERTEX
  5
1D2E5
  8
0
  6
CONTINUOUS
 62
     7
 10
800.65820036981313
 20
762.1667823840462
 30
0.0
  0
VERTEX
  5
1D2E6
  8
0
  6
CONTINUOUS
 62
     7
 10
801.00658100908913
 20
758.69206987193957
 30
0.0
  0
VERTEX
  5
1D2E7
  8
0
  6
CONTINUOUS
 62
     7
 10
801.67157902884355
 20
752.17379731033634
 30
0.0
  0
SEQEND
  5
1D2E8
  8
0
  6
CONTINUOUS
 62
     7
  0
POLYLINE
  5
2FE6
  8
0
  6
CONTINUOUS
 62
     7
 66
     1
 10
0.0
 20
0.0
 30
0.0
  0
VERTEX
  5
1D2E9
  8
0
  6
CONTINUOUS
 62
     7
 10
715.77090593341563
 20
934.41059022493482
 30
0.0
  0
VERTEX
  5
1D2EA
  8
0
  6
CONTINUOUS
 62
     7
 10
715.75441259577929
 20
934.42553988259795
 30
0.0
  0
VERTEX
  5
1D2EB
  8
0
  6
CONTINUOUS
 62
     7
 10
715.74053883134911
 20
934.47038742306813
 30
0.0
  0
SEQEND
  5
1D2EC
  8
0
  6
CONTINUOUS
 62
     7
  0
LINE
  5
3000
  8
0
  6
CONTINUOUS
 62
     7
 10
816.81977691625241
 20
752.17373779305115
 30
0.0
 11
817.58978095410157
 21
759.73520297490177
 31
0.0
  0
POLYLINE
  5
3006
  8
0
  6
CONTINUOUS
 62
     7
 66
     1
 10
0.0
 20
0.0
 30
0.0
  0
VERTEX
  5
1D2ED
  8
0
  6
CONTINUOUS
 62
     7
 10
817.58978101507819
 20
759.7352169246069
 30
0.0
  0
VERTEX
  5
1D2EE
  8
0
  6
CONTINUOUS
 62
     7
 10
817.66888213199843
 20
760.28391177842332
 30
0.0
  0
VERTEX
  5
1D2EF
  8
0
  6
CONTINUOUS
 62
     7
 10
817.70210823507512
 20
760.42713016775508
 30
0.0
  0
SEQEND
  5
1D2F0
  8
0
  6
CONTINUOUS
 62
     7
  0
LINE
  5
3047
  8
0
  6
CONTINUOUS
 62
     7
 10
799.87808796504714
 20
764.57378994491125
 30
0.0
 11
799.89196580307635
 21
764.58766778294057
 31
0.0
  0
POLYLINE
  5
30BF
  8
0
  6
CONTINUOUS
 62
     7
 66
     1
 10
0.0
 20
0.0
 30
0.0
  0
VERTEX
  5
1D2F1
  8
0
  6
CONTINUOUS
 62
     7
 10
716.34123296140751
 20
934.4105854395666
 30
0.0
  0
VERTEX
  5
1D2F2
  8
0
  6
CONTINUOUS
 62
     7
 10
714.96447974846524
 20
934.32546227731575
 30
0.0
  0
VERTEX
  5
1D2F3
  8
0
  6
CONTINUOUS
 62
     7
 10
713.60710453074705
 20
934.07098735828822
 30
0.0
  0
VERTEX
  5
1D2F4
  8
0
  6
CONTINUOUS
 62
     7
 10
712.29145405565214
 20
933.65103693580659
 30
0.0
  0
VERTEX
  5
1D2F5
  8
0
  6
CONTINUOUS
 62
     7
 10
711.03761963163561
 20
933.072013760603
 30
0.0
  0
VERTEX
  5
1D2F6
  8
0
  6
CONTINUOUS
 62
     7
 10
709.86475048134162
 20
932.34274931107109
 30
0.0
  0
VERTEX
  5
1D2F7
  8
0
  6
CONTINUOUS
 62
     7
 10
708.79076184444409
 20
931.47436936636859
 30
0.0
  0
VERTEX
  5
1D2F8
  8
0
  6
CONTINUOUS
 62
     7
 10
707.83208917705633
 20
930.48015709009542
 30
0.0
  0
VERTEX
  5
1D2F9
  8
0
  6
CONTINUOUS
 62
     7
 10
707.0033857696834
 20
929.37532008210007
 30
0.0
  0
VERTEX
  5
1D2FA
  8
0
  6
CONTINUOUS
 62
     7
 10
706.31729555946356
 20
928.17673568730868
 30
0.0
  0
VERTEX
  5
1D2FB
  8
0
  6
CONTINUOUS
 62
     7
 10
705.78428417952091
 20
926.90270933008912
 30
0.0
  0
VERTEX
  5
1D2FC
  8
0
  6
CONTINUOUS
 62
     7
 10
705.41248015804729
 20
925.57269525659558
 30
0.0
  0
VERTEX
  5
1D2FD
  8
0
  6
CONTINUOUS
 62
     7
 10
705.20769486275094
 20
924.2086380202735
 30
0.0
  0
SEQEND
  5
1D2FE
  8
0
  6
CONTINUOUS
 62
     7
  0
LINE
  5
3109
  8
0
  6
CONTINUOUS
 62
     7
 10
737.43380704232004
 20
934.41058385458018
 30
0.0
 11
715.77090657343695
 21
934.41058385458018
 31
0.0
  0
LINE
  5
323A
  8
0
  6
CONTINUOUS
 62
     7
 10
308.51835616275463
 20
960.57258543954413
 30
0.0
 11
317.56783803113609
 21
960.57258543976377
 31
0.0
  0
LINE
  5
324D
  8
0
  6
CONTINUOUS
 62
     7
 10
1130.53627016275
 20
974.79658543953155
 30
0.0
 11
322.6684421627142
 21
974.79658543953155
 31
0.0
  0
POLYLINE
  5
34A4
  8
0
  6
CONTINUOUS
 62
     7
 66
     1
 10
0.0
 20
0.0
 30
0.0
  0
VERTEX
  5
1D2FF
  8
0
  6
CONTINUOUS
 62
     7
 10
1051.832091366188
 20
761.8933328115445
 30
0.0
  0
VERTEX
  5
1D300
  8
0
  6
CONTINUOUS
 62
     7
 10
1052.171583935866
 20
758.50992884938648
 30
0.0
  0
VERTEX
  5
1D301
  8
0
  6
CONTINUOUS
 62
     7
 10
1052.818191146609
 20
752.17379521739258
 30
0.0
  0
SEQEND
  5
1D302
  8
0
  6
CONTINUOUS
 62
     7
  0
LINE
  5
3526
  8
0
  6
CONTINUOUS
 62
     7
 10
1068.7976267416391
 20
760.34517798049535
 30
0.0
 11
1069.2418675193951
 21
764.83728240241078
 31
0.0
  0
LINE
  5
352E
  8
0
  6
CONTINUOUS
 62
     7
 10
1067.9663916247971
 20
752.17379305330269
 30
0.0
 11
1068.7976267416391
 21
760.34517798049535
 31
0.0
  0
POLYLINE
  5
3534
  8
0
  6
CONTINUOUS
 62
     7
 66
     1
 10
0.0
 20
0.0
 30
0.0
  0
VERTEX
  5
1D303
  8
0
  6
CONTINUOUS
 62
     7
 10
1069.239389678303
 20
764.78105054132811
 30
0.0
  0
VERTEX
  5
1D304
  8
0
  6
CONTINUOUS
 62
     7
 10
1069.3375910871689
 20
765.42773994643994
 30
0.0
  0
VERTEX
  5
1D305
  8
0
  6
CONTINUOUS
 62
     7
 10
1069.4950718593459
 20
766.03656673993726
 30
0.0
  0
VERTEX
  5
1D306
  8
0
  6
CONTINUOUS
 62
     7
 10
1069.7031921746241
 20
766.60328942668912
 30
0.0
  0
VERTEX
  5
1D307
  8
0
  6
CONTINUOUS
 62
     7
 10
1069.9533326547969
 20
767.1246770249918
 30
0.0
  0
VERTEX
  5
1D308
  8
0
  6
CONTINUOUS
 62
     7
 10
1070.2367282678169
 20
767.59815491978134
 30
0.0
  0
VERTEX
  5
1D309
  8
0
  6
CONTINUOUS
 62
     7
 10
1070.543859479789
 20
768.02116277075311
 30
0.0
  0
VERTEX
  5
1D30A
  8
0
  6
CONTINUOUS
 62
     7
 10
1070.7617391173781
 20
768.27301135303549
 30
0.0
  0
SEQEND
  5
1D30B
  8
0
  6
CONTINUOUS
 62
     7
  0
LINE
  5
358D
  8
0
  6
CONTINUOUS
 62
     7
 10
1117.2695712808929
 20
954.80749208786528
 30
0.0
 11
1109.7368950076971
 21
811.07632157770695
 31
0.0
  0
POLYLINE
  5
358E
  8
0
  6
CONTINUOUS
 62
     7
 66
     1
 10
0.0
 20
0.0
 30
0.0
  0
VERTEX
  5
1D30C
  8
0
  6
CONTINUOUS
 62
     7
 10
1109.7368950178641
 20
811.07632156756051
 30
0.0
  0
VERTEX
  5
1D30D
  8
0
  6
CONTINUOUS
 62
     7
 10
1109.3205865083289
 20
806.8685884234792
 30
0.0
  0
VERTEX
  5
1D30E
  8
0
  6
CONTINUOUS
 62
     7
 10
1108.51277934575
 20
802.69850717258566
 30
0.0
  0
VERTEX
  5
1D30F
  8
0
  6
CONTINUOUS
 62
     7
 10
1107.321756185454
 20
798.62226903605085
 30
0.0
  0
VERTEX
  5
1D310
  8
0
  6
CONTINUOUS
 62
     7
 10
1105.765395427195
 20
794.69128834835192
 30
0.0
  0
VERTEX
  5
1D311
  8
0
  6
CONTINUOUS
 62
     7
 10
1103.8523550673999
 20
790.92050876265318
 30
0.0
  0
VERTEX
  5
1D312
  8
0
  6
CONTINUOUS
 62
     7
 10
1101.5883304463489
 20
787.32707559396567
 30
0.0
  0
VERTEX
  5
1D313
  8
0
  6
CONTINUOUS
 62
     7
 10
1099.0005747582909
 20
783.95918302570408
 30
0.0
  0
VERTEX
  5
1D314
  8
0
  6
CONTINUOUS
 62
     7
 10
1096.12492892718
 20
780.85919189779725
 30
0.0
  0
VERTEX
  5
1D315
  8
0
  6
CONTINUOUS
 62
     7
 10
1092.9756302930909
 20
778.03848617524545
 30
0.0
  0
VERTEX
  5
1D316
  8
0
  6
CONTINUOUS
 62
     7
 10
1089.5636258089939
 20
775.51026154412011
 30
0.0
  0
VERTEX
  5
1D317
  8
0
  6
CONTINUOUS
 62
     7
 10
1085.9308066585941
 20
773.30899398323436
 30
0.0
  0
VERTEX
  5
1D318
  8
0
  6
CONTINUOUS
 62
     7
 10
1082.126548714717
 20
771.46174677601721
 30
0.0
  0
VERTEX
  5
1D319
  8
0
  6
CONTINUOUS
 62
     7
 10
1078.1694453055529
 20
769.97441653250189
 30
0.0
  0
VERTEX
  5
1D31A
  8
0
  6
CONTINUOUS
 62
     7
 10
1074.07381799772
 20
768.85488218026057
 30
0.0
  0
VERTEX
  5
1D31B
  8
0
  6
CONTINUOUS
 62
     7
 10
1069.889808260559
 20
768.11982927396366
 30
0.0
  0
VERTEX
  5
1D31C
  8
0
  6
CONTINUOUS
 62
     7
 10
1065.6748840107609
 20
767.77695146340454
 30
0.0
  0
SEQEND
  5
1D31D
  8
0
  6
CONTINUOUS
 62
     7
  0
POLYLINE
  5
3625
  8
0
  6
CONTINUOUS
 62
     7
 66
     1
 10
0.0
 20
0.0
 30
0.0
  0
VERTEX
  5
1D31E
  8
0
  6
CONTINUOUS
 62
     7
 10
1145.7023561627859
 20
961.58858543955205
 30
0.0
  0
VERTEX
  5
1D31F
  8
0
  6
CONTINUOUS
 62
     7
 10
1145.674011520473
 20
962.19851413588094
 30
0.0
  0
VERTEX
  5
1D320
  8
0
  6
CONTINUOUS
 62
     7
 10
1145.6043966228749
 20
962.79929343722233
 30
0.0
  0
VERTEX
  5
1D321
  8
0
  6
CONTINUOUS
 62
     7
 10
1145.5043369397899
 20
963.3933232982007
 30
0.0
  0
VERTEX
  5
1D322
  8
0
  6
CONTINUOUS
 62
     7
 10
1145.377426225881
 20
963.98140041516217
 30
0.0
  0
VERTEX
  5
1D323
  8
0
  6
CONTINUOUS
 62
     7
 10
1145.2234251317709
 20
964.56347175289466
 30
0.0
  0
VERTEX
  5
1D324
  8
0
  6
CONTINUOUS
 62
     7
 10
1145.0380720556859
 20
965.13859251276051
 30
0.0
  0
VERTEX
  5
1D325
  8
0
  6
CONTINUOUS
 62
     7
 10
1144.808805193941
 20
965.70397782853161
 30
0.0
  0
SEQEND
  5
1D326
  8
0
  6
CONTINUOUS
 62
     7
  0
LINE
  5
363B
  8
0
  6
CONTINUOUS
 62
     7
 10
1145.0835100445991
 20
965.00823039601084
 30
0.0
 11
1144.808805193921
 21
965.70397782851057
 31
0.0
  0
POLYLINE
  5
3642
  8
0
  6
CONTINUOUS
 62
     7
 66
     1
 10
0.0
 20
0.0
 30
0.0
  0
VERTEX
  5
1D327
  8
0
  6
CONTINUOUS
 62
     7
 10
1145.084402214517
 20
965.00560568195112
 30
0.0
  0
VERTEX
  5
1D328
  8
0
  6
CONTINUOUS
 62
     7
 10
1145.3215462258811
 20
964.20594027595405
 30
0.0
  0
VERTEX
  5
1D329
  8
0
  6
CONTINUOUS
 62
     7
 10
1145.5212600555531
 20
963.30372496075063
 30
0.0
  0
VERTEX
  5
1D32A
  8
0
  6
CONTINUOUS
 62
     7
 10
1145.653647060288
 20
962.40877818069475
 30
0.0
  0
VERTEX
  5
1D32B
  8
0
  6
CONTINUOUS
 62
     7
 10
1145.7023561627859
 20
961.58858543955205
 30
0.0
  0
SEQEND
  5
1D32C
  8
0
  6
CONTINUOUS
 62
     7
  0
ARC
  5
83F8
  8
0
  6
CONTINUOUS
 62
     7
 10
628.11385616271934
 20
757.11858543953895
 30
0.0
 40
1.6509999999999989
 50
270.00000000000063
 51
312.79000943360069
  0
ARC
  5
83F9
  8
0
  6
CONTINUOUS
 62
     7
 10
507.59085616274518
 20
757.11858543953895
 30
0.0
 40
1.6509999999999989
 50
227.20999056640051
 51
270.00000000000063
  0
ARC
  5
83FA
  8
0
  6
CONTINUOUS
 62
     7
 10
945.61385616271946
 20
757.11858543953895
 30
0.0
 40
1.6509999999999989
 50
270.00000000000063
 51
312.79000943360069
  0
ARC
  5
83FB
  8
0
  6
CONTINUOUS
 62
     7
 10
825.09085616274524
 20
757.11858543953895
 30
0.0
 40
1.6509999999999989
 50
227.20999056640051
 51
270.00000000000063
  0
ARC
  5
83FC
  8
0
  6
CONTINUOUS
 62
     7
 10
968.30360151721015
 20
732.60731748985654
 30
0.0
 40
31.75
 50
92.000007468500186
 51
132.79000943360029
  0
ARC
  5
83FD
  8
0
  6
CONTINUOUS
 62
     7
 10
802.40111079808946
 20
732.60731748985654
 30
0.0
 40
31.75
 50
47.209990566400101
 51
87.999992516700189
  0
ARC
  5
8402
  8
0
  6
CONTINUOUS
 62
     7
 10
650.80360151721015
 20
732.60731748985654
 30
0.0
 40
31.75
 50
92.000007468500186
 51
132.79000943360029
  0
ARC
  5
8403
  8
0
  6
CONTINUOUS
 62
     7
 10
484.90111079808997
 20
732.60731748985654
 30
0.0
 40
31.75
 50
47.209990566400101
 51
88.000000000000213
  0
ARC
  5
8404
  8
0
  6
CONTINUOUS
 62
     7
 10
322.6684421627142
 20
959.04858543953458
 30
0.0
 40
15.747999999999999
 50
90.000000000000185
 51
155.00000000000031
  0
ARC
  5
8405
  8
0
  6
CONTINUOUS
 62
     7
 10
308.51835616275463
 20
961.58858543954375
 30
0.0
 40
1.016
 50
180.0000000000004
 51
270.00000000000063
  0
ARC
  5
8406
  8
0
  6
CONTINUOUS
 62
     7
 10
1130.53627016275
 20
959.04858543953458
 30
0.0
 40
15.747999999999999
 50
25.00000000000006
 51
90.000000000000185
  0
ARC
  5
8407
  8
0
  6
CONTINUOUS
 62
     7
 10
1144.6863561627561
 20
961.58858543954375
 30
0.0
 40
1.016
 50
270.00000000000063
 51
0.0000000000007994
  0
TEXT
  5
1489E
  8
AM_TR
 10
15233.46532376406
 20
-2563.366941877001
 30
0.0
 40
180.0
  1

  0
TEXT
  5
16DE0
  8
AM_TR
 10
15233.46532376406
 20
-2563.366941877001
 30
0.0
 40
180.0
  1

  0
LINE
  5
1D0FC
  8
0
  6
CONTINUOUS
 62
     7
 10
1144.6863561627561
 20
960.57258543954367
 30
0.0
 11
317.56783803113609
 21
960.57258543976377
 31
0.0
  0
POLYLINE
  5
1D0FF
  8
0
  6
CONTINUOUS
 62
     7
 66
     1
 10
0.0
 20
0.0
 30
0.0
  0
VERTEX
  5
1D40E
  8
0
  6
CONTINUOUS
 62
     7
 10
382.44309322023958
 20
768.27299026876199
 30
0.0
  0
VERTEX
  5
1D40F
  8
0
  6
CONTINUOUS
 62
     7
 10
382.66366544867918
 20
768.01761547788101
 30
0.0
  0
VERTEX
  5
1D410
  8
0
  6
CONTINUOUS
 62
     7
 10
382.97021913582279
 20
767.59476759611334
 30
0.0
  0
VERTEX
  5
1D411
  8
0
  6
CONTINUOUS
 62
     7
 10
383.25298293908418
 20
767.12169318539145
 30
0.0
  0
VERTEX
  5
1D412
  8
0
  6
CONTINUOUS
 62
     7
 10
383.50253357029578
 20
766.60088941114998
 30
0.0
  0
VERTEX
  5
1D413
  8
0
  6
CONTINUOUS
 62
     7
 10
383.71016507777682
 20
766.03488535140696
 30
0.0
  0
VERTEX
  5
1D414
  8
0
  6
CONTINUOUS
 62
     7
 10
383.86729814427957
 20
765.42687214018133
 30
0.0
  0
SEQEND
  5
1D415
  8
0
  6
CONTINUOUS
 62
     7
  0
LINE
  5
1D103
  8
0
  6
CONTINUOUS
 62
     7
 10
383.96532889561792
 20
764.7809652277856
 30
0.0
 11
383.86729814427957
 21
765.42687214018133
 31
0.0
  0
POLYLINE
  5
1D105
  8
0
  6
CONTINUOUS
 62
     7
 66
     1
 10
0.0
 20
0.0
 30
0.0
  0
VERTEX
  5
1D416
  8
0
  6
CONTINUOUS
 62
     7
 10
635.61493605491034
 20
759.7352236117099
 30
0.0
  0
VERTEX
  5
1D417
  8
0
  6
CONTINUOUS
 62
     7
 10
635.61493670540222
 20
759.73521911915213
 30
0.0
  0
SEQEND
  5
1D418
  8
0
  6
CONTINUOUS
 62
     7
  0
POLYLINE
  5
1D10C
  8
0
  6
CONTINUOUS
 62
     7
 66
     1
 10
0.0
 20
0.0
 30
0.0
  0
VERTEX
  5
1D419
  8
0
  6
CONTINUOUS
 62
     7
 10
799.89196580307635
 20
764.58766778294057
 30
0.0
  0
VERTEX
  5
1D41A
  8
0
  6
CONTINUOUS
 62
     7
 10
800.14507949609845
 20
764.09241064859725
 30
0.0
  0
VERTEX
  5
1D41B
  8
0
  6
CONTINUOUS
 62
     7
 10
800.37681006641651
 20
763.49551603338375
 30
0.0
  0
VERTEX
  5
1D41C
  8
0
  6
CONTINUOUS
 62
     7
 10
800.55125452323398
 20
762.85133559964652
 30
0.0
  0
VERTEX
  5
1D41D
  8
0
  6
CONTINUOUS
 62
     7
 10
800.65819051461585
 20
762.16689859409871
 30
0.0
  0
SEQEND
  5
1D41E
  8
0
  6
CONTINUOUS
 62
     7
  0
POLYLINE
  5
1D114
  8
0
  6
CONTINUOUS
 62
     7
 66
     1
 10
0.0
 20
0.0
 30
0.0
  0
VERTEX
  5
1D41F
  8
0
  6
CONTINUOUS
 62
     7
 10
1047.9413745959901
 20
767.18602607172852
 30
0.0
  0
VERTEX
  5
1D420
  8
0
  6
CONTINUOUS
 62
     7
 10
1048.27834611405
 20
767.03112691490139
 30
0.0
  0
VERTEX
  5
1D421
  8
0
  6
CONTINUOUS
 62
     7
 10
1048.6165058847539
 20
766.85097917257269
 30
0.0
  0
VERTEX
  5
1D422
  8
0
  6
CONTINUOUS
 62
     7
 10
1048.953675583776
 20
766.64427376937874
 30
0.0
  0
VERTEX
  5
1D423
  8
0
  6
CONTINUOUS
 62
     7
 10
1049.2874750177871
 20
766.40981063657728
 30
0.0
  0
VERTEX
  5
1D424
  8
0
  6
CONTINUOUS
 62
     7
 10
1049.6152531176481
 20
766.14657462764353
 30
0.0
  0
VERTEX
  5
1D425
  8
0
  6
CONTINUOUS
 62
     7
 10
1049.934153196125
 20
765.85372800988887
 30
0.0
  0
VERTEX
  5
1D426
  8
0
  6
CONTINUOUS
 62
     7
 10
1050.2410937964009
 20
765.53065869410693
 30
0.0
  0
VERTEX
  5
1D427
  8
0
  6
CONTINUOUS
 62
     7
 10
1050.532770601872
 20
765.17702458298936
 30
0.0
  0
VERTEX
  5
1D428
  8
0
  6
CONTINUOUS
 62
     7
 10
1050.8056717578579
 20
764.79279317465898
 30
0.0
  0
VERTEX
  5
1D429
  8
0
  6
CONTINUOUS
 62
     7
 10
1051.0560963726159
 20
764.37828488508876
 30
0.0
  0
VERTEX
  5
1D42A
  8
0
  6
CONTINUOUS
 62
     7
 10
1051.2801788606589
 20
763.93421908282369
 30
0.0
  0
VERTEX
  5
1D42B
  8
0
  6
CONTINUOUS
 62
     7
 10
1051.473920937002
 20
763.46176257281957
 30
0.0
  0
VERTEX
  5
1D42C
  8
0
  6
CONTINUOUS
 62
     7
 10
1051.6332343699321
 20
762.96257392425377
 30
0.0
  0
VERTEX
  5
1D42D
  8
0
  6
CONTINUOUS
 62
     7
 10
1051.753992756843
 20
762.43884394810357
 30
0.0
  0
VERTEX
  5
1D42E
  8
0
  6
CONTINUOUS
 62
     7
 10
1051.83209185391
 20
761.8933283614524
 30
0.0
  0
SEQEND
  5
1D42F
  8
0
  6
CONTINUOUS
 62
     7
  0
POLYLINE
  5
1D11B
  8
0
  6
CONTINUOUS
 62
     7
 66
     1
 10
0.0
 20
0.0
 30
0.0
  0
VERTEX
  5
1D430
  8
0
  6
CONTINUOUS
 62
     7
 10
1117.2695712910249
 20
954.80749208786347
 30
0.0
  0
VERTEX
  5
1D431
  8
0
  6
CONTINUOUS
 62
     7
 10
1117.3993220907039
 20
956.01743326971246
 30
0.0
  0
VERTEX
  5
1D432
  8
0
  6
CONTINUOUS
 62
     7
 10
1117.6602015689471
 20
957.20735942427473
 30
0.0
  0
VERTEX
  5
1D433
  8
0
  6
CONTINUOUS
 62
     7
 10
1118.0490621679101
 20
958.36187471746871
 30
0.0
  0
VERTEX
  5
1D434
  8
0
  6
CONTINUOUS
 62
     7
 10
1118.561305430926
 20
959.46726459201363
 30
0.0
  0
VERTEX
  5
1D435
  8
0
  6
CONTINUOUS
 62
     7
 10
1119.1908297903469
 20
960.51033442866799
 30
0.0
  0
VERTEX
  5
1D436
  8
0
  6
CONTINUOUS
 62
     7
 10
1119.2383573662701
 20
960.57258543975945
 30
0.0
  0
SEQEND
  5
1D437
  8
0
  6
CONTINUOUS
 62
     7
  0
VIEWPORT
  5
1BA3F
 67
     1
  8
0
 10
5.2499996395561626
 20
3.999999883606677
 30
0.0
 40
18.959600603611229
 41
8.9929997457669462
 68
     1
 69
     1
1001
ACAD
1000
MVIEW
1002
{
1070
    16
1010
0.0
1020
0.0
1030
0.0
1010
0.0
1020
0.0
1030
1.0
1040
0.0
1040
8.9929997457669462
1040
5.2499996395561626
1040
3.999999883606677
1040
50.0
1040
0.0
1040
0.0
1070
     0
1070
   100
1070
     1
1070
     1
1070
     0
1070
     0
1070
     0
1070
     0
1040
0.0
1040
0.0
1040
0.0
1040
10.0
1040
10.0
1040
10.0
1040
10.0
1070
     0
1002
{
1002
}
1002
}
1001
GENIUS_GENOBJ-N-SDF_13
1002
{
1000
OWNER
1000
GEN
1002
}
1001
GENIUS_GENODEF_13
1002
{
1000
HIER
1070
     0
1002
}
1002
{
1000
MANEDIT
1070
     0
1002
}
1002
{
1000
NOSEL
1070
     0
1002
}
1002
{
1000
BEHIND
1070
     0
1002
}
1002
{
1000
OTHER
1070
     0
1002
}
1002
{
1000
REACTOR
1002
}
1001
GENIUS_GENSCREG_15
1000
PF
1040
1.0
1000
DF
1040
1.0
1000
MIN
1011
-4.2298006622494517
1021
0.0
1031
0.0
1021
-0.4964999892767957
1031
0.0
1000
MAX
1011
14.72979994136178
1021
0.0
1031
0.0
1021
8.4964997564901523
1031
0.0
1000
FLAGS
1070
     2
  0
ENDSEC
  0
EOF
